  0
SECTION
  2
HEADER
  9
$ACADVER
  1
AC1021
  9
$ACADMAINTVER
 70
    25
  9
$DWGCODEPAGE
  3
ANSI_1252
  9
$INSBASE
 10
0.0
 20
0.0
 30
0.0
  9
$EXTMIN
 10
-9.74612
 20
1.92418
 30
0.0
  9
$EXTMAX
 10
8.01728
 20
11.10218
 30
0.0
  9
$LIMMIN
 10
0.0
 20
0.0
  9
$LIMMAX
 10
12.0
 20
9.0
  9
$ORTHOMODE
 70
     0
  9
$REGENMODE
 70
     1
  9
$FILLMODE
 70
     1
  9
$QTEXTMODE
 70
     0
  9
$MIRRTEXT
 70
     1
  9
$LTSCALE
 40
1.0
  9
$ATTMODE
 70
     1
  9
$TEXTSIZE
 40
0.2
  9
$TRACEWID
 40
0.05
  9
$TEXTSTYLE
  7
Standard
  9
$CLAYER
  8
0
  9
$CELTYPE
  6
ByLayer
  9
$CECOLOR
 62
   256
  9
$CELTSCALE
 40
1.0
  9
$DISPSILH
 70
     0
  9
$DIMSCALE
 40
1.0
  9
$DIMASZ
 40
0.18
  9
$DIMEXO
 40
0.0625
  9
$DIMDLI
 40
0.38
  9
$DIMRND
 40
0.0
  9
$DIMDLE
 40
0.0
  9
$DIMEXE
 40
0.18
  9
$DIMTP
 40
0.0
  9
$DIMTM
 40
0.0
  9
$DIMTXT
 40
0.18
  9
$DIMCEN
 40
0.09
  9
$DIMTSZ
 40
0.0
  9
$DIMTOL
 70
     0
  9
$DIMLIM
 70
     0
  9
$DIMTIH
 70
     1
  9
$DIMTOH
 70
     1
  9
$DIMSE1
 70
     0
  9
$DIMSE2
 70
     0
  9
$DIMTAD
 70
     0
  9
$DIMZIN
 70
     0
  9
$DIMBLK
  1

  9
$DIMASO
 70
     1
  9
$DIMSHO
 70
     1
  9
$DIMPOST
  1

  9
$DIMAPOST
  1

  9
$DIMALT
 70
     0
  9
$DIMALTD
 70
     2
  9
$DIMALTF
 40
25.4
  9
$DIMLFAC
 40
1.0
  9
$DIMTOFL
 70
     0
  9
$DIMTVP
 40
0.0
  9
$DIMTIX
 70
     0
  9
$DIMSOXD
 70
     0
  9
$DIMSAH
 70
     0
  9
$DIMBLK1
  1

  9
$DIMBLK2
  1

  9
$DIMSTYLE
  2
Standard
  9
$DIMCLRD
 70
     0
  9
$DIMCLRE
 70
     0
  9
$DIMCLRT
 70
     0
  9
$DIMTFAC
 40
1.0
  9
$DIMGAP
 40
0.09
  9
$DIMJUST
 70
     0
  9
$DIMSD1
 70
     0
  9
$DIMSD2
 70
     0
  9
$DIMTOLJ
 70
     1
  9
$DIMTZIN
 70
     0
  9
$DIMALTZ
 70
     0
  9
$DIMALTTZ
 70
     0
  9
$DIMUPT
 70
     0
  9
$DIMDEC
 70
     4
  9
$DIMTDEC
 70
     4
  9
$DIMALTU
 70
     2
  9
$DIMALTTD
 70
     2
  9
$DIMTXSTY
  7
Standard
  9
$DIMAUNIT
 70
     0
  9
$DIMADEC
 70
     0
  9
$DIMALTRND
 40
0.0
  9
$DIMAZIN
 70
     0
  9
$DIMDSEP
 70
    46
  9
$DIMATFIT
 70
     3
  9
$DIMFRAC
 70
     0
  9
$DIMLDRBLK
  1

  9
$DIMLUNIT
 70
     2
  9
$DIMLWD
 70
    -2
  9
$DIMLWE
 70
    -2
  9
$DIMTMOVE
 70
     0
  9
$DIMFXL
 40
1.0
  9
$DIMFXLON
 70
     0
  9
$DIMJOGANG
 40
0.7853981633974483
  9
$DIMTFILL
 70
     0
  9
$DIMTFILLCLR
 70
     0
  9
$DIMARCSYM
 70
     0
  9
$DIMLTYPE
  6

  9
$DIMLTEX1
  6

  9
$DIMLTEX2
  6

  9
$LUNITS
 70
     2
  9
$LUPREC
 70
     4
  9
$SKETCHINC
 40
0.1
  9
$FILLETRAD
 40
0.5
  9
$AUNITS
 70
     0
  9
$AUPREC
 70
     0
  9
$MENU
  1
.
  9
$ELEVATION
 40
0.0
  9
$PELEVATION
 40
0.0
  9
$THICKNESS
 40
0.0
  9
$LIMCHECK
 70
     0
  9
$CHAMFERA
 40
0.5
  9
$CHAMFERB
 40
0.5
  9
$CHAMFERC
 40
1.0
  9
$CHAMFERD
 40
0.0
  9
$SKPOLY
 70
     0
  9
$TDCREATE
 40
2456615.368876111
  9
$TDUCREATE
 40
2456615.327209444
  9
$TDUPDATE
 40
2456615.368876123
  9
$TDUUPDATE
 40
2456615.327209456
  9
$TDINDWG
 40
0.0000000116
  9
$TDUSRTIMER
 40
0.0000000116
  9
$USRTIMER
 70
     1
  9
$ANGBASE
 50
0.0
  9
$ANGDIR
 70
     0
  9
$PDMODE
 70
     0
  9
$PDSIZE
 40
0.0
  9
$PLINEWID
 40
0.0
  9
$SPLFRAME
 70
     0
  9
$SPLINETYPE
 70
     6
  9
$SPLINESEGS
 70
     8
  9
$HANDSEED
  5
1BD
  9
$SURFTAB1
 70
     6
  9
$SURFTAB2
 70
     6
  9
$SURFTYPE
 70
     6
  9
$SURFU
 70
     6
  9
$SURFV
 70
     6
  9
$UCSBASE
  2

  9
$UCSNAME
  2

  9
$UCSORG
 10
0.0
 20
0.0
 30
0.0
  9
$UCSXDIR
 10
1.0
 20
0.0
 30
0.0
  9
$UCSYDIR
 10
0.0
 20
1.0
 30
0.0
  9
$UCSORTHOREF
  2

  9
$UCSORTHOVIEW
 70
     0
  9
$UCSORGTOP
 10
0.0
 20
0.0
 30
0.0
  9
$UCSORGBOTTOM
 10
0.0
 20
0.0
 30
0.0
  9
$UCSORGLEFT
 10
0.0
 20
0.0
 30
0.0
  9
$UCSORGRIGHT
 10
0.0
 20
0.0
 30
0.0
  9
$UCSORGFRONT
 10
0.0
 20
0.0
 30
0.0
  9
$UCSORGBACK
 10
0.0
 20
0.0
 30
0.0
  9
$PUCSBASE
  2

  9
$PUCSNAME
  2

  9
$PUCSORG
 10
0.0
 20
0.0
 30
0.0
  9
$PUCSXDIR
 10
1.0
 20
0.0
 30
0.0
  9
$PUCSYDIR
 10
0.0
 20
1.0
 30
0.0
  9
$PUCSORTHOREF
  2

  9
$PUCSORTHOVIEW
 70
     0
  9
$PUCSORGTOP
 10
0.0
 20
0.0
 30
0.0
  9
$PUCSORGBOTTOM
 10
0.0
 20
0.0
 30
0.0
  9
$PUCSORGLEFT
 10
0.0
 20
0.0
 30
0.0
  9
$PUCSORGRIGHT
 10
0.0
 20
0.0
 30
0.0
  9
$PUCSORGFRONT
 10
0.0
 20
0.0
 30
0.0
  9
$PUCSORGBACK
 10
0.0
 20
0.0
 30
0.0
  9
$USERI1
 70
     0
  9
$USERI2
 70
     0
  9
$USERI3
 70
     0
  9
$USERI4
 70
     0
  9
$USERI5
 70
     0
  9
$USERR1
 40
0.0
  9
$USERR2
 40
0.0
  9
$USERR3
 40
0.0
  9
$USERR4
 40
0.0
  9
$USERR5
 40
0.0
  9
$WORLDVIEW
 70
     1
  9
$SHADEDGE
 70
     3
  9
$SHADEDIF
 70
    70
  9
$TILEMODE
 70
     1
  9
$MAXACTVP
 70
    64
  9
$PINSBASE
 10
0.0
 20
0.0
 30
0.0
  9
$PLIMCHECK
 70
     0
  9
$PEXTMIN
 10
1.000000000000000E+20
 20
1.000000000000000E+20
 30
1.000000000000000E+20
  9
$PEXTMAX
 10
-1.000000000000000E+20
 20
-1.000000000000000E+20
 30
-1.000000000000000E+20
  9
$PLIMMIN
 10
0.0
 20
0.0
  9
$PLIMMAX
 10
12.0
 20
9.0
  9
$UNITMODE
 70
     0
  9
$VISRETAIN
 70
     1
  9
$PLINEGEN
 70
     0
  9
$PSLTSCALE
 70
     1
  9
$TREEDEPTH
 70
  3020
  9
$CMLSTYLE
  2
Standard
  9
$CMLJUST
 70
     0
  9
$CMLSCALE
 40
1.0
  9
$PROXYGRAPHICS
 70
     1
  9
$MEASUREMENT
 70
     0
  9
$CELWEIGHT
370
    -1
  9
$ENDCAPS
280
     0
  9
$JOINSTYLE
280
     0
  9
$LWDISPLAY
290
     0
  9
$INSUNITS
 70
     5
  9
$HYPERLINKBASE
  1

  9
$STYLESHEET
  1

  9
$XEDIT
290
     1
  9
$CEPSNTYPE
380
     0
  9
$PSTYLEMODE
290
     1
  9
$FINGERPRINTGUID
  2
{9CE91656-5658-4FF9-8170-04AA138A8AA2}
  9
$VERSIONGUID
  2
{FAEB1C32-E019-11D5-929B-00C0DF256EC4}
  9
$EXTNAMES
290
     1
  9
$PSVPSCALE
 40
0.0
  9
$OLESTARTUP
290
     0
  9
$SORTENTS
280
   127
  9
$INDEXCTL
280
     0
  9
$HIDETEXT
280
     1
  9
$XCLIPFRAME
290
     0
  9
$HALOGAP
280
     0
  9
$OBSCOLOR
 70
   257
  9
$OBSLTYPE
280
     0
  9
$INTERSECTIONDISPLAY
280
     0
  9
$INTERSECTIONCOLOR
 70
   257
  9
$DIMASSOC
280
     2
  9
$PROJECTNAME
  1

  9
$CAMERADISPLAY
290
     0
  9
$LENSLENGTH
 40
50.0
  9
$CAMERAHEIGHT
 40
0.0
  9
$STEPSPERSEC
 40
2.0
  9
$STEPSIZE
 40
6.0
  9
$3DDWFPREC
 40
2.0
  9
$PSOLWIDTH
 40
0.25
  9
$PSOLHEIGHT
 40
4.0
  9
$LOFTANG1
 40
1.570796326794897
  9
$LOFTANG2
 40
1.570796326794897
  9
$LOFTMAG1
 40
0.0
  9
$LOFTMAG2
 40
0.0
  9
$LOFTPARAM
 70
     7
  9
$LOFTNORMALS
280
     1
  9
$LATITUDE
 40
37.795
  9
$LONGITUDE
 40
-122.394
  9
$NORTHDIRECTION
 40
0.0
  9
$TIMEZONE
 70
 -8000
  9
$LIGHTGLYPHDISPLAY
280
     1
  9
$TILEMODELIGHTSYNCH
280
     1
  9
$SOLIDHIST
280
     1
  9
$SHOWHIST
280
     1
  9
$DWFFRAME
280
     2
  9
$DGNFRAME
280
     2
  9
$REALWORLDSCALE
290
     1
  9
$INTERFERECOLOR
 62
   256
  9
$CSHADOW
280
     0
  9
$SHADOWPLANELOCATION
 40
0.0
  0
ENDSEC
  0
SECTION
  2
CLASSES
  0
CLASS
  1
ACDBDICTIONARYWDFLT
  2
AcDbDictionaryWithDefault
  3
ObjectDBX Classes
 90
        0
 91
        4
280
     0
281
     0
  0
CLASS
  1
VISUALSTYLE
  2
AcDbVisualStyle
  3
ObjectDBX Classes
 90
     4095
 91
        4
280
     0
281
     0
  0
CLASS
  1
MATERIAL
  2
AcDbMaterial
  3
ObjectDBX Classes
 90
     1153
 91
        4
280
     0
281
     0
  0
ENDSEC
  0
SECTION
  2
TABLES
  0
TABLE
  2
VPORT
  5
8
330
0
100
AcDbSymbolTable
 70
     1
  0
VPORT
  5
29
330
8
100
AcDbSymbolTableRecord
100
AcDbViewportTableRecord
  2
*Active
 70
     0
 10
0.0
 20
0.0
 11
1.0
 21
1.0
 12
10.42990654205607
 22
4.5
 13
0.0
 23
0.0
 14
0.5
 24
0.5
 15
0.5
 25
0.5
 16
0.0
 26
0.0
 36
1.0
 17
0.0
 27
0.0
 37
0.0
 40
9.0
 41
1.972972972850329
 42
50.0
 43
0.0
 44
0.0
 50
0.0
 51
0.0
 71
     0
 72
   100
 73
     1
 74
     3
 75
     0
 76
     0
 77
     0
 78
     0
281
     0
 65
     1
110
0.0
120
0.0
130
0.0
111
1.0
121
0.0
131
0.0
112
0.0
122
1.0
132
0.0
 79
     0
146
0.0
 60
     3
 61
     5
292
     1
282
     1
141
0.0
142
0.0
 63
   250
  0
ENDTAB
  0
TABLE
  2
LTYPE
  5
5
330
0
100
AcDbSymbolTable
 70
     1
  0
LTYPE
  5
14
330
5
100
AcDbSymbolTableRecord
100
AcDbLinetypeTableRecord
  2
ByBlock
 70
     0
  3

 72
    65
 73
     0
 40
0.0
  0
LTYPE
  5
15
330
5
100
AcDbSymbolTableRecord
100
AcDbLinetypeTableRecord
  2
ByLayer
 70
     0
  3

 72
    65
 73
     0
 40
0.0
  0
LTYPE
  5
16
330
5
100
AcDbSymbolTableRecord
100
AcDbLinetypeTableRecord
  2
Continuous
 70
     0
  3
Solid line
 72
    65
 73
     0
 40
0.0
  0
ENDTAB
  0
TABLE
  2
LAYER
  5
2
330
0
100
AcDbSymbolTable
 70
     1
  0
LAYER
  5
10
330
2
100
AcDbSymbolTableRecord
100
AcDbLayerTableRecord
  2
0
 70
     0
 62
     7
  6
Continuous
370
    -3
390
F
347
3E
  0
ENDTAB
  0
TABLE
  2
STYLE
  5
3
330
0
100
AcDbSymbolTable
 70
     1
  0
STYLE
  5
11
330
3
100
AcDbSymbolTableRecord
100
AcDbTextStyleTableRecord
  2
Standard
 70
     0
 40
0.0
 41
1.0
 50
0.0
 71
     0
 42
0.2
  3
txt
  4

  0
ENDTAB
  0
TABLE
  2
VIEW
  5
6
330
0
100
AcDbSymbolTable
 70
     0
  0
ENDTAB
  0
TABLE
  2
UCS
  5
7
330
0
100
AcDbSymbolTable
 70
     0
  0
ENDTAB
  0
TABLE
  2
APPID
  5
9
330
0
100
AcDbSymbolTable
 70
     2
  0
APPID
  5
12
330
9
100
AcDbSymbolTableRecord
100
AcDbRegAppTableRecord
  2
ACAD
 70
     0
  0
APPID
  5
3F
330
9
100
AcDbSymbolTableRecord
100
AcDbRegAppTableRecord
  2
ODA
 70
     0
  0
ENDTAB
  0
TABLE
  2
DIMSTYLE
  5
A
330
0
100
AcDbSymbolTable
 70
     1
100
AcDbDimStyleTable
  0
DIMSTYLE
105
27
330
A
100
AcDbSymbolTableRecord
100
AcDbDimStyleTableRecord
  2
Standard
 70
     0
178
     0
340
11
  0
ENDTAB
  0
TABLE
  2
BLOCK_RECORD
  5
1
330
0
100
AcDbSymbolTable
 70
     1
  0
BLOCK_RECORD
  5
1F
330
1
100
AcDbSymbolTableRecord
100
AcDbBlockTableRecord
  2
*Model_Space
340
22
 70
     0
280
     1
281
     0
  0
BLOCK_RECORD
  5
1B
330
1
100
AcDbSymbolTableRecord
100
AcDbBlockTableRecord
  2
*Paper_Space
340
1E
 70
     0
280
     1
281
     0
  0
BLOCK_RECORD
  5
23
330
1
100
AcDbSymbolTableRecord
100
AcDbBlockTableRecord
  2
*Paper_Space0
340
26
 70
     0
280
     1
281
     0
  0
ENDTAB
  0
ENDSEC
  0
SECTION
  2
BLOCKS
  0
BLOCK
  5
20
330
1F
100
AcDbEntity
  8
0
100
AcDbBlockBegin
  2
*Model_Space
 70
     0
 10
0.0
 20
0.0
 30
0.0
  3
*Model_Space
  1

  0
ENDBLK
  5
21
330
1F
100
AcDbEntity
  8
0
100
AcDbBlockEnd
  0
BLOCK
  5
1C
330
1B
100
AcDbEntity
 67
     1
  8
0
100
AcDbBlockBegin
  2
*Paper_Space
 70
     0
 10
0.0
 20
0.0
 30
0.0
  3
*Paper_Space
  1

  0
ENDBLK
  5
1D
330
1B
100
AcDbEntity
 67
     1
  8
0
100
AcDbBlockEnd
  0
BLOCK
  5
24
330
23
100
AcDbEntity
  8
0
100
AcDbBlockBegin
  2
*Paper_Space0
 70
     0
 10
0.0
 20
0.0
 30
0.0
  3
*Paper_Space0
  1

  0
ENDBLK
  5
25
330
23
100
AcDbEntity
  8
0
100
AcDbBlockEnd
  0
ENDSEC
  0
SECTION
  2
ENTITIES
  0
SPLINE
  5
40
330
1F
100
AcDbEntity
  8
0
370
    15
100
AcDbSpline
210
0.0
220
0.0
230
1.0
 70
    24
 71
     3
 72
     8
 73
     4
 74
     0
 42
0.0000000001
 43
0.0000000001
 40
0.0
 40
0.0
 40
0.0
 40
0.0
 40
1.0
 40
1.0
 40
1.0
 40
1.0
 10
-7.7054
 20
9.94211
 30
0.0
 10
-7.7054
 20
9.94211
 30
0.0
 10
-7.7054
 20
9.99545
 30
0.0
 10
-7.7054
 20
9.99545
 30
0.0
  0
SPLINE
  5
41
330
1F
100
AcDbEntity
  8
0
370
    15
100
AcDbSpline
210
0.0
220
0.0
230
1.0
 70
    24
 71
     3
 72
     8
 73
     4
 74
     0
 42
0.0000000001
 43
0.0000000001
 40
0.0
 40
0.0
 40
0.0
 40
0.0
 40
1.0
 40
1.0
 40
1.0
 40
1.0
 10
-8.23874
 20
9.99545
 30
0.0
 10
-8.23874
 20
9.99545
 30
0.0
 10
-8.23874
 20
9.94211
 30
0.0
 10
-8.23874
 20
9.94211
 30
0.0
  0
SPLINE
  5
42
330
1F
100
AcDbEntity
  8
0
370
    15
100
AcDbSpline
210
0.0
220
0.0
230
1.0
 70
    24
 71
     3
 72
     8
 73
     4
 74
     0
 42
0.0000000001
 43
0.0000000001
 40
0.0
 40
0.0
 40
0.0
 40
0.0
 40
1.0
 40
1.0
 40
1.0
 40
1.0
 10
-6.1054
 20
9.94211
 30
0.0
 10
-6.1054
 20
9.94211
 30
0.0
 10
-6.1054
 20
9.99545
 30
0.0
 10
-6.1054
 20
9.99545
 30
0.0
  0
SPLINE
  5
43
330
1F
100
AcDbEntity
  8
0
370
    15
100
AcDbSpline
210
0.0
220
0.0
230
1.0
 70
    24
 71
     3
 72
     8
 73
     4
 74
     0
 42
0.0000000001
 43
0.0000000001
 40
0.0
 40
0.0
 40
0.0
 40
0.0
 40
1.0
 40
1.0
 40
1.0
 40
1.0
 10
-6.63874
 20
9.99545
 30
0.0
 10
-6.63874
 20
9.99545
 30
0.0
 10
-6.63874
 20
9.94211
 30
0.0
 10
-6.63874
 20
9.94211
 30
0.0
  0
SPLINE
  5
44
330
1F
100
AcDbEntity
  8
0
370
    15
100
AcDbSpline
210
0.0
220
0.0
230
1.0
 70
    24
 71
     3
 72
     8
 73
     4
 74
     0
 42
0.0000000001
 43
0.0000000001
 40
0.0
 40
0.0
 40
0.0
 40
0.0
 40
1.0
 40
1.0
 40
1.0
 40
1.0
 10
-7.7054
 20
9.20878
 30
0.0
 10
-7.7054
 20
9.20878
 30
0.0
 10
-7.7054
 20
9.94211
 30
0.0
 10
-7.7054
 20
9.94211
 30
0.0
  0
SPLINE
  5
45
330
1F
100
AcDbEntity
  8
0
370
    15
100
AcDbSpline
210
0.0
220
0.0
230
1.0
 70
    24
 71
     3
 72
     8
 73
     4
 74
     0
 42
0.0000000001
 43
0.0000000001
 40
0.0
 40
0.0
 40
0.0
 40
0.0
 40
1.0
 40
1.0
 40
1.0
 40
1.0
 10
-8.23874
 20
9.94211
 30
0.0
 10
-8.23874
 20
9.94211
 30
0.0
 10
-8.23874
 20
9.20878
 30
0.0
 10
-8.23874
 20
9.20878
 30
0.0
  0
SPLINE
  5
46
330
1F
100
AcDbEntity
  8
0
370
    15
100
AcDbSpline
210
0.0
220
0.0
230
1.0
 70
    24
 71
     3
 72
     8
 73
     4
 74
     0
 42
0.0000000001
 43
0.0000000001
 40
0.0
 40
0.0
 40
0.0
 40
0.0
 40
1.0
 40
1.0
 40
1.0
 40
1.0
 10
-6.1054
 20
9.20878
 30
0.0
 10
-6.1054
 20
9.20878
 30
0.0
 10
-6.1054
 20
9.94211
 30
0.0
 10
-6.1054
 20
9.94211
 30
0.0
  0
SPLINE
  5
47
330
1F
100
AcDbEntity
  8
0
370
    15
100
AcDbSpline
210
0.0
220
0.0
230
1.0
 70
    24
 71
     3
 72
     8
 73
     4
 74
     0
 42
0.0000000001
 43
0.0000000001
 40
0.0
 40
0.0
 40
0.0
 40
0.0
 40
1.0
 40
1.0
 40
1.0
 40
1.0
 10
-6.63874
 20
9.94211
 30
0.0
 10
-6.63874
 20
9.94211
 30
0.0
 10
-6.63874
 20
9.20878
 30
0.0
 10
-6.63874
 20
9.20878
 30
0.0
  0
SPLINE
  5
48
330
1F
100
AcDbEntity
  8
0
370
    15
100
AcDbSpline
210
0.0
220
0.0
230
1.0
 70
    24
 71
     3
 72
     8
 73
     4
 74
     0
 42
0.0000000001
 43
0.0000000001
 40
0.0
 40
0.0
 40
0.0
 40
0.0
 40
1.0
 40
1.0
 40
1.0
 40
1.0
 10
-6.04919
 20
9.89545
 30
0.0
 10
-6.04919
 20
9.89545
 30
0.0
 10
-6.04919
 20
10.12878
 30
0.0
 10
-6.04919
 20
10.12878
 30
0.0
  0
SPLINE
  5
49
330
1F
100
AcDbEntity
  8
0
370
    15
100
AcDbSpline
210
0.0
220
0.0
230
1.0
 70
    24
 71
     3
 72
     8
 73
     4
 74
     0
 42
0.0000000001
 43
0.0000000001
 40
0.0
 40
0.0
 40
0.0
 40
0.0
 40
1.0
 40
1.0
 40
1.0
 40
1.0
 10
-8.29495
 20
10.12878
 30
0.0
 10
-8.29495
 20
10.12878
 30
0.0
 10
-8.29495
 20
9.89545
 30
0.0
 10
-8.29495
 20
9.89545
 30
0.0
  0
SPLINE
  5
4A
330
1F
100
AcDbEntity
  8
0
370
    15
100
AcDbSpline
210
0.0
220
0.0
230
1.0
 70
    24
 71
     3
 72
     8
 73
     4
 74
     0
 42
0.0000000001
 43
0.0000000001
 40
0.0
 40
0.0
 40
0.0
 40
0.0
 40
1.0
 40
1.0
 40
1.0
 40
1.0
 10
-6.04919
 20
8.89545
 30
0.0
 10
-6.04919
 20
8.89545
 30
0.0
 10
-6.04919
 20
9.89545
 30
0.0
 10
-6.04919
 20
9.89545
 30
0.0
  0
SPLINE
  5
4B
330
1F
100
AcDbEntity
  8
0
370
    15
100
AcDbSpline
210
0.0
220
0.0
230
1.0
 70
    24
 71
     3
 72
     8
 73
     4
 74
     0
 42
0.0000000001
 43
0.0000000001
 40
0.0
 40
0.0
 40
0.0
 40
0.0
 40
1.0
 40
1.0
 40
1.0
 40
1.0
 10
-8.29495
 20
9.89545
 30
0.0
 10
-8.29495
 20
9.89545
 30
0.0
 10
-8.29495
 20
8.89545
 30
0.0
 10
-8.29495
 20
8.89545
 30
0.0
  0
SPLINE
  5
4C
330
1F
100
AcDbEntity
  8
0
370
    15
100
AcDbSpline
210
0.0
220
0.0
230
1.0
 70
    24
 71
     3
 72
     8
 73
     4
 74
     0
 42
0.0000000001
 43
0.0000000001
 40
0.0
 40
0.0
 40
0.0
 40
0.0
 40
1.0
 40
1.0
 40
1.0
 40
1.0
 10
-8.07207
 20
9.94211
 30
0.0
 10
-8.07207
 20
9.94211
 30
0.0
 10
-8.23874
 20
9.94211
 30
0.0
 10
-8.23874
 20
9.94211
 30
0.0
  0
SPLINE
  5
4D
330
1F
100
AcDbEntity
  8
0
370
    15
100
AcDbSpline
210
0.0
220
0.0
230
1.0
 70
    24
 71
     3
 72
     8
 73
     4
 74
     0
 42
0.0000000001
 43
0.0000000001
 40
0.0
 40
0.0
 40
0.0
 40
0.0
 40
1.0
 40
1.0
 40
1.0
 40
1.0
 10
-7.7054
 20
9.94211
 30
0.0
 10
-7.7054
 20
9.94211
 30
0.0
 10
-7.87207
 20
9.94211
 30
0.0
 10
-7.87207
 20
9.94211
 30
0.0
  0
SPLINE
  5
4E
330
1F
100
AcDbEntity
  8
0
370
    15
100
AcDbSpline
210
0.0
220
0.0
230
1.0
 70
    24
 71
     3
 72
     8
 73
     4
 74
     0
 42
0.0000000001
 43
0.0000000001
 40
0.0
 40
0.0
 40
0.0
 40
0.0
 40
1.0
 40
1.0
 40
1.0
 40
1.0
 10
-6.47207
 20
9.94211
 30
0.0
 10
-6.47207
 20
9.94211
 30
0.0
 10
-6.63874
 20
9.94211
 30
0.0
 10
-6.63874
 20
9.94211
 30
0.0
  0
SPLINE
  5
4F
330
1F
100
AcDbEntity
  8
0
370
    15
100
AcDbSpline
210
0.0
220
0.0
230
1.0
 70
    24
 71
     3
 72
     8
 73
     4
 74
     0
 42
0.0000000001
 43
0.0000000001
 40
0.0
 40
0.0
 40
0.0
 40
0.0
 40
1.0
 40
1.0
 40
1.0
 40
1.0
 10
-6.1054
 20
9.94211
 30
0.0
 10
-6.1054
 20
9.94211
 30
0.0
 10
-6.27207
 20
9.94211
 30
0.0
 10
-6.27207
 20
9.94211
 30
0.0
  0
SPLINE
  5
50
330
1F
100
AcDbEntity
  8
0
370
    15
100
AcDbSpline
210
0.0
220
0.0
230
1.0
 70
    24
 71
     3
 72
     8
 73
     4
 74
     0
 42
0.0000000001
 43
0.0000000001
 40
0.0
 40
0.0
 40
0.0
 40
0.0
 40
1.0
 40
1.0
 40
1.0
 40
1.0
 10
-6.27207
 20
9.80878
 30
0.0
 10
-6.27207
 20
9.80878
 30
0.0
 10
-6.47207
 20
9.80878
 30
0.0
 10
-6.47207
 20
9.80878
 30
0.0
  0
SPLINE
  5
51
330
1F
100
AcDbEntity
  8
0
370
    15
100
AcDbSpline
210
0.0
220
0.0
230
1.0
 70
    24
 71
     3
 72
     8
 73
     4
 74
     0
 42
0.0000000001
 43
0.0000000001
 40
0.0
 40
0.0
 40
0.0
 40
0.0
 40
1.0
 40
1.0
 40
1.0
 40
1.0
 10
-6.47207
 20
9.34211
 30
0.0
 10
-6.47207
 20
9.34211
 30
0.0
 10
-6.27207
 20
9.34211
 30
0.0
 10
-6.27207
 20
9.34211
 30
0.0
  0
SPLINE
  5
52
330
1F
100
AcDbEntity
  8
0
370
    15
100
AcDbSpline
210
0.0
220
0.0
230
1.0
 70
    24
 71
     3
 72
     8
 73
     4
 74
     0
 42
0.0000000001
 43
0.0000000001
 40
0.0
 40
0.0
 40
0.0
 40
0.0
 40
1.0
 40
1.0
 40
1.0
 40
1.0
 10
-6.47207
 20
9.80878
 30
0.0
 10
-6.47207
 20
9.80878
 30
0.0
 10
-6.47207
 20
9.34211
 30
0.0
 10
-6.47207
 20
9.34211
 30
0.0
  0
SPLINE
  5
53
330
1F
100
AcDbEntity
  8
0
370
    15
100
AcDbSpline
210
0.0
220
0.0
230
1.0
 70
    24
 71
     3
 72
     8
 73
     4
 74
     0
 42
0.0000000001
 43
0.0000000001
 40
0.0
 40
0.0
 40
0.0
 40
0.0
 40
1.0
 40
1.0
 40
1.0
 40
1.0
 10
-6.27207
 20
9.34211
 30
0.0
 10
-6.27207
 20
9.34211
 30
0.0
 10
-6.27207
 20
9.80878
 30
0.0
 10
-6.27207
 20
9.80878
 30
0.0
  0
SPLINE
  5
54
330
1F
100
AcDbEntity
  8
0
370
    15
100
AcDbSpline
210
0.0
220
0.0
230
1.0
 70
    24
 71
     3
 72
     8
 73
     4
 74
     0
 42
0.0000000001
 43
0.0000000001
 40
0.0
 40
0.0
 40
0.0
 40
0.0
 40
1.0
 40
1.0
 40
1.0
 40
1.0
 10
-6.27207
 20
9.20878
 30
0.0
 10
-6.27207
 20
9.20878
 30
0.0
 10
-6.47207
 20
9.20878
 30
0.0
 10
-6.47207
 20
9.20878
 30
0.0
  0
SPLINE
  5
55
330
1F
100
AcDbEntity
  8
0
370
    15
100
AcDbSpline
210
0.0
220
0.0
230
1.0
 70
    24
 71
     3
 72
     8
 73
     4
 74
     0
 42
0.0000000001
 43
0.0000000001
 40
0.0
 40
0.0
 40
0.0
 40
0.0
 40
1.0
 40
1.0
 40
1.0
 40
1.0
 10
-6.47207
 20
9.20878
 30
0.0
 10
-6.47207
 20
9.20878
 30
0.0
 10
-6.47207
 20
9.34211
 30
0.0
 10
-6.47207
 20
9.34211
 30
0.0
  0
SPLINE
  5
56
330
1F
100
AcDbEntity
  8
0
370
    15
100
AcDbSpline
210
0.0
220
0.0
230
1.0
 70
    24
 71
     3
 72
     8
 73
     4
 74
     0
 42
0.0000000001
 43
0.0000000001
 40
0.0
 40
0.0
 40
0.0
 40
0.0
 40
1.0
 40
1.0
 40
1.0
 40
1.0
 10
-6.27207
 20
9.34211
 30
0.0
 10
-6.27207
 20
9.34211
 30
0.0
 10
-6.27207
 20
9.20878
 30
0.0
 10
-6.27207
 20
9.20878
 30
0.0
  0
SPLINE
  5
57
330
1F
100
AcDbEntity
  8
0
370
    15
100
AcDbSpline
210
0.0
220
0.0
230
1.0
 70
    24
 71
     3
 72
     8
 73
     4
 74
     0
 42
0.0000000001
 43
0.0000000001
 40
0.0
 40
0.0
 40
0.0
 40
0.0
 40
1.0
 40
1.0
 40
1.0
 40
1.0
 10
-6.47207
 20
9.80878
 30
0.0
 10
-6.47207
 20
9.80878
 30
0.0
 10
-6.47207
 20
9.94211
 30
0.0
 10
-6.47207
 20
9.94211
 30
0.0
  0
SPLINE
  5
58
330
1F
100
AcDbEntity
  8
0
370
    15
100
AcDbSpline
210
0.0
220
0.0
230
1.0
 70
    24
 71
     3
 72
     8
 73
     4
 74
     0
 42
0.0000000001
 43
0.0000000001
 40
0.0
 40
0.0
 40
0.0
 40
0.0
 40
1.0
 40
1.0
 40
1.0
 40
1.0
 10
-6.47207
 20
9.94211
 30
0.0
 10
-6.47207
 20
9.94211
 30
0.0
 10
-6.27207
 20
9.94211
 30
0.0
 10
-6.27207
 20
9.94211
 30
0.0
  0
SPLINE
  5
59
330
1F
100
AcDbEntity
  8
0
370
    15
100
AcDbSpline
210
0.0
220
0.0
230
1.0
 70
    24
 71
     3
 72
     8
 73
     4
 74
     0
 42
0.0000000001
 43
0.0000000001
 40
0.0
 40
0.0
 40
0.0
 40
0.0
 40
1.0
 40
1.0
 40
1.0
 40
1.0
 10
-6.27207
 20
9.94211
 30
0.0
 10
-6.27207
 20
9.94211
 30
0.0
 10
-6.27207
 20
9.80878
 30
0.0
 10
-6.27207
 20
9.80878
 30
0.0
  0
SPLINE
  5
5A
330
1F
100
AcDbEntity
  8
0
370
    15
100
AcDbSpline
210
0.0
220
0.0
230
1.0
 70
    24
 71
     3
 72
     8
 73
     4
 74
     0
 42
0.0000000001
 43
0.0000000001
 40
0.0
 40
0.0
 40
0.0
 40
0.0
 40
1.0
 40
1.0
 40
1.0
 40
1.0
 10
-7.87207
 20
9.80878
 30
0.0
 10
-7.87207
 20
9.80878
 30
0.0
 10
-8.07207
 20
9.80878
 30
0.0
 10
-8.07207
 20
9.80878
 30
0.0
  0
SPLINE
  5
5B
330
1F
100
AcDbEntity
  8
0
370
    15
100
AcDbSpline
210
0.0
220
0.0
230
1.0
 70
    24
 71
     3
 72
     8
 73
     4
 74
     0
 42
0.0000000001
 43
0.0000000001
 40
0.0
 40
0.0
 40
0.0
 40
0.0
 40
1.0
 40
1.0
 40
1.0
 40
1.0
 10
-7.87207
 20
9.34211
 30
0.0
 10
-7.87207
 20
9.34211
 30
0.0
 10
-7.87207
 20
9.80878
 30
0.0
 10
-7.87207
 20
9.80878
 30
0.0
  0
SPLINE
  5
5C
330
1F
100
AcDbEntity
  8
0
370
    15
100
AcDbSpline
210
0.0
220
0.0
230
1.0
 70
    24
 71
     3
 72
     8
 73
     4
 74
     0
 42
0.0000000001
 43
0.0000000001
 40
0.0
 40
0.0
 40
0.0
 40
0.0
 40
1.0
 40
1.0
 40
1.0
 40
1.0
 10
-8.07207
 20
9.34211
 30
0.0
 10
-8.07207
 20
9.34211
 30
0.0
 10
-7.87207
 20
9.34211
 30
0.0
 10
-7.87207
 20
9.34211
 30
0.0
  0
SPLINE
  5
5D
330
1F
100
AcDbEntity
  8
0
370
    15
100
AcDbSpline
210
0.0
220
0.0
230
1.0
 70
    24
 71
     3
 72
     8
 73
     4
 74
     0
 42
0.0000000001
 43
0.0000000001
 40
0.0
 40
0.0
 40
0.0
 40
0.0
 40
1.0
 40
1.0
 40
1.0
 40
1.0
 10
-8.07207
 20
9.80878
 30
0.0
 10
-8.07207
 20
9.80878
 30
0.0
 10
-8.07207
 20
9.34211
 30
0.0
 10
-8.07207
 20
9.34211
 30
0.0
  0
SPLINE
  5
5E
330
1F
100
AcDbEntity
  8
0
370
    15
100
AcDbSpline
210
0.0
220
0.0
230
1.0
 70
    24
 71
     3
 72
     8
 73
     4
 74
     0
 42
0.0000000001
 43
0.0000000001
 40
0.0
 40
0.0
 40
0.0
 40
0.0
 40
1.0
 40
1.0
 40
1.0
 40
1.0
 10
-7.87207
 20
9.34211
 30
0.0
 10
-7.87207
 20
9.34211
 30
0.0
 10
-7.87207
 20
9.20878
 30
0.0
 10
-7.87207
 20
9.20878
 30
0.0
  0
SPLINE
  5
5F
330
1F
100
AcDbEntity
  8
0
370
    15
100
AcDbSpline
210
0.0
220
0.0
230
1.0
 70
    24
 71
     3
 72
     8
 73
     4
 74
     0
 42
0.0000000001
 43
0.0000000001
 40
0.0
 40
0.0
 40
0.0
 40
0.0
 40
1.0
 40
1.0
 40
1.0
 40
1.0
 10
-7.87207
 20
9.20878
 30
0.0
 10
-7.87207
 20
9.20878
 30
0.0
 10
-8.07207
 20
9.20878
 30
0.0
 10
-8.07207
 20
9.20878
 30
0.0
  0
SPLINE
  5
60
330
1F
100
AcDbEntity
  8
0
370
    15
100
AcDbSpline
210
0.0
220
0.0
230
1.0
 70
    24
 71
     3
 72
     8
 73
     4
 74
     0
 42
0.0000000001
 43
0.0000000001
 40
0.0
 40
0.0
 40
0.0
 40
0.0
 40
1.0
 40
1.0
 40
1.0
 40
1.0
 10
-8.07207
 20
9.20878
 30
0.0
 10
-8.07207
 20
9.20878
 30
0.0
 10
-8.07207
 20
9.34211
 30
0.0
 10
-8.07207
 20
9.34211
 30
0.0
  0
SPLINE
  5
61
330
1F
100
AcDbEntity
  8
0
370
    15
100
AcDbSpline
210
0.0
220
0.0
230
1.0
 70
    24
 71
     3
 72
     8
 73
     4
 74
     0
 42
0.0000000001
 43
0.0000000001
 40
0.0
 40
0.0
 40
0.0
 40
0.0
 40
1.0
 40
1.0
 40
1.0
 40
1.0
 10
-8.07207
 20
9.80878
 30
0.0
 10
-8.07207
 20
9.80878
 30
0.0
 10
-8.07207
 20
9.94211
 30
0.0
 10
-8.07207
 20
9.94211
 30
0.0
  0
SPLINE
  5
62
330
1F
100
AcDbEntity
  8
0
370
    15
100
AcDbSpline
210
0.0
220
0.0
230
1.0
 70
    24
 71
     3
 72
     8
 73
     4
 74
     0
 42
0.0000000001
 43
0.0000000001
 40
0.0
 40
0.0
 40
0.0
 40
0.0
 40
1.0
 40
1.0
 40
1.0
 40
1.0
 10
-8.07207
 20
9.94211
 30
0.0
 10
-8.07207
 20
9.94211
 30
0.0
 10
-7.87207
 20
9.94211
 30
0.0
 10
-7.87207
 20
9.94211
 30
0.0
  0
SPLINE
  5
63
330
1F
100
AcDbEntity
  8
0
370
    15
100
AcDbSpline
210
0.0
220
0.0
230
1.0
 70
    24
 71
     3
 72
     8
 73
     4
 74
     0
 42
0.0000000001
 43
0.0000000001
 40
0.0
 40
0.0
 40
0.0
 40
0.0
 40
1.0
 40
1.0
 40
1.0
 40
1.0
 10
-7.87207
 20
9.94211
 30
0.0
 10
-7.87207
 20
9.94211
 30
0.0
 10
-7.87207
 20
9.80878
 30
0.0
 10
-7.87207
 20
9.80878
 30
0.0
  0
SPLINE
  5
64
330
1F
100
AcDbEntity
  8
0
370
    15
100
AcDbSpline
210
0.0
220
0.0
230
1.0
 70
    24
 71
     3
 72
     8
 73
     4
 74
     0
 42
0.0000000001
 43
0.0000000001
 40
0.0
 40
0.0
 40
0.0
 40
0.0
 40
1.0
 40
1.0
 40
1.0
 40
1.0
 10
-8.07207
 20
9.20878
 30
0.0
 10
-8.07207
 20
9.20878
 30
0.0
 10
-8.23874
 20
9.20878
 30
0.0
 10
-8.23874
 20
9.20878
 30
0.0
  0
SPLINE
  5
65
330
1F
100
AcDbEntity
  8
0
370
    15
100
AcDbSpline
210
0.0
220
0.0
230
1.0
 70
    24
 71
     3
 72
     8
 73
     4
 74
     0
 42
0.0000000001
 43
0.0000000001
 40
0.0
 40
0.0
 40
0.0
 40
0.0
 40
1.0
 40
1.0
 40
1.0
 40
1.0
 10
-7.7054
 20
9.20878
 30
0.0
 10
-7.7054
 20
9.20878
 30
0.0
 10
-7.87207
 20
9.20878
 30
0.0
 10
-7.87207
 20
9.20878
 30
0.0
  0
SPLINE
  5
66
330
1F
100
AcDbEntity
  8
0
370
    15
100
AcDbSpline
210
0.0
220
0.0
230
1.0
 70
    24
 71
     3
 72
     8
 73
     4
 74
     0
 42
0.0000000001
 43
0.0000000001
 40
0.0
 40
0.0
 40
0.0
 40
0.0
 40
1.0
 40
1.0
 40
1.0
 40
1.0
 10
-6.47207
 20
9.20878
 30
0.0
 10
-6.47207
 20
9.20878
 30
0.0
 10
-6.63874
 20
9.20878
 30
0.0
 10
-6.63874
 20
9.20878
 30
0.0
  0
SPLINE
  5
67
330
1F
100
AcDbEntity
  8
0
370
    15
100
AcDbSpline
210
0.0
220
0.0
230
1.0
 70
    24
 71
     3
 72
     8
 73
     4
 74
     0
 42
0.0000000001
 43
0.0000000001
 40
0.0
 40
0.0
 40
0.0
 40
0.0
 40
1.0
 40
1.0
 40
1.0
 40
1.0
 10
-6.1054
 20
9.20878
 30
0.0
 10
-6.1054
 20
9.20878
 30
0.0
 10
-6.27207
 20
9.20878
 30
0.0
 10
-6.27207
 20
9.20878
 30
0.0
  0
SPLINE
  5
68
330
1F
100
AcDbEntity
  8
0
370
    15
100
AcDbSpline
210
0.0
220
0.0
230
1.0
 70
    24
 71
     3
 72
     8
 73
     4
 74
     0
 42
0.0000000001
 43
0.0000000001
 40
0.0
 40
0.0
 40
0.0
 40
0.0
 40
1.0
 40
1.0
 40
1.0
 40
1.0
 10
-8.27597
 20
10.00704
 30
0.0
 10
-8.27597
 20
10.00704
 30
0.0
 10
-7.97207
 20
10.00704
 30
0.0
 10
-7.97207
 20
10.00704
 30
0.0
  0
SPLINE
  5
69
330
1F
100
AcDbEntity
  8
0
370
    15
100
AcDbSpline
210
0.0
220
0.0
230
1.0
 70
     8
 71
     3
 72
     8
 73
     4
 74
     0
 42
0.0000000001
 43
0.0000000001
 40
0.0
 40
0.0
 40
0.0
 40
0.0
 40
1.0
 40
1.0
 40
1.0
 40
1.0
 10
-8.27597
 20
10.25052
 30
0.0
 10
-8.30127
 20
10.17133
 30
0.0
 10
-8.30127
 20
10.08623
 30
0.0
 10
-8.27597
 20
10.00704
 30
0.0
  0
SPLINE
  5
6A
330
1F
100
AcDbEntity
  8
0
370
    15
100
AcDbSpline
210
0.0
220
0.0
230
1.0
 70
    24
 71
     3
 72
     8
 73
     4
 74
     0
 42
0.0000000001
 43
0.0000000001
 40
0.0
 40
0.0
 40
0.0
 40
0.0
 40
1.0
 40
1.0
 40
1.0
 40
1.0
 10
-7.97207
 20
10.25052
 30
0.0
 10
-7.97207
 20
10.25052
 30
0.0
 10
-8.27597
 20
10.25052
 30
0.0
 10
-8.27597
 20
10.25052
 30
0.0
  0
SPLINE
  5
6B
330
1F
100
AcDbEntity
  8
0
370
    15
100
AcDbSpline
210
0.0
220
0.0
230
1.0
 70
    24
 71
     3
 72
     8
 73
     4
 74
     0
 42
0.0000000001
 43
0.0000000001
 40
0.0
 40
0.0
 40
0.0
 40
0.0
 40
1.0
 40
1.0
 40
1.0
 40
1.0
 10
-7.97207
 20
10.25052
 30
0.0
 10
-7.97207
 20
10.25052
 30
0.0
 10
-7.97207
 20
10.00704
 30
0.0
 10
-7.97207
 20
10.00704
 30
0.0
  0
SPLINE
  5
6C
330
1F
100
AcDbEntity
  8
0
370
    15
100
AcDbSpline
210
0.0
220
0.0
230
1.0
 70
    24
 71
     3
 72
     8
 73
     4
 74
     0
 42
0.0000000001
 43
0.0000000001
 40
0.0
 40
0.0
 40
0.0
 40
0.0
 40
1.0
 40
1.0
 40
1.0
 40
1.0
 10
-7.97207
 20
10.00704
 30
0.0
 10
-7.97207
 20
10.00704
 30
0.0
 10
-6.37207
 20
10.00704
 30
0.0
 10
-6.37207
 20
10.00704
 30
0.0
  0
SPLINE
  5
6D
330
1F
100
AcDbEntity
  8
0
370
    15
100
AcDbSpline
210
0.0
220
0.0
230
1.0
 70
    24
 71
     3
 72
     8
 73
     4
 74
     0
 42
0.0000000001
 43
0.0000000001
 40
0.0
 40
0.0
 40
0.0
 40
0.0
 40
1.0
 40
1.0
 40
1.0
 40
1.0
 10
-6.37207
 20
10.25052
 30
0.0
 10
-6.37207
 20
10.25052
 30
0.0
 10
-7.97207
 20
10.25052
 30
0.0
 10
-7.97207
 20
10.25052
 30
0.0
  0
SPLINE
  5
6E
330
1F
100
AcDbEntity
  8
0
370
    15
100
AcDbSpline
210
0.0
220
0.0
230
1.0
 70
    24
 71
     3
 72
     8
 73
     4
 74
     0
 42
0.0000000001
 43
0.0000000001
 40
0.0
 40
0.0
 40
0.0
 40
0.0
 40
1.0
 40
1.0
 40
1.0
 40
1.0
 10
-6.37207
 20
10.25052
 30
0.0
 10
-6.37207
 20
10.25052
 30
0.0
 10
-6.37207
 20
10.00704
 30
0.0
 10
-6.37207
 20
10.00704
 30
0.0
  0
SPLINE
  5
6F
330
1F
100
AcDbEntity
  8
0
370
    15
100
AcDbSpline
210
0.0
220
0.0
230
1.0
 70
    24
 71
     3
 72
     8
 73
     4
 74
     0
 42
0.0000000001
 43
0.0000000001
 40
0.0
 40
0.0
 40
0.0
 40
0.0
 40
1.0
 40
1.0
 40
1.0
 40
1.0
 10
-6.37207
 20
10.00704
 30
0.0
 10
-6.37207
 20
10.00704
 30
0.0
 10
-6.06817
 20
10.00704
 30
0.0
 10
-6.06817
 20
10.00704
 30
0.0
  0
SPLINE
  5
70
330
1F
100
AcDbEntity
  8
0
370
    15
100
AcDbSpline
210
0.0
220
0.0
230
1.0
 70
    24
 71
     3
 72
     8
 73
     4
 74
     0
 42
0.0000000001
 43
0.0000000001
 40
0.0
 40
0.0
 40
0.0
 40
0.0
 40
1.0
 40
1.0
 40
1.0
 40
1.0
 10
-6.06817
 20
10.25052
 30
0.0
 10
-6.06817
 20
10.25052
 30
0.0
 10
-6.37207
 20
10.25052
 30
0.0
 10
-6.37207
 20
10.25052
 30
0.0
  0
SPLINE
  5
71
330
1F
100
AcDbEntity
  8
0
370
    15
100
AcDbSpline
210
0.0
220
0.0
230
1.0
 70
     8
 71
     3
 72
     8
 73
     4
 74
     0
 42
0.0000000001
 43
0.0000000001
 40
0.0
 40
0.0
 40
0.0
 40
0.0
 40
1.0
 40
1.0
 40
1.0
 40
1.0
 10
-6.06817
 20
10.00704
 30
0.0
 10
-6.04287
 20
10.08623
 30
0.0
 10
-6.04287
 20
10.17133
 30
0.0
 10
-6.06817
 20
10.25052
 30
0.0
  0
SPLINE
  5
72
330
1F
100
AcDbEntity
  8
0
370
    15
100
AcDbSpline
210
0.0
220
0.0
230
1.0
 70
    24
 71
     3
 72
     8
 73
     4
 74
     0
 42
0.0000000001
 43
0.0000000001
 40
0.0
 40
0.0
 40
0.0
 40
0.0
 40
1.0
 40
1.0
 40
1.0
 40
1.0
 10
-6.37207
 20
10.25052
 30
0.0
 10
-6.37207
 20
10.25052
 30
0.0
 10
-6.37207
 20
10.26211
 30
0.0
 10
-6.37207
 20
10.26211
 30
0.0
  0
SPLINE
  5
73
330
1F
100
AcDbEntity
  8
0
370
    15
100
AcDbSpline
210
0.0
220
0.0
230
1.0
 70
    24
 71
     3
 72
     8
 73
     4
 74
     0
 42
0.0000000001
 43
0.0000000001
 40
0.0
 40
0.0
 40
0.0
 40
0.0
 40
1.0
 40
1.0
 40
1.0
 40
1.0
 10
-6.37207
 20
10.26211
 30
0.0
 10
-6.37207
 20
10.26211
 30
0.0
 10
-6.08405
 20
10.26211
 30
0.0
 10
-6.08405
 20
10.26211
 30
0.0
  0
SPLINE
  5
74
330
1F
100
AcDbEntity
  8
0
370
    15
100
AcDbSpline
210
0.0
220
0.0
230
1.0
 70
     8
 71
     3
 72
     8
 73
     4
 74
     0
 42
0.0000000001
 43
0.0000000001
 40
0.0
 40
0.0
 40
0.0
 40
0.0
 40
1.0
 40
1.0
 40
1.0
 40
1.0
 10
-6.06817
 20
10.25052
 30
0.0
 10
-6.07038
 20
10.25743
 30
0.0
 10
-6.07679
 20
10.26211
 30
0.0
 10
-6.08405
 20
10.26211
 30
0.0
  0
SPLINE
  5
75
330
1F
100
AcDbEntity
  8
0
370
    15
100
AcDbSpline
210
0.0
220
0.0
230
1.0
 70
    24
 71
     3
 72
     8
 73
     4
 74
     0
 42
0.0000000001
 43
0.0000000001
 40
0.0
 40
0.0
 40
0.0
 40
0.0
 40
1.0
 40
1.0
 40
1.0
 40
1.0
 10
-6.08405
 20
9.99545
 30
0.0
 10
-6.08405
 20
9.99545
 30
0.0
 10
-6.37207
 20
9.99545
 30
0.0
 10
-6.37207
 20
9.99545
 30
0.0
  0
SPLINE
  5
76
330
1F
100
AcDbEntity
  8
0
370
    15
100
AcDbSpline
210
0.0
220
0.0
230
1.0
 70
    24
 71
     3
 72
     8
 73
     4
 74
     0
 42
0.0000000001
 43
0.0000000001
 40
0.0
 40
0.0
 40
0.0
 40
0.0
 40
1.0
 40
1.0
 40
1.0
 40
1.0
 10
-6.37207
 20
9.99545
 30
0.0
 10
-6.37207
 20
9.99545
 30
0.0
 10
-6.37207
 20
10.00704
 30
0.0
 10
-6.37207
 20
10.00704
 30
0.0
  0
SPLINE
  5
77
330
1F
100
AcDbEntity
  8
0
370
    15
100
AcDbSpline
210
0.0
220
0.0
230
1.0
 70
     8
 71
     3
 72
     8
 73
     4
 74
     0
 42
0.0000000001
 43
0.0000000001
 40
0.0
 40
0.0
 40
0.0
 40
0.0
 40
1.0
 40
1.0
 40
1.0
 40
1.0
 10
-6.08405
 20
9.99545
 30
0.0
 10
-6.07679
 20
9.99545
 30
0.0
 10
-6.07038
 20
10.00014
 30
0.0
 10
-6.06817
 20
10.00704
 30
0.0
  0
SPLINE
  5
78
330
1F
100
AcDbEntity
  8
0
370
    15
100
AcDbSpline
210
0.0
220
0.0
230
1.0
 70
     8
 71
     3
 72
     8
 73
     4
 74
     0
 42
0.0000000001
 43
0.0000000001
 40
0.0
 40
0.0
 40
0.0
 40
0.0
 40
1.0
 40
1.0
 40
1.0
 40
1.0
 10
-8.26009
 20
10.26211
 30
0.0
 10
-8.26735
 20
10.26211
 30
0.0
 10
-8.27376
 20
10.25743
 30
0.0
 10
-8.27597
 20
10.25052
 30
0.0
  0
SPLINE
  5
79
330
1F
100
AcDbEntity
  8
0
370
    15
100
AcDbSpline
210
0.0
220
0.0
230
1.0
 70
    24
 71
     3
 72
     8
 73
     4
 74
     0
 42
0.0000000001
 43
0.0000000001
 40
0.0
 40
0.0
 40
0.0
 40
0.0
 40
1.0
 40
1.0
 40
1.0
 40
1.0
 10
-8.26009
 20
10.26211
 30
0.0
 10
-8.26009
 20
10.26211
 30
0.0
 10
-7.97207
 20
10.26211
 30
0.0
 10
-7.97207
 20
10.26211
 30
0.0
  0
SPLINE
  5
7A
330
1F
100
AcDbEntity
  8
0
370
    15
100
AcDbSpline
210
0.0
220
0.0
230
1.0
 70
    24
 71
     3
 72
     8
 73
     4
 74
     0
 42
0.0000000001
 43
0.0000000001
 40
0.0
 40
0.0
 40
0.0
 40
0.0
 40
1.0
 40
1.0
 40
1.0
 40
1.0
 10
-7.97207
 20
10.25052
 30
0.0
 10
-7.97207
 20
10.25052
 30
0.0
 10
-7.97207
 20
10.26211
 30
0.0
 10
-7.97207
 20
10.26211
 30
0.0
  0
SPLINE
  5
7B
330
1F
100
AcDbEntity
  8
0
370
    15
100
AcDbSpline
210
0.0
220
0.0
230
1.0
 70
    24
 71
     3
 72
     8
 73
     4
 74
     0
 42
0.0000000001
 43
0.0000000001
 40
0.0
 40
0.0
 40
0.0
 40
0.0
 40
1.0
 40
1.0
 40
1.0
 40
1.0
 10
-7.97207
 20
10.26211
 30
0.0
 10
-7.97207
 20
10.26211
 30
0.0
 10
-6.37207
 20
10.26211
 30
0.0
 10
-6.37207
 20
10.26211
 30
0.0
  0
SPLINE
  5
7C
330
1F
100
AcDbEntity
  8
0
370
    15
100
AcDbSpline
210
0.0
220
0.0
230
1.0
 70
    24
 71
     3
 72
     8
 73
     4
 74
     0
 42
0.0000000001
 43
0.0000000001
 40
0.0
 40
0.0
 40
0.0
 40
0.0
 40
1.0
 40
1.0
 40
1.0
 40
1.0
 10
-6.37207
 20
9.99545
 30
0.0
 10
-6.37207
 20
9.99545
 30
0.0
 10
-7.97207
 20
9.99545
 30
0.0
 10
-7.97207
 20
9.99545
 30
0.0
  0
SPLINE
  5
7D
330
1F
100
AcDbEntity
  8
0
370
    15
100
AcDbSpline
210
0.0
220
0.0
230
1.0
 70
    24
 71
     3
 72
     8
 73
     4
 74
     0
 42
0.0000000001
 43
0.0000000001
 40
0.0
 40
0.0
 40
0.0
 40
0.0
 40
1.0
 40
1.0
 40
1.0
 40
1.0
 10
-7.97207
 20
9.99545
 30
0.0
 10
-7.97207
 20
9.99545
 30
0.0
 10
-7.97207
 20
10.00704
 30
0.0
 10
-7.97207
 20
10.00704
 30
0.0
  0
SPLINE
  5
7E
330
1F
100
AcDbEntity
  8
0
370
    15
100
AcDbSpline
210
0.0
220
0.0
230
1.0
 70
    24
 71
     3
 72
     8
 73
     4
 74
     0
 42
0.0000000001
 43
0.0000000001
 40
0.0
 40
0.0
 40
0.0
 40
0.0
 40
1.0
 40
1.0
 40
1.0
 40
1.0
 10
-7.97207
 20
9.99545
 30
0.0
 10
-7.97207
 20
9.99545
 30
0.0
 10
-8.26009
 20
9.99545
 30
0.0
 10
-8.26009
 20
9.99545
 30
0.0
  0
SPLINE
  5
7F
330
1F
100
AcDbEntity
  8
0
370
    15
100
AcDbSpline
210
0.0
220
0.0
230
1.0
 70
     8
 71
     3
 72
     8
 73
     4
 74
     0
 42
0.0000000001
 43
0.0000000001
 40
0.0
 40
0.0
 40
0.0
 40
0.0
 40
1.0
 40
1.0
 40
1.0
 40
1.0
 10
-8.27597
 20
10.00704
 30
0.0
 10
-8.27376
 20
10.00014
 30
0.0
 10
-8.26735
 20
9.99545
 30
0.0
 10
-8.26009
 20
9.99545
 30
0.0
  0
SPLINE
  5
80
330
1F
100
AcDbEntity
  8
0
370
    15
100
AcDbSpline
210
0.0
220
0.0
230
1.0
 70
    24
 71
     3
 72
     8
 73
     4
 74
     0
 42
0.0000000001
 43
0.0000000001
 40
0.0
 40
0.0
 40
0.0
 40
0.0
 40
1.0
 40
1.0
 40
1.0
 40
1.0
 10
-6.06817
 20
10.00704
 30
0.0
 10
-6.06817
 20
10.00704
 30
0.0
 10
-6.06817
 20
9.89545
 30
0.0
 10
-6.06817
 20
9.89545
 30
0.0
  0
SPLINE
  5
81
330
1F
100
AcDbEntity
  8
0
370
    15
100
AcDbSpline
210
0.0
220
0.0
230
1.0
 70
    24
 71
     3
 72
     8
 73
     4
 74
     0
 42
0.0000000001
 43
0.0000000001
 40
0.0
 40
0.0
 40
0.0
 40
0.0
 40
1.0
 40
1.0
 40
1.0
 40
1.0
 10
-8.26009
 20
9.99545
 30
0.0
 10
-8.26009
 20
9.99545
 30
0.0
 10
-8.26009
 20
9.90535
 30
0.0
 10
-8.26009
 20
9.90535
 30
0.0
  0
SPLINE
  5
82
330
1F
100
AcDbEntity
  8
0
370
    15
100
AcDbSpline
210
0.0
220
0.0
230
1.0
 70
     8
 71
     3
 72
     8
 73
     4
 74
     0
 42
0.0000000001
 43
0.0000000001
 40
0.0
 40
0.0
 40
0.0
 40
0.0
 40
1.0
 40
1.0
 40
1.0
 40
1.0
 10
-8.26009
 20
9.90535
 30
0.0
 10
-8.26026
 20
9.90528
 30
0.0
 10
-8.26044
 20
9.90524
 30
0.0
 10
-8.26062
 20
9.90522
 30
0.0
  0
SPLINE
  5
83
330
1F
100
AcDbEntity
  8
0
370
    15
100
AcDbSpline
210
0.0
220
0.0
230
1.0
 70
     8
 71
     3
 72
    20
 73
    16
 74
     0
 42
0.0000000001
 43
0.0000000001
 40
0.0
 40
0.0
 40
0.0
 40
0.0
 40
0.2
 40
0.2
 40
0.2
 40
0.2
 40
0.4
 40
0.4
 40
0.4
 40
0.4
 40
0.6
 40
0.6
 40
0.6
 40
0.6
 40
1.0
 40
1.0
 40
1.0
 40
1.0
 10
-8.27581
 20
9.89777
 30
0.0
 10
-8.27574
 20
9.89872
 30
0.0
 10
-8.27562
 20
9.89962
 30
0.0
 10
-8.27541
 20
9.9004
 30
0.0
 10
-8.27541
 20
9.9004
 30
0.0
 10
-8.27519
 20
9.90117
 30
0.0
 10
-8.27487
 20
9.90179
 30
0.0
 10
-8.27446
 20
9.90226
 30
0.0
 10
-8.27446
 20
9.90226
 30
0.0
 10
-8.27364
 20
9.9032
 30
0.0
 10
-8.27245
 20
9.90362
 30
0.0
 10
-8.27103
 20
9.90395
 30
0.0
 10
-8.27103
 20
9.90395
 30
0.0
 10
-8.26819
 20
9.90461
 30
0.0
 10
-8.26448
 20
9.90486
 30
0.0
 10
-8.26062
 20
9.90522
 30
0.0
  0
SPLINE
  5
84
330
1F
100
AcDbEntity
  8
0
370
    15
100
AcDbSpline
210
0.0
220
0.0
230
1.0
 70
     8
 71
     3
 72
    12
 73
     8
 74
     0
 42
0.0000000001
 43
0.0000000001
 40
0.0
 40
0.0
 40
0.0
 40
0.0
 40
0.3333333333333333
 40
0.3333333333333333
 40
0.3333333333333333
 40
0.3333333333333333
 40
1.0
 40
1.0
 40
1.0
 40
1.0
 10
-8.27581
 20
9.89777
 30
0.0
 10
-8.27585
 20
9.89716
 30
0.0
 10
-8.2759
 20
9.89655
 30
0.0
 10
-8.27594
 20
9.89594
 30
0.0
 10
-8.27594
 20
9.89594
 30
0.0
 10
-8.27595
 20
9.89578
 30
0.0
 10
-8.27596
 20
9.89561
 30
0.0
 10
-8.27597
 20
9.89545
 30
0.0
  0
SPLINE
  5
85
330
1F
100
AcDbEntity
  8
0
370
    15
100
AcDbSpline
210
0.0
220
0.0
230
1.0
 70
    24
 71
     3
 72
     8
 73
     4
 74
     0
 42
0.0000000001
 43
0.0000000001
 40
0.0
 40
0.0
 40
0.0
 40
0.0
 40
1.0
 40
1.0
 40
1.0
 40
1.0
 10
-8.27597
 20
9.89545
 30
0.0
 10
-8.27597
 20
9.89545
 30
0.0
 10
-8.27597
 20
10.00704
 30
0.0
 10
-8.27597
 20
10.00704
 30
0.0
  0
SPLINE
  5
86
330
1F
100
AcDbEntity
  8
0
370
    15
100
AcDbSpline
210
0.0
220
0.0
230
1.0
 70
     8
 71
     3
 72
    20
 73
    16
 74
     0
 42
0.0000000001
 43
0.0000000001
 40
0.0
 40
0.0
 40
0.0
 40
0.0
 40
0.2
 40
0.2
 40
0.2
 40
0.2
 40
0.4
 40
0.4
 40
0.4
 40
0.4
 40
0.6
 40
0.6
 40
0.6
 40
0.6
 40
1.0
 40
1.0
 40
1.0
 40
1.0
 10
-6.06833
 20
9.89777
 30
0.0
 10
-6.0684
 20
9.89872
 30
0.0
 10
-6.06852
 20
9.89962
 30
0.0
 10
-6.06873
 20
9.9004
 30
0.0
 10
-6.06873
 20
9.9004
 30
0.0
 10
-6.06895
 20
9.90117
 30
0.0
 10
-6.06927
 20
9.90179
 30
0.0
 10
-6.06968
 20
9.90226
 30
0.0
 10
-6.06968
 20
9.90226
 30
0.0
 10
-6.0705
 20
9.9032
 30
0.0
 10
-6.07169
 20
9.90362
 30
0.0
 10
-6.07311
 20
9.90395
 30
0.0
 10
-6.07311
 20
9.90395
 30
0.0
 10
-6.07595
 20
9.90461
 30
0.0
 10
-6.07966
 20
9.90486
 30
0.0
 10
-6.08352
 20
9.90522
 30
0.0
  0
SPLINE
  5
87
330
1F
100
AcDbEntity
  8
0
370
    15
100
AcDbSpline
210
0.0
220
0.0
230
1.0
 70
     8
 71
     3
 72
     8
 73
     4
 74
     0
 42
0.0000000001
 43
0.0000000001
 40
0.0
 40
0.0
 40
0.0
 40
0.0
 40
1.0
 40
1.0
 40
1.0
 40
1.0
 10
-6.08352
 20
9.90522
 30
0.0
 10
-6.0837
 20
9.90524
 30
0.0
 10
-6.08388
 20
9.90528
 30
0.0
 10
-6.08405
 20
9.90535
 30
0.0
  0
SPLINE
  5
88
330
1F
100
AcDbEntity
  8
0
370
    15
100
AcDbSpline
210
0.0
220
0.0
230
1.0
 70
    24
 71
     3
 72
     8
 73
     4
 74
     0
 42
0.0000000001
 43
0.0000000001
 40
0.0
 40
0.0
 40
0.0
 40
0.0
 40
1.0
 40
1.0
 40
1.0
 40
1.0
 10
-6.08405
 20
9.90535
 30
0.0
 10
-6.08405
 20
9.90535
 30
0.0
 10
-6.08405
 20
9.99545
 30
0.0
 10
-6.08405
 20
9.99545
 30
0.0
  0
SPLINE
  5
89
330
1F
100
AcDbEntity
  8
0
370
    15
100
AcDbSpline
210
0.0
220
0.0
230
1.0
 70
     8
 71
     3
 72
    12
 73
     8
 74
     0
 42
0.0000000001
 43
0.0000000001
 40
0.0
 40
0.0
 40
0.0
 40
0.0
 40
0.3333333333333333
 40
0.3333333333333333
 40
0.3333333333333333
 40
0.3333333333333333
 40
1.0
 40
1.0
 40
1.0
 40
1.0
 10
-6.06833
 20
9.89777
 30
0.0
 10
-6.06829
 20
9.89716
 30
0.0
 10
-6.06824
 20
9.89655
 30
0.0
 10
-6.0682
 20
9.89594
 30
0.0
 10
-6.0682
 20
9.89594
 30
0.0
 10
-6.06819
 20
9.89578
 30
0.0
 10
-6.06818
 20
9.89561
 30
0.0
 10
-6.06817
 20
9.89545
 30
0.0
  0
SPLINE
  5
8A
330
1F
100
AcDbEntity
  8
0
370
    15
100
AcDbSpline
210
0.0
220
0.0
230
1.0
 70
     8
 71
     3
 72
    12
 73
     8
 74
     0
 42
0.0000000001
 43
0.0000000001
 40
0.0
 40
0.0
 40
0.0
 40
0.0
 40
0.3333333333333333
 40
0.3333333333333333
 40
0.3333333333333333
 40
0.3333333333333333
 40
1.0
 40
1.0
 40
1.0
 40
1.0
 10
-6.08405
 20
9.90535
 30
0.0
 10
-6.08652
 20
9.90631
 30
0.0
 10
-6.08899
 20
9.90728
 30
0.0
 10
-6.09151
 20
9.90804
 30
0.0
 10
-6.09151
 20
9.90804
 30
0.0
 10
-6.09602
 20
9.9094
 30
0.0
 10
-6.10071
 20
9.91012
 30
0.0
 10
-6.1054
 20
9.91084
 30
0.0
  0
SPLINE
  5
8B
330
1F
100
AcDbEntity
  8
0
370
    15
100
AcDbSpline
210
0.0
220
0.0
230
1.0
 70
     8
 71
     3
 72
    16
 73
    12
 74
     0
 42
0.0000000001
 43
0.0000000001
 40
0.0
 40
0.0
 40
0.0
 40
0.0
 40
0.25
 40
0.25
 40
0.25
 40
0.25
 40
0.5
 40
0.5
 40
0.5
 40
0.5
 40
1.0
 40
1.0
 40
1.0
 40
1.0
 10
-6.635
 20
9.94948
 30
0.0
 10
-6.73672
 20
9.95309
 30
0.0
 10
-6.83845
 20
9.9567
 30
0.0
 10
-6.94022
 20
9.95862
 30
0.0
 10
-6.94022
 20
9.95862
 30
0.0
 10
-7.11475
 20
9.96191
 30
0.0
 10
-7.28941
 20
9.96023
 30
0.0
 10
-7.46396
 20
9.95689
 30
0.0
 10
-7.46396
 20
9.95689
 30
0.0
 10
-7.54446
 20
9.95534
 30
0.0
 10
-7.62493
 20
9.95344
 30
0.0
 10
-7.7054
 20
9.95154
 30
0.0
  0
SPLINE
  5
8C
330
1F
100
AcDbEntity
  8
0
370
    15
100
AcDbSpline
210
0.0
220
0.0
230
1.0
 70
     8
 71
     3
 72
    24
 73
    20
 74
     0
 42
0.0000000001
 43
0.0000000001
 40
0.0
 40
0.0
 40
0.0
 40
0.0
 40
0.1666666666666667
 40
0.1666666666666667
 40
0.1666666666666667
 40
0.1666666666666667
 40
0.3333333333333333
 40
0.3333333333333333
 40
0.3333333333333333
 40
0.3333333333333333
 40
0.5
 40
0.5
 40
0.5
 40
0.5
 40
0.6666666666666666
 40
0.6666666666666666
 40
0.6666666666666666
 40
0.6666666666666666
 40
1.0
 40
1.0
 40
1.0
 40
1.0
 10
-8.23874
 20
9.91178
 30
0.0
 10
-8.23874
 20
9.91178
 30
0.0
 10
-8.242
 20
9.91105
 30
0.0
 10
-8.242
 20
9.91105
 30
0.0
 10
-8.242
 20
9.91105
 30
0.0
 10
-8.242
 20
9.91105
 30
0.0
 10
-8.25284
 20
9.90797
 30
0.0
 10
-8.25284
 20
9.90797
 30
0.0
 10
-8.25284
 20
9.90797
 30
0.0
 10
-8.25284
 20
9.90797
 30
0.0
 10
-8.26008
 20
9.90536
 30
0.0
 10
-8.26008
 20
9.90536
 30
0.0
 10
-8.26008
 20
9.90536
 30
0.0
 10
-8.26008
 20
9.90536
 30
0.0
 10
-8.26009
 20
9.90535
 30
0.0
 10
-8.26009
 20
9.90535
 30
0.0
 10
-8.26009
 20
9.90535
 30
0.0
 10
-8.26009
 20
9.90535
 30
0.0
 10
-8.26009
 20
9.90535
 30
0.0
 10
-8.26009
 20
9.90535
 30
0.0
  0
SPLINE
  5
8D
330
1F
100
AcDbEntity
  8
0
370
    15
100
AcDbSpline
210
0.0
220
0.0
230
1.0
 70
    24
 71
     3
 72
     8
 73
     4
 74
     0
 42
0.0000000001
 43
0.0000000001
 40
0.0
 40
0.0
 40
0.0
 40
0.0
 40
1.0
 40
1.0
 40
1.0
 40
1.0
 10
-6.08352
 20
8.89545
 30
0.0
 10
-6.08352
 20
8.89545
 30
0.0
 10
-6.08352
 20
9.90522
 30
0.0
 10
-6.08352
 20
9.90522
 30
0.0
  0
SPLINE
  5
8E
330
1F
100
AcDbEntity
  8
0
370
    15
100
AcDbSpline
210
0.0
220
0.0
230
1.0
 70
    24
 71
     3
 72
     8
 73
     4
 74
     0
 42
0.0000000001
 43
0.0000000001
 40
0.0
 40
0.0
 40
0.0
 40
0.0
 40
1.0
 40
1.0
 40
1.0
 40
1.0
 10
-8.26062
 20
9.90522
 30
0.0
 10
-8.26062
 20
9.90522
 30
0.0
 10
-8.26062
 20
8.89545
 30
0.0
 10
-8.26062
 20
8.89545
 30
0.0
  0
SPLINE
  5
8F
330
1F
100
AcDbEntity
  8
0
370
    15
100
AcDbSpline
210
0.0
220
0.0
230
1.0
 70
    24
 71
     3
 72
     8
 73
     4
 74
     0
 42
0.0000000001
 43
0.0000000001
 40
0.0
 40
0.0
 40
0.0
 40
0.0
 40
1.0
 40
1.0
 40
1.0
 40
1.0
 10
-6.08352
 20
8.89545
 30
0.0
 10
-6.08352
 20
8.89545
 30
0.0
 10
-8.26062
 20
8.89545
 30
0.0
 10
-8.26062
 20
8.89545
 30
0.0
  0
SPLINE
  5
90
330
1F
100
AcDbEntity
  8
0
370
    15
100
AcDbSpline
210
0.0
220
0.0
230
1.0
 70
    24
 71
     3
 72
     8
 73
     4
 74
     0
 42
0.0000000001
 43
0.0000000001
 40
0.0
 40
0.0
 40
0.0
 40
0.0
 40
1.0
 40
1.0
 40
1.0
 40
1.0
 10
-6.06833
 20
9.89777
 30
0.0
 10
-6.06833
 20
9.89777
 30
0.0
 10
-6.06833
 20
8.89545
 30
0.0
 10
-6.06833
 20
8.89545
 30
0.0
  0
SPLINE
  5
91
330
1F
100
AcDbEntity
  8
0
370
    15
100
AcDbSpline
210
0.0
220
0.0
230
1.0
 70
    24
 71
     3
 72
     8
 73
     4
 74
     0
 42
0.0000000001
 43
0.0000000001
 40
0.0
 40
0.0
 40
0.0
 40
0.0
 40
1.0
 40
1.0
 40
1.0
 40
1.0
 10
-6.06833
 20
8.89545
 30
0.0
 10
-6.06833
 20
8.89545
 30
0.0
 10
-6.08352
 20
8.89545
 30
0.0
 10
-6.08352
 20
8.89545
 30
0.0
  0
SPLINE
  5
92
330
1F
100
AcDbEntity
  8
0
370
    15
100
AcDbSpline
210
0.0
220
0.0
230
1.0
 70
    24
 71
     3
 72
     8
 73
     4
 74
     0
 42
0.0000000001
 43
0.0000000001
 40
0.0
 40
0.0
 40
0.0
 40
0.0
 40
1.0
 40
1.0
 40
1.0
 40
1.0
 10
-8.27581
 20
8.89545
 30
0.0
 10
-8.27581
 20
8.89545
 30
0.0
 10
-8.27581
 20
9.89777
 30
0.0
 10
-8.27581
 20
9.89777
 30
0.0
  0
SPLINE
  5
93
330
1F
100
AcDbEntity
  8
0
370
    15
100
AcDbSpline
210
0.0
220
0.0
230
1.0
 70
    24
 71
     3
 72
     8
 73
     4
 74
     0
 42
0.0000000001
 43
0.0000000001
 40
0.0
 40
0.0
 40
0.0
 40
0.0
 40
1.0
 40
1.0
 40
1.0
 40
1.0
 10
-8.26062
 20
8.89545
 30
0.0
 10
-8.26062
 20
8.89545
 30
0.0
 10
-8.27581
 20
8.89545
 30
0.0
 10
-8.27581
 20
8.89545
 30
0.0
  0
SPLINE
  5
94
330
1F
100
AcDbEntity
  8
0
370
    15
100
AcDbSpline
210
0.0
220
0.0
230
1.0
 70
    24
 71
     3
 72
     8
 73
     4
 74
     0
 42
0.0000000001
 43
0.0000000001
 40
0.0
 40
0.0
 40
0.0
 40
0.0
 40
1.0
 40
1.0
 40
1.0
 40
1.0
 10
-6.04919
 20
8.89545
 30
0.0
 10
-6.04919
 20
8.89545
 30
0.0
 10
-6.06833
 20
8.89545
 30
0.0
 10
-6.06833
 20
8.89545
 30
0.0
  0
SPLINE
  5
95
330
1F
100
AcDbEntity
  8
0
370
    15
100
AcDbSpline
210
0.0
220
0.0
230
1.0
 70
    24
 71
     3
 72
     8
 73
     4
 74
     0
 42
0.0000000001
 43
0.0000000001
 40
0.0
 40
0.0
 40
0.0
 40
0.0
 40
1.0
 40
1.0
 40
1.0
 40
1.0
 10
-8.29495
 20
8.89545
 30
0.0
 10
-8.29495
 20
8.89545
 30
0.0
 10
-8.27581
 20
8.89545
 30
0.0
 10
-8.27581
 20
8.89545
 30
0.0
  0
SPLINE
  5
96
330
1F
100
AcDbEntity
  8
0
 62
     8
370
    15
100
AcDbSpline
210
0.0
220
0.0
230
1.0
 70
    24
 71
     3
 72
     8
 73
     4
 74
     0
 42
0.0000000001
 43
0.0000000001
 40
0.0
 40
0.0
 40
0.0
 40
0.0
 40
1.0
 40
1.0
 40
1.0
 40
1.0
 10
-6.04919
 20
9.89545
 30
0.0
 10
-6.04919
 20
9.89545
 30
0.0
 10
-6.06817
 20
9.89545
 30
0.0
 10
-6.06817
 20
9.89545
 30
0.0
  0
SPLINE
  5
97
330
1F
100
AcDbEntity
  8
0
 62
     8
370
    15
100
AcDbSpline
210
0.0
220
0.0
230
1.0
 70
    24
 71
     3
 72
     8
 73
     4
 74
     0
 42
0.0000000001
 43
0.0000000001
 40
0.0
 40
0.0
 40
0.0
 40
0.0
 40
1.0
 40
1.0
 40
1.0
 40
1.0
 10
-8.29495
 20
9.89545
 30
0.0
 10
-8.29495
 20
9.89545
 30
0.0
 10
-8.27597
 20
9.89545
 30
0.0
 10
-8.27597
 20
9.89545
 30
0.0
  0
SPLINE
  5
98
330
1F
100
AcDbEntity
  8
0
100
AcDbSpline
210
0.0
220
0.0
230
1.0
 70
    27
 71
     3
 72
    12
 73
     8
 74
     0
 42
0.0000000001
 43
0.0000000001
 40
0.0
 40
0.0
 40
0.0
 40
0.0
 40
0.3333333333333333
 40
0.3333333333333333
 40
0.3333333333333333
 40
0.3333333333333333
 40
1.0
 40
1.0
 40
1.0
 40
1.0
 10
-9.29495
 20
10.26211
 30
0.0
 10
-9.29495
 20
10.26211
 30
0.0
 10
-9.34575
 20
10.59231
 30
0.0
 10
-9.34575
 20
10.59231
 30
0.0
 10
-9.34575
 20
10.59231
 30
0.0
 10
-9.34575
 20
10.59231
 30
0.0
 10
-9.29495
 20
10.26211
 30
0.0
 10
-9.29495
 20
10.26211
 30
0.0
  0
SPLINE
  5
99
330
1F
100
AcDbEntity
  8
0
100
AcDbSpline
210
0.0
220
0.0
230
1.0
 70
     8
 71
     3
 72
    12
 73
     8
 74
     0
 42
0.0000000001
 43
0.0000000001
 40
0.0
 40
0.0
 40
0.0
 40
0.0
 40
0.3333333333333333
 40
0.3333333333333333
 40
0.3333333333333333
 40
0.3333333333333333
 40
1.0
 40
1.0
 40
1.0
 40
1.0
 10
-9.34575
 20
10.59231
 30
0.0
 10
-9.34575
 20
10.59231
 30
0.0
 10
-9.24415
 20
10.59231
 30
0.0
 10
-9.24415
 20
10.59231
 30
0.0
 10
-9.24415
 20
10.59231
 30
0.0
 10
-9.24415
 20
10.59231
 30
0.0
 10
-9.29495
 20
10.26211
 30
0.0
 10
-9.29495
 20
10.26211
 30
0.0
  0
SPLINE
  5
9A
330
1F
100
AcDbEntity
  8
0
370
     9
100
AcDbSpline
210
0.0
220
0.0
230
1.0
 70
    24
 71
     3
 72
     8
 73
     4
 74
     0
 42
0.0000000001
 43
0.0000000001
 40
0.0
 40
0.0
 40
0.0
 40
0.0
 40
1.0
 40
1.0
 40
1.0
 40
1.0
 10
-9.29495
 20
10.26211
 30
0.0
 10
-9.29495
 20
10.26211
 30
0.0
 10
-9.34575
 20
10.59231
 30
0.0
 10
-9.34575
 20
10.59231
 30
0.0
  0
SPLINE
  5
9B
330
1F
100
AcDbEntity
  8
0
370
     9
100
AcDbSpline
210
0.0
220
0.0
230
1.0
 70
     8
 71
     3
 72
    12
 73
     8
 74
     0
 42
0.0000000001
 43
0.0000000001
 40
0.0
 40
0.0
 40
0.0
 40
0.0
 40
0.3333333333333333
 40
0.3333333333333333
 40
0.3333333333333333
 40
0.3333333333333333
 40
1.0
 40
1.0
 40
1.0
 40
1.0
 10
-9.34575
 20
10.59231
 30
0.0
 10
-9.34575
 20
10.59231
 30
0.0
 10
-9.24415
 20
10.59231
 30
0.0
 10
-9.24415
 20
10.59231
 30
0.0
 10
-9.24415
 20
10.59231
 30
0.0
 10
-9.24415
 20
10.59231
 30
0.0
 10
-9.29495
 20
10.26211
 30
0.0
 10
-9.29495
 20
10.26211
 30
0.0
  0
SPLINE
  5
9C
330
1F
100
AcDbEntity
  8
0
100
AcDbSpline
210
0.0
220
0.0
230
1.0
 70
    27
 71
     3
 72
    12
 73
     8
 74
     0
 42
0.0000000001
 43
0.0000000001
 40
0.0
 40
0.0
 40
0.0
 40
0.0
 40
0.3333333333333333
 40
0.3333333333333333
 40
0.3333333333333333
 40
0.3333333333333333
 40
1.0
 40
1.0
 40
1.0
 40
1.0
 10
-9.29495
 20
8.89545
 30
0.0
 10
-9.29495
 20
8.89545
 30
0.0
 10
-9.24415
 20
8.56525
 30
0.0
 10
-9.24415
 20
8.56525
 30
0.0
 10
-9.24415
 20
8.56525
 30
0.0
 10
-9.24415
 20
8.56525
 30
0.0
 10
-9.29495
 20
8.89545
 30
0.0
 10
-9.29495
 20
8.89545
 30
0.0
  0
SPLINE
  5
9D
330
1F
100
AcDbEntity
  8
0
100
AcDbSpline
210
0.0
220
0.0
230
1.0
 70
     8
 71
     3
 72
    12
 73
     8
 74
     0
 42
0.0000000001
 43
0.0000000001
 40
0.0
 40
0.0
 40
0.0
 40
0.0
 40
0.3333333333333333
 40
0.3333333333333333
 40
0.3333333333333333
 40
0.3333333333333333
 40
1.0
 40
1.0
 40
1.0
 40
1.0
 10
-9.24415
 20
8.56525
 30
0.0
 10
-9.24415
 20
8.56525
 30
0.0
 10
-9.34575
 20
8.56525
 30
0.0
 10
-9.34575
 20
8.56525
 30
0.0
 10
-9.34575
 20
8.56525
 30
0.0
 10
-9.34575
 20
8.56525
 30
0.0
 10
-9.29495
 20
8.89545
 30
0.0
 10
-9.29495
 20
8.89545
 30
0.0
  0
SPLINE
  5
9E
330
1F
100
AcDbEntity
  8
0
370
     9
100
AcDbSpline
210
0.0
220
0.0
230
1.0
 70
    24
 71
     3
 72
     8
 73
     4
 74
     0
 42
0.0000000001
 43
0.0000000001
 40
0.0
 40
0.0
 40
0.0
 40
0.0
 40
1.0
 40
1.0
 40
1.0
 40
1.0
 10
-9.29495
 20
8.89545
 30
0.0
 10
-9.29495
 20
8.89545
 30
0.0
 10
-9.24415
 20
8.56525
 30
0.0
 10
-9.24415
 20
8.56525
 30
0.0
  0
SPLINE
  5
9F
330
1F
100
AcDbEntity
  8
0
370
     9
100
AcDbSpline
210
0.0
220
0.0
230
1.0
 70
     8
 71
     3
 72
    12
 73
     8
 74
     0
 42
0.0000000001
 43
0.0000000001
 40
0.0
 40
0.0
 40
0.0
 40
0.0
 40
0.3333333333333333
 40
0.3333333333333333
 40
0.3333333333333333
 40
0.3333333333333333
 40
1.0
 40
1.0
 40
1.0
 40
1.0
 10
-9.24415
 20
8.56525
 30
0.0
 10
-9.24415
 20
8.56525
 30
0.0
 10
-9.34575
 20
8.56525
 30
0.0
 10
-9.34575
 20
8.56525
 30
0.0
 10
-9.34575
 20
8.56525
 30
0.0
 10
-9.34575
 20
8.56525
 30
0.0
 10
-9.29495
 20
8.89545
 30
0.0
 10
-9.29495
 20
8.89545
 30
0.0
  0
SPLINE
  5
A0
330
1F
100
AcDbEntity
  8
0
370
     9
100
AcDbSpline
210
0.0
220
0.0
230
1.0
 70
    24
 71
     3
 72
     8
 73
     4
 74
     0
 42
0.0000000001
 43
0.0000000001
 40
0.0
 40
0.0
 40
0.0
 40
0.0
 40
1.0
 40
1.0
 40
1.0
 40
1.0
 10
-8.07207
 20
10.26211
 30
0.0
 10
-8.07207
 20
10.26211
 30
0.0
 10
-9.39495
 20
10.26211
 30
0.0
 10
-9.39495
 20
10.26211
 30
0.0
  0
SPLINE
  5
A1
330
1F
100
AcDbEntity
  8
0
370
     9
100
AcDbSpline
210
0.0
220
0.0
230
1.0
 70
    24
 71
     3
 72
     8
 73
     4
 74
     0
 42
0.0000000001
 43
0.0000000001
 40
0.0
 40
0.0
 40
0.0
 40
0.0
 40
1.0
 40
1.0
 40
1.0
 40
1.0
 10
-8.36062
 20
8.89545
 30
0.0
 10
-8.36062
 20
8.89545
 30
0.0
 10
-9.39495
 20
8.89545
 30
0.0
 10
-9.39495
 20
8.89545
 30
0.0
  0
SPLINE
  5
A2
330
1F
100
AcDbEntity
  8
0
370
     9
100
AcDbSpline
210
0.0
220
0.0
230
1.0
 70
    24
 71
     3
 72
     8
 73
     4
 74
     0
 42
0.0000000001
 43
0.0000000001
 40
0.0
 40
0.0
 40
0.0
 40
0.0
 40
1.0
 40
1.0
 40
1.0
 40
1.0
 10
-9.29495
 20
10.26211
 30
0.0
 10
-9.29495
 20
10.26211
 30
0.0
 10
-9.29495
 20
10.89711
 30
0.0
 10
-9.29495
 20
10.89711
 30
0.0
  0
SPLINE
  5
A3
330
1F
100
AcDbEntity
  8
0
370
     9
100
AcDbSpline
210
0.0
220
0.0
230
1.0
 70
    24
 71
     3
 72
     8
 73
     4
 74
     0
 42
0.0000000001
 43
0.0000000001
 40
0.0
 40
0.0
 40
0.0
 40
0.0
 40
1.0
 40
1.0
 40
1.0
 40
1.0
 10
-9.29495
 20
10.26211
 30
0.0
 10
-9.29495
 20
10.26211
 30
0.0
 10
-9.29495
 20
8.89545
 30
0.0
 10
-9.29495
 20
8.89545
 30
0.0
  0
SPLINE
  5
A4
330
1F
100
AcDbEntity
  8
0
370
     9
100
AcDbSpline
210
0.0
220
0.0
230
1.0
 70
    24
 71
     3
 72
     8
 73
     4
 74
     0
 42
0.0000000001
 43
0.0000000001
 40
0.0
 40
0.0
 40
0.0
 40
0.0
 40
1.0
 40
1.0
 40
1.0
 40
1.0
 10
-9.29495
 20
8.89545
 30
0.0
 10
-9.29495
 20
8.89545
 30
0.0
 10
-9.29495
 20
8.26045
 30
0.0
 10
-9.29495
 20
8.26045
 30
0.0
  0
SPLINE
  5
A5
330
1F
100
AcDbEntity
  8
0
100
AcDbSpline
210
0.0
220
0.0
230
1.0
 70
    27
 71
     3
 72
    12
 73
     8
 74
     0
 42
0.0000000001
 43
0.0000000001
 40
0.0
 40
0.0
 40
0.0
 40
0.0
 40
0.3333333333333333
 40
0.3333333333333333
 40
0.3333333333333333
 40
0.3333333333333333
 40
1.0
 40
1.0
 40
1.0
 40
1.0
 10
-8.29495
 20
7.89545
 30
0.0
 10
-8.29495
 20
7.89545
 30
0.0
 10
-7.96475
 20
7.94625
 30
0.0
 10
-7.96475
 20
7.94625
 30
0.0
 10
-7.96475
 20
7.94625
 30
0.0
 10
-7.96475
 20
7.94625
 30
0.0
 10
-8.29495
 20
7.89545
 30
0.0
 10
-8.29495
 20
7.89545
 30
0.0
  0
SPLINE
  5
A6
330
1F
100
AcDbEntity
  8
0
100
AcDbSpline
210
0.0
220
0.0
230
1.0
 70
     8
 71
     3
 72
    12
 73
     8
 74
     0
 42
0.0000000001
 43
0.0000000001
 40
0.0
 40
0.0
 40
0.0
 40
0.0
 40
0.3333333333333333
 40
0.3333333333333333
 40
0.3333333333333333
 40
0.3333333333333333
 40
1.0
 40
1.0
 40
1.0
 40
1.0
 10
-7.96475
 20
7.94625
 30
0.0
 10
-7.96475
 20
7.94625
 30
0.0
 10
-7.96475
 20
7.84465
 30
0.0
 10
-7.96475
 20
7.84465
 30
0.0
 10
-7.96475
 20
7.84465
 30
0.0
 10
-7.96475
 20
7.84465
 30
0.0
 10
-8.29495
 20
7.89545
 30
0.0
 10
-8.29495
 20
7.89545
 30
0.0
  0
SPLINE
  5
A7
330
1F
100
AcDbEntity
  8
0
370
     9
100
AcDbSpline
210
0.0
220
0.0
230
1.0
 70
    24
 71
     3
 72
     8
 73
     4
 74
     0
 42
0.0000000001
 43
0.0000000001
 40
0.0
 40
0.0
 40
0.0
 40
0.0
 40
1.0
 40
1.0
 40
1.0
 40
1.0
 10
-8.29495
 20
7.89545
 30
0.0
 10
-8.29495
 20
7.89545
 30
0.0
 10
-7.96475
 20
7.94625
 30
0.0
 10
-7.96475
 20
7.94625
 30
0.0
  0
SPLINE
  5
A8
330
1F
100
AcDbEntity
  8
0
370
     9
100
AcDbSpline
210
0.0
220
0.0
230
1.0
 70
     8
 71
     3
 72
    12
 73
     8
 74
     0
 42
0.0000000001
 43
0.0000000001
 40
0.0
 40
0.0
 40
0.0
 40
0.0
 40
0.3333333333333333
 40
0.3333333333333333
 40
0.3333333333333333
 40
0.3333333333333333
 40
1.0
 40
1.0
 40
1.0
 40
1.0
 10
-7.96475
 20
7.94625
 30
0.0
 10
-7.96475
 20
7.94625
 30
0.0
 10
-7.96475
 20
7.84465
 30
0.0
 10
-7.96475
 20
7.84465
 30
0.0
 10
-7.96475
 20
7.84465
 30
0.0
 10
-7.96475
 20
7.84465
 30
0.0
 10
-8.29495
 20
7.89545
 30
0.0
 10
-8.29495
 20
7.89545
 30
0.0
  0
SPLINE
  5
A9
330
1F
100
AcDbEntity
  8
0
100
AcDbSpline
210
0.0
220
0.0
230
1.0
 70
    27
 71
     3
 72
    12
 73
     8
 74
     0
 42
0.0000000001
 43
0.0000000001
 40
0.0
 40
0.0
 40
0.0
 40
0.0
 40
0.3333333333333333
 40
0.3333333333333333
 40
0.3333333333333333
 40
0.3333333333333333
 40
1.0
 40
1.0
 40
1.0
 40
1.0
 10
-6.04919
 20
7.89545
 30
0.0
 10
-6.04919
 20
7.89545
 30
0.0
 10
-6.37939
 20
7.84465
 30
0.0
 10
-6.37939
 20
7.84465
 30
0.0
 10
-6.37939
 20
7.84465
 30
0.0
 10
-6.37939
 20
7.84465
 30
0.0
 10
-6.04919
 20
7.89545
 30
0.0
 10
-6.04919
 20
7.89545
 30
0.0
  0
SPLINE
  5
AA
330
1F
100
AcDbEntity
  8
0
100
AcDbSpline
210
0.0
220
0.0
230
1.0
 70
     8
 71
     3
 72
    12
 73
     8
 74
     0
 42
0.0000000001
 43
0.0000000001
 40
0.0
 40
0.0
 40
0.0
 40
0.0
 40
0.3333333333333333
 40
0.3333333333333333
 40
0.3333333333333333
 40
0.3333333333333333
 40
1.0
 40
1.0
 40
1.0
 40
1.0
 10
-6.37939
 20
7.84465
 30
0.0
 10
-6.37939
 20
7.84465
 30
0.0
 10
-6.37939
 20
7.94625
 30
0.0
 10
-6.37939
 20
7.94625
 30
0.0
 10
-6.37939
 20
7.94625
 30
0.0
 10
-6.37939
 20
7.94625
 30
0.0
 10
-6.04919
 20
7.89545
 30
0.0
 10
-6.04919
 20
7.89545
 30
0.0
  0
SPLINE
  5
AB
330
1F
100
AcDbEntity
  8
0
370
     9
100
AcDbSpline
210
0.0
220
0.0
230
1.0
 70
    24
 71
     3
 72
     8
 73
     4
 74
     0
 42
0.0000000001
 43
0.0000000001
 40
0.0
 40
0.0
 40
0.0
 40
0.0
 40
1.0
 40
1.0
 40
1.0
 40
1.0
 10
-6.04919
 20
7.89545
 30
0.0
 10
-6.04919
 20
7.89545
 30
0.0
 10
-6.37939
 20
7.84465
 30
0.0
 10
-6.37939
 20
7.84465
 30
0.0
  0
SPLINE
  5
AC
330
1F
100
AcDbEntity
  8
0
370
     9
100
AcDbSpline
210
0.0
220
0.0
230
1.0
 70
     8
 71
     3
 72
    12
 73
     8
 74
     0
 42
0.0000000001
 43
0.0000000001
 40
0.0
 40
0.0
 40
0.0
 40
0.0
 40
0.3333333333333333
 40
0.3333333333333333
 40
0.3333333333333333
 40
0.3333333333333333
 40
1.0
 40
1.0
 40
1.0
 40
1.0
 10
-6.37939
 20
7.84465
 30
0.0
 10
-6.37939
 20
7.84465
 30
0.0
 10
-6.37939
 20
7.94625
 30
0.0
 10
-6.37939
 20
7.94625
 30
0.0
 10
-6.37939
 20
7.94625
 30
0.0
 10
-6.37939
 20
7.94625
 30
0.0
 10
-6.04919
 20
7.89545
 30
0.0
 10
-6.04919
 20
7.89545
 30
0.0
  0
SPLINE
  5
AD
330
1F
100
AcDbEntity
  8
0
370
     9
100
AcDbSpline
210
0.0
220
0.0
230
1.0
 70
    24
 71
     3
 72
     8
 73
     4
 74
     0
 42
0.0000000001
 43
0.0000000001
 40
0.0
 40
0.0
 40
0.0
 40
0.0
 40
1.0
 40
1.0
 40
1.0
 40
1.0
 10
-8.29495
 20
8.79545
 30
0.0
 10
-8.29495
 20
8.79545
 30
0.0
 10
-8.29495
 20
7.79545
 30
0.0
 10
-8.29495
 20
7.79545
 30
0.0
  0
SPLINE
  5
AE
330
1F
100
AcDbEntity
  8
0
370
     9
100
AcDbSpline
210
0.0
220
0.0
230
1.0
 70
    24
 71
     3
 72
     8
 73
     4
 74
     0
 42
0.0000000001
 43
0.0000000001
 40
0.0
 40
0.0
 40
0.0
 40
0.0
 40
1.0
 40
1.0
 40
1.0
 40
1.0
 10
-6.04919
 20
8.79545
 30
0.0
 10
-6.04919
 20
8.79545
 30
0.0
 10
-6.04919
 20
7.79545
 30
0.0
 10
-6.04919
 20
7.79545
 30
0.0
  0
SPLINE
  5
AF
330
1F
100
AcDbEntity
  8
0
370
     9
100
AcDbSpline
210
0.0
220
0.0
230
1.0
 70
    24
 71
     3
 72
     8
 73
     4
 74
     0
 42
0.0000000001
 43
0.0000000001
 40
0.0
 40
0.0
 40
0.0
 40
0.0
 40
1.0
 40
1.0
 40
1.0
 40
1.0
 10
-8.29495
 20
7.89545
 30
0.0
 10
-8.29495
 20
7.89545
 30
0.0
 10
-6.04919
 20
7.89545
 30
0.0
 10
-6.04919
 20
7.89545
 30
0.0
  0
SPLINE
  5
B0
330
1F
100
AcDbEntity
  8
0
100
AcDbSpline
210
0.0
220
0.0
230
1.0
 70
    11
 71
     3
 72
    80
 73
    76
 74
     0
 42
0.0000000001
 43
0.0000000001
 40
0.0
 40
0.0
 40
0.0
 40
0.0
 40
0.05
 40
0.05
 40
0.05
 40
0.05
 40
0.1
 40
0.1
 40
0.1
 40
0.1
 40
0.15
 40
0.15
 40
0.15
 40
0.15
 40
0.2
 40
0.2
 40
0.2
 40
0.2
 40
0.25
 40
0.25
 40
0.25
 40
0.25
 40
0.3
 40
0.3
 40
0.3
 40
0.3
 40
0.35
 40
0.35
 40
0.35
 40
0.35
 40
0.4
 40
0.4
 40
0.4
 40
0.4
 40
0.45
 40
0.45
 40
0.45
 40
0.45
 40
0.5
 40
0.5
 40
0.5
 40
0.5
 40
0.55
 40
0.55
 40
0.55
 40
0.55
 40
0.6
 40
0.6
 40
0.6
 40
0.6
 40
0.65
 40
0.65
 40
0.65
 40
0.65
 40
0.7
 40
0.7
 40
0.7
 40
0.7
 40
0.75
 40
0.75
 40
0.75
 40
0.75
 40
0.8
 40
0.8
 40
0.8
 40
0.8
 40
0.85
 40
0.85
 40
0.85
 40
0.85
 40
0.9
 40
0.9
 40
0.9
 40
0.9
 40
1.0
 40
1.0
 40
1.0
 40
1.0
 10
-7.33106
 20
8.21893
 30
0.0
 10
-7.33106
 20
8.21893
 30
0.0
 10
-7.36162
 20
8.21654
 30
0.0
 10
-7.36162
 20
8.21654
 30
0.0
 10
-7.36162
 20
8.21654
 30
0.0
 10
-7.36436
 20
8.22862
 30
0.0
 10
-7.36821
 20
8.23743
 30
0.0
 10
-7.37323
 20
8.24285
 30
0.0
 10
-7.37323
 20
8.24285
 30
0.0
 10
-7.38157
 20
8.25166
 30
0.0
 10
-7.39184
 20
8.25603
 30
0.0
 10
-7.40403
 20
8.25603
 30
0.0
 10
-7.40403
 20
8.25603
 30
0.0
 10
-7.41383
 20
8.25603
 30
0.0
 10
-7.42241
 20
8.25329
 30
0.0
 10
-7.42981
 20
8.24781
 30
0.0
 10
-7.42981
 20
8.24781
 30
0.0
 10
-7.4395
 20
8.24075
 30
0.0
 10
-7.44714
 20
8.23043
 30
0.0
 10
-7.45274
 20
8.21689
 30
0.0
 10
-7.45274
 20
8.21689
 30
0.0
 10
-7.45828
 20
8.20336
 30
0.0
 10
-7.4612
 20
8.18405
 30
0.0
 10
-7.46143
 20
8.15897
 30
0.0
 10
-7.46143
 20
8.15897
 30
0.0
 10
-7.45402
 20
8.17023
 30
0.0
 10
-7.44498
 20
8.17863
 30
0.0
 10
-7.43425
 20
8.18411
 30
0.0
 10
-7.43425
 20
8.18411
 30
0.0
 10
-7.42357
 20
8.18953
 30
0.0
 10
-7.41231
 20
8.19228
 30
0.0
 10
-7.40059
 20
8.19228
 30
0.0
 10
-7.40059
 20
8.19228
 30
0.0
 10
-7.38006
 20
8.19228
 30
0.0
 10
-7.36261
 20
8.18475
 30
0.0
 10
-7.34821
 20
8.16964
 30
0.0
 10
-7.34821
 20
8.16964
 30
0.0
 10
-7.3338
 20
8.15453
 30
0.0
 10
-7.32656
 20
8.13505
 30
0.0
 10
-7.32656
 20
8.11113
 30
0.0
 10
-7.32656
 20
8.11113
 30
0.0
 10
-7.32656
 20
8.09538
 30
0.0
 10
-7.33001
 20
8.0808
 30
0.0
 10
-7.33677
 20
8.06727
 30
0.0
 10
-7.33677
 20
8.06727
 30
0.0
 10
-7.34354
 20
8.05379
 30
0.0
 10
-7.35287
 20
8.04341
 30
0.0
 10
-7.36471
 20
8.03623
 30
0.0
 10
-7.36471
 20
8.03623
 30
0.0
 10
-7.37656
 20
8.02906
 30
0.0
 10
-7.38997
 20
8.0255
 30
0.0
 10
-7.40502
 20
8.0255
 30
0.0
 10
-7.40502
 20
8.0255
 30
0.0
 10
-7.43069
 20
8.0255
 30
0.0
 10
-7.45157
 20
8.03489
 30
0.0
 10
-7.46773
 20
8.05379
 30
0.0
 10
-7.46773
 20
8.05379
 30
0.0
 10
-7.48395
 20
8.07263
 30
0.0
 10
-7.492
 20
8.10373
 30
0.0
 10
-7.492
 20
8.14701
 30
0.0
 10
-7.492
 20
8.14701
 30
0.0
 10
-7.492
 20
8.19543
 30
0.0
 10
-7.48307
 20
8.2306
 30
0.0
 10
-7.46516
 20
8.25259
 30
0.0
 10
-7.46516
 20
8.25259
 30
0.0
 10
-7.44959
 20
8.27173
 30
0.0
 10
-7.42859
 20
8.28135
 30
0.0
 10
-7.40211
 20
8.28135
 30
0.0
 10
-7.40211
 20
8.28135
 30
0.0
 10
-7.38245
 20
8.28135
 30
0.0
 10
-7.36629
 20
8.27581
 30
0.0
 10
-7.35369
 20
8.26473
 30
0.0
 10
-7.35369
 20
8.26473
 30
0.0
 10
-7.34109
 20
8.2537
 30
0.0
 10
-7.33356
 20
8.23842
 30
0.0
 10
-7.33106
 20
8.21893
 30
0.0
  0
SPLINE
  5
B1
330
1F
100
AcDbEntity
  8
0
100
AcDbSpline
210
0.0
220
0.0
230
1.0
 70
    11
 71
     3
 72
    40
 73
    36
 74
     0
 42
0.0000000001
 43
0.0000000001
 40
0.0
 40
0.0
 40
0.0
 40
0.0
 40
0.1
 40
0.1
 40
0.1
 40
0.1
 40
0.2
 40
0.2
 40
0.2
 40
0.2
 40
0.3
 40
0.3
 40
0.3
 40
0.3
 40
0.4
 40
0.4
 40
0.4
 40
0.4
 40
0.5
 40
0.5
 40
0.5
 40
0.5
 40
0.6
 40
0.6
 40
0.6
 40
0.6
 40
0.7
 40
0.7
 40
0.7
 40
0.7
 40
0.8
 40
0.8
 40
0.8
 40
0.8
 40
1.0
 40
1.0
 40
1.0
 40
1.0
 10
-7.45665
 20
8.11096
 30
0.0
 10
-7.45665
 20
8.10034
 30
0.0
 10
-7.45437
 20
8.09019
 30
0.0
 10
-7.44988
 20
8.08051
 30
0.0
 10
-7.44988
 20
8.08051
 30
0.0
 10
-7.44539
 20
8.07083
 30
0.0
 10
-7.43909
 20
8.06348
 30
0.0
 10
-7.43104
 20
8.0584
 30
0.0
 10
-7.43104
 20
8.0584
 30
0.0
 10
-7.42293
 20
8.05333
 30
0.0
 10
-7.41441
 20
8.05076
 30
0.0
 10
-7.40555
 20
8.05076
 30
0.0
 10
-7.40555
 20
8.05076
 30
0.0
 10
-7.39254
 20
8.05076
 30
0.0
 10
-7.3814
 20
8.05601
 30
0.0
 10
-7.37206
 20
8.06651
 30
0.0
 10
-7.37206
 20
8.06651
 30
0.0
 10
-7.36273
 20
8.07701
 30
0.0
 10
-7.35806
 20
8.09124
 30
0.0
 10
-7.35806
 20
8.10921
 30
0.0
 10
-7.35806
 20
8.10921
 30
0.0
 10
-7.35806
 20
8.12653
 30
0.0
 10
-7.36267
 20
8.14018
 30
0.0
 10
-7.37189
 20
8.15016
 30
0.0
 10
-7.37189
 20
8.15016
 30
0.0
 10
-7.38111
 20
8.16013
 30
0.0
 10
-7.39271
 20
8.16509
 30
0.0
 10
-7.40671
 20
8.16509
 30
0.0
 10
-7.40671
 20
8.16509
 30
0.0
 10
-7.42066
 20
8.16509
 30
0.0
 10
-7.43244
 20
8.16013
 30
0.0
 10
-7.44212
 20
8.15016
 30
0.0
 10
-7.44212
 20
8.15016
 30
0.0
 10
-7.45181
 20
8.14018
 30
0.0
 10
-7.45665
 20
8.12712
 30
0.0
 10
-7.45665
 20
8.11096
 30
0.0
  0
SPLINE
  5
B2
330
1F
100
AcDbEntity
  8
0
100
AcDbSpline
210
0.0
220
0.0
230
1.0
 70
    11
 71
     3
 72
    48
 73
    44
 74
     0
 42
0.0000000001
 43
0.0000000001
 40
0.0
 40
0.0
 40
0.0
 40
0.0
 40
0.0833333333333333
 40
0.0833333333333333
 40
0.0833333333333333
 40
0.0833333333333333
 40
0.1666666666666667
 40
0.1666666666666667
 40
0.1666666666666667
 40
0.1666666666666667
 40
0.25
 40
0.25
 40
0.25
 40
0.25
 40
0.3333333333333333
 40
0.3333333333333333
 40
0.3333333333333333
 40
0.3333333333333333
 40
0.4166666666666667
 40
0.4166666666666667
 40
0.4166666666666667
 40
0.4166666666666667
 40
0.5
 40
0.5
 40
0.5
 40
0.5
 40
0.5833333333333334
 40
0.5833333333333334
 40
0.5833333333333334
 40
0.5833333333333334
 40
0.6666666666666666
 40
0.6666666666666666
 40
0.6666666666666666
 40
0.6666666666666666
 40
0.75
 40
0.75
 40
0.75
 40
0.75
 40
0.8333333333333334
 40
0.8333333333333334
 40
0.8333333333333334
 40
0.8333333333333334
 40
1.0
 40
1.0
 40
1.0
 40
1.0
 10
-7.29395
 20
8.24746
 30
0.0
 10
-7.29395
 20
8.24746
 30
0.0
 10
-7.29395
 20
8.27703
 30
0.0
 10
-7.29395
 20
8.27703
 30
0.0
 10
-7.29395
 20
8.27703
 30
0.0
 10
-7.29395
 20
8.27703
 30
0.0
 10
-7.13179
 20
8.27703
 30
0.0
 10
-7.13179
 20
8.27703
 30
0.0
 10
-7.13179
 20
8.27703
 30
0.0
 10
-7.13179
 20
8.27703
 30
0.0
 10
-7.13179
 20
8.25312
 30
0.0
 10
-7.13179
 20
8.25312
 30
0.0
 10
-7.13179
 20
8.25312
 30
0.0
 10
-7.14771
 20
8.23614
 30
0.0
 10
-7.16352
 20
8.21357
 30
0.0
 10
-7.17921
 20
8.18545
 30
0.0
 10
-7.17921
 20
8.18545
 30
0.0
 10
-7.19485
 20
8.15733
 30
0.0
 10
-7.20698
 20
8.12834
 30
0.0
 10
-7.2155
 20
8.09865
 30
0.0
 10
-7.2155
 20
8.09865
 30
0.0
 10
-7.22168
 20
8.07765
 30
0.0
 10
-7.22559
 20
8.05473
 30
0.0
 10
-7.22728
 20
8.02976
 30
0.0
 10
-7.22728
 20
8.02976
 30
0.0
 10
-7.22728
 20
8.02976
 30
0.0
 10
-7.2589
 20
8.02976
 30
0.0
 10
-7.2589
 20
8.02976
 30
0.0
 10
-7.2589
 20
8.02976
 30
0.0
 10
-7.25855
 20
8.04948
 30
0.0
 10
-7.2547
 20
8.07328
 30
0.0
 10
-7.24729
 20
8.10122
 30
0.0
 10
-7.24729
 20
8.10122
 30
0.0
 10
-7.23988
 20
8.1291
 30
0.0
 10
-7.22926
 20
8.15605
 30
0.0
 10
-7.21544
 20
8.18195
 30
0.0
 10
-7.21544
 20
8.18195
 30
0.0
 10
-7.20155
 20
8.20785
 30
0.0
 10
-7.18685
 20
8.22973
 30
0.0
 10
-7.17122
 20
8.24746
 30
0.0
 10
-7.17122
 20
8.24746
 30
0.0
 10
-7.17122
 20
8.24746
 30
0.0
 10
-7.29395
 20
8.24746
 30
0.0
 10
-7.29395
 20
8.24746
 30
0.0
  0
SPLINE
  5
B3
330
1F
100
AcDbEntity
  8
0
370
    15
100
AcDbSpline
210
0.0
220
0.0
230
1.0
 70
    24
 71
     3
 72
     8
 73
     4
 74
     0
 42
0.0000000001
 43
0.0000000001
 40
0.0
 40
0.0
 40
0.0
 40
0.0
 40
1.0
 40
1.0
 40
1.0
 40
1.0
 10
-3.06605
 20
9.94211
 30
0.0
 10
-3.06605
 20
9.94211
 30
0.0
 10
-3.06605
 20
9.99545
 30
0.0
 10
-3.06605
 20
9.99545
 30
0.0
  0
SPLINE
  5
B4
330
1F
100
AcDbEntity
  8
0
370
    15
100
AcDbSpline
210
0.0
220
0.0
230
1.0
 70
    24
 71
     3
 72
     8
 73
     4
 74
     0
 42
0.0000000001
 43
0.0000000001
 40
0.0
 40
0.0
 40
0.0
 40
0.0
 40
1.0
 40
1.0
 40
1.0
 40
1.0
 10
-3.59938
 20
9.99545
 30
0.0
 10
-3.59938
 20
9.99545
 30
0.0
 10
-3.59938
 20
9.94211
 30
0.0
 10
-3.59938
 20
9.94211
 30
0.0
  0
SPLINE
  5
B5
330
1F
100
AcDbEntity
  8
0
370
    15
100
AcDbSpline
210
0.0
220
0.0
230
1.0
 70
    24
 71
     3
 72
     8
 73
     4
 74
     0
 42
0.0000000001
 43
0.0000000001
 40
0.0
 40
0.0
 40
0.0
 40
0.0
 40
1.0
 40
1.0
 40
1.0
 40
1.0
 10
-3.59938
 20
9.30878
 30
0.0
 10
-3.59938
 20
9.30878
 30
0.0
 10
-3.59938
 20
9.20878
 30
0.0
 10
-3.59938
 20
9.20878
 30
0.0
  0
SPLINE
  5
B6
330
1F
100
AcDbEntity
  8
0
370
    15
100
AcDbSpline
210
0.0
220
0.0
230
1.0
 70
    24
 71
     3
 72
     8
 73
     4
 74
     0
 42
0.0000000001
 43
0.0000000001
 40
0.0
 40
0.0
 40
0.0
 40
0.0
 40
1.0
 40
1.0
 40
1.0
 40
1.0
 10
-3.59938
 20
9.64211
 30
0.0
 10
-3.59938
 20
9.64211
 30
0.0
 10
-3.59938
 20
9.50743
 30
0.0
 10
-3.59938
 20
9.50743
 30
0.0
  0
SPLINE
  5
B7
330
1F
100
AcDbEntity
  8
0
370
    15
100
AcDbSpline
210
0.0
220
0.0
230
1.0
 70
    24
 71
     3
 72
     8
 73
     4
 74
     0
 42
0.0000000001
 43
0.0000000001
 40
0.0
 40
0.0
 40
0.0
 40
0.0
 40
1.0
 40
1.0
 40
1.0
 40
1.0
 10
-3.59938
 20
9.94211
 30
0.0
 10
-3.59938
 20
9.94211
 30
0.0
 10
-3.59938
 20
9.84077
 30
0.0
 10
-3.59938
 20
9.84077
 30
0.0
  0
SPLINE
  5
B8
330
1F
100
AcDbEntity
  8
0
370
    15
100
AcDbSpline
210
0.0
220
0.0
230
1.0
 70
    24
 71
     3
 72
     8
 73
     4
 74
     0
 42
0.0000000001
 43
0.0000000001
 40
0.0
 40
0.0
 40
0.0
 40
0.0
 40
1.0
 40
1.0
 40
1.0
 40
1.0
 10
-3.91002
 20
8.89545
 30
0.0
 10
-3.91002
 20
8.89545
 30
0.0
 10
-3.91002
 20
9.9573
 30
0.0
 10
-3.91002
 20
9.9573
 30
0.0
  0
SPLINE
  5
B9
330
1F
100
AcDbEntity
  8
0
370
    15
100
AcDbSpline
210
0.0
220
0.0
230
1.0
 70
    24
 71
     3
 72
     8
 73
     4
 74
     0
 42
0.0000000001
 43
0.0000000001
 40
0.0
 40
0.0
 40
0.0
 40
0.0
 40
1.0
 40
1.0
 40
1.0
 40
1.0
 10
-3.08272
 20
9.94211
 30
0.0
 10
-3.08272
 20
9.94211
 30
0.0
 10
-3.59938
 20
9.94211
 30
0.0
 10
-3.59938
 20
9.94211
 30
0.0
  0
SPLINE
  5
BA
330
1F
100
AcDbEntity
  8
0
370
    15
100
AcDbSpline
210
0.0
220
0.0
230
1.0
 70
    24
 71
     3
 72
     8
 73
     4
 74
     0
 42
0.0000000001
 43
0.0000000001
 40
0.0
 40
0.0
 40
0.0
 40
0.0
 40
1.0
 40
1.0
 40
1.0
 40
1.0
 10
-3.08272
 20
9.94211
 30
0.0
 10
-3.08272
 20
9.94211
 30
0.0
 10
-3.08272
 20
9.20878
 30
0.0
 10
-3.08272
 20
9.20878
 30
0.0
  0
SPLINE
  5
BB
330
1F
100
AcDbEntity
  8
0
370
    15
100
AcDbSpline
210
0.0
220
0.0
230
1.0
 70
     8
 71
     3
 72
    12
 73
     8
 74
     0
 42
0.0000000001
 43
0.0000000001
 40
0.0
 40
0.0
 40
0.0
 40
0.0
 40
0.3333333333333333
 40
0.3333333333333333
 40
0.3333333333333333
 40
0.3333333333333333
 40
1.0
 40
1.0
 40
1.0
 40
1.0
 10
6.91728
 20
9.80878
 30
0.0
 10
6.91728
 20
9.84414
 30
0.0
 10
6.90324
 20
9.87806
 30
0.0
 10
6.87823
 20
9.90306
 30
0.0
 10
6.87823
 20
9.90306
 30
0.0
 10
6.85323
 20
9.92807
 30
0.0
 10
6.81931
 20
9.94211
 30
0.0
 10
6.78395
 20
9.94211
 30
0.0
  0
SPLINE
  5
BC
330
1F
100
AcDbEntity
  8
0
370
    15
100
AcDbSpline
210
0.0
220
0.0
230
1.0
 70
    24
 71
     3
 72
     8
 73
     4
 74
     0
 42
0.0000000001
 43
0.0000000001
 40
0.0
 40
0.0
 40
0.0
 40
0.0
 40
1.0
 40
1.0
 40
1.0
 40
1.0
 10
6.91728
 20
9.80878
 30
0.0
 10
6.91728
 20
9.80878
 30
0.0
 10
6.91728
 20
9.34211
 30
0.0
 10
6.91728
 20
9.34211
 30
0.0
  0
SPLINE
  5
BD
330
1F
100
AcDbEntity
  8
0
370
    15
100
AcDbSpline
210
0.0
220
0.0
230
1.0
 70
     8
 71
     3
 72
     8
 73
     4
 74
     0
 42
0.0000000001
 43
0.0000000001
 40
0.0
 40
0.0
 40
0.0
 40
0.0
 40
1.0
 40
1.0
 40
1.0
 40
1.0
 10
6.78395
 20
9.20878
 30
0.0
 10
6.85759
 20
9.20878
 30
0.0
 10
6.91728
 20
9.26848
 30
0.0
 10
6.91728
 20
9.34211
 30
0.0
  0
SPLINE
  5
BE
330
1F
100
AcDbEntity
  8
0
370
    15
100
AcDbSpline
210
0.0
220
0.0
230
1.0
 70
    24
 71
     3
 72
     8
 73
     4
 74
     0
 42
0.0000000001
 43
0.0000000001
 40
0.0
 40
0.0
 40
0.0
 40
0.0
 40
1.0
 40
1.0
 40
1.0
 40
1.0
 10
6.78395
 20
9.20878
 30
0.0
 10
6.78395
 20
9.20878
 30
0.0
 10
-3.08272
 20
9.20878
 30
0.0
 10
-3.08272
 20
9.20878
 30
0.0
  0
SPLINE
  5
BF
330
1F
100
AcDbEntity
  8
0
370
    15
100
AcDbSpline
210
0.0
220
0.0
230
1.0
 70
    24
 71
     3
 72
     8
 73
     4
 74
     0
 42
0.0000000001
 43
0.0000000001
 40
0.0
 40
0.0
 40
0.0
 40
0.0
 40
1.0
 40
1.0
 40
1.0
 40
1.0
 10
6.78395
 20
9.94211
 30
0.0
 10
6.78395
 20
9.94211
 30
0.0
 10
-3.08272
 20
9.94211
 30
0.0
 10
-3.08272
 20
9.94211
 30
0.0
  0
SPLINE
  5
C0
330
1F
100
AcDbEntity
  8
0
370
    15
100
AcDbSpline
210
0.0
220
0.0
230
1.0
 70
     8
 71
     3
 72
    44
 73
    40
 74
     0
 42
0.0000000001
 43
0.0000000001
 40
0.0
 40
0.0
 40
0.0
 40
0.0
 40
0.0909090909090909
 40
0.0909090909090909
 40
0.0909090909090909
 40
0.0909090909090909
 40
0.1818181818181818
 40
0.1818181818181818
 40
0.1818181818181818
 40
0.1818181818181818
 40
0.2727272727272727
 40
0.2727272727272727
 40
0.2727272727272727
 40
0.2727272727272727
 40
0.3636363636363636
 40
0.3636363636363636
 40
0.3636363636363636
 40
0.3636363636363636
 40
0.4545454545454545
 40
0.4545454545454545
 40
0.4545454545454545
 40
0.4545454545454545
 40
0.5454545454545454
 40
0.5454545454545454
 40
0.5454545454545454
 40
0.5454545454545454
 40
0.6363636363636364
 40
0.6363636363636364
 40
0.6363636363636364
 40
0.6363636363636364
 40
0.7272727272727273
 40
0.7272727272727273
 40
0.7272727272727273
 40
0.7272727272727273
 40
0.8181818181818182
 40
0.8181818181818182
 40
0.8181818181818182
 40
0.8181818181818182
 40
1.0
 40
1.0
 40
1.0
 40
1.0
 10
-3.59938
 20
9.64211
 30
0.0
 10
-3.59899
 20
9.64315
 30
0.0
 10
-3.59859
 20
9.64418
 30
0.0
 10
-3.59747
 20
9.64732
 30
0.0
 10
-3.59747
 20
9.64732
 30
0.0
 10
-3.59636
 20
9.65046
 30
0.0
 10
-3.59452
 20
9.65572
 30
0.0
 10
-3.59253
 20
9.66217
 30
0.0
 10
-3.59253
 20
9.66217
 30
0.0
 10
-3.59046
 20
9.66888
 30
0.0
 10
-3.58822
 20
9.67689
 30
0.0
 10
-3.58621
 20
9.68602
 30
0.0
 10
-3.58621
 20
9.68602
 30
0.0
 10
-3.58412
 20
9.69548
 30
0.0
 10
-3.58227
 20
9.70615
 30
0.0
 10
-3.58115
 20
9.7174
 30
0.0
 10
-3.58115
 20
9.7174
 30
0.0
 10
-3.58009
 20
9.72818
 30
0.0
 10
-3.57969
 20
9.73949
 30
0.0
 10
-3.58007
 20
9.7506
 30
0.0
 10
-3.58007
 20
9.7506
 30
0.0
 10
-3.58042
 20
9.76106
 30
0.0
 10
-3.58146
 20
9.77133
 30
0.0
 10
-3.58295
 20
9.78092
 30
0.0
 10
-3.58295
 20
9.78092
 30
0.0
 10
-3.58447
 20
9.7907
 30
0.0
 10
-3.58645
 20
9.79977
 30
0.0
 10
-3.58846
 20
9.80765
 30
0.0
 10
-3.58846
 20
9.80765
 30
0.0
 10
-3.59061
 20
9.81607
 30
0.0
 10
-3.5928
 20
9.82314
 30
0.0
 10
-3.59473
 20
9.82894
 30
0.0
 10
-3.59473
 20
9.82894
 30
0.0
 10
-3.59668
 20
9.83482
 30
0.0
 10
-3.59837
 20
9.83939
 30
0.0
 10
-3.59882
 20
9.84061
 30
0.0
 10
-3.59882
 20
9.84061
 30
0.0
 10
-3.59905
 20
9.84122
 30
0.0
 10
-3.59896
 20
9.84099
 30
0.0
 10
-3.59888
 20
9.84077
 30
0.0
  0
SPLINE
  5
C1
330
1F
100
AcDbEntity
  8
0
370
    15
100
AcDbSpline
210
0.0
220
0.0
230
1.0
 70
     8
 71
     3
 72
    44
 73
    40
 74
     0
 42
0.0000000001
 43
0.0000000001
 40
0.0
 40
0.0
 40
0.0
 40
0.0
 40
0.0909090909090909
 40
0.0909090909090909
 40
0.0909090909090909
 40
0.0909090909090909
 40
0.1818181818181818
 40
0.1818181818181818
 40
0.1818181818181818
 40
0.1818181818181818
 40
0.2727272727272727
 40
0.2727272727272727
 40
0.2727272727272727
 40
0.2727272727272727
 40
0.3636363636363636
 40
0.3636363636363636
 40
0.3636363636363636
 40
0.3636363636363636
 40
0.4545454545454545
 40
0.4545454545454545
 40
0.4545454545454545
 40
0.4545454545454545
 40
0.5454545454545454
 40
0.5454545454545454
 40
0.5454545454545454
 40
0.5454545454545454
 40
0.6363636363636364
 40
0.6363636363636364
 40
0.6363636363636364
 40
0.6363636363636364
 40
0.7272727272727273
 40
0.7272727272727273
 40
0.7272727272727273
 40
0.7272727272727273
 40
0.8181818181818182
 40
0.8181818181818182
 40
0.8181818181818182
 40
0.8181818181818182
 40
1.0
 40
1.0
 40
1.0
 40
1.0
 10
-3.59938
 20
9.30878
 30
0.0
 10
-3.59899
 20
9.30981
 30
0.0
 10
-3.59859
 20
9.31084
 30
0.0
 10
-3.59747
 20
9.31399
 30
0.0
 10
-3.59747
 20
9.31399
 30
0.0
 10
-3.59636
 20
9.31713
 30
0.0
 10
-3.59452
 20
9.32238
 30
0.0
 10
-3.59253
 20
9.32884
 30
0.0
 10
-3.59253
 20
9.32884
 30
0.0
 10
-3.59046
 20
9.33555
 30
0.0
 10
-3.58822
 20
9.34356
 30
0.0
 10
-3.58621
 20
9.35268
 30
0.0
 10
-3.58621
 20
9.35268
 30
0.0
 10
-3.58412
 20
9.36215
 30
0.0
 10
-3.58227
 20
9.37282
 30
0.0
 10
-3.58115
 20
9.38407
 30
0.0
 10
-3.58115
 20
9.38407
 30
0.0
 10
-3.58009
 20
9.39485
 30
0.0
 10
-3.57969
 20
9.40616
 30
0.0
 10
-3.58007
 20
9.41727
 30
0.0
 10
-3.58007
 20
9.41727
 30
0.0
 10
-3.58042
 20
9.42772
 30
0.0
 10
-3.58146
 20
9.438
 30
0.0
 10
-3.58295
 20
9.44759
 30
0.0
 10
-3.58295
 20
9.44759
 30
0.0
 10
-3.58447
 20
9.45736
 30
0.0
 10
-3.58645
 20
9.46643
 30
0.0
 10
-3.58846
 20
9.47432
 30
0.0
 10
-3.58846
 20
9.47432
 30
0.0
 10
-3.59061
 20
9.48274
 30
0.0
 10
-3.5928
 20
9.48981
 30
0.0
 10
-3.59473
 20
9.4956
 30
0.0
 10
-3.59473
 20
9.4956
 30
0.0
 10
-3.59668
 20
9.50149
 30
0.0
 10
-3.59837
 20
9.50605
 30
0.0
 10
-3.59882
 20
9.50728
 30
0.0
 10
-3.59882
 20
9.50728
 30
0.0
 10
-3.59905
 20
9.50789
 30
0.0
 10
-3.59896
 20
9.50766
 30
0.0
 10
-3.59888
 20
9.50743
 30
0.0
  0
SPLINE
  5
C2
330
1F
100
AcDbEntity
  8
0
370
    15
100
AcDbSpline
210
0.0
220
0.0
230
1.0
 70
    24
 71
     3
 72
     8
 73
     4
 74
     0
 42
0.0000000001
 43
0.0000000001
 40
0.0
 40
0.0
 40
0.0
 40
0.0
 40
1.0
 40
1.0
 40
1.0
 40
1.0
 10
-3.08272
 20
9.20878
 30
0.0
 10
-3.08272
 20
9.20878
 30
0.0
 10
-3.59938
 20
9.20878
 30
0.0
 10
-3.59938
 20
9.20878
 30
0.0
  0
SPLINE
  5
C3
330
1F
100
AcDbEntity
  8
0
370
    15
100
AcDbSpline
210
0.0
220
0.0
230
1.0
 70
    24
 71
     3
 72
     8
 73
     4
 74
     0
 42
0.0000000001
 43
0.0000000001
 40
0.0
 40
0.0
 40
0.0
 40
0.0
 40
1.0
 40
1.0
 40
1.0
 40
1.0
 10
-4.26938
 20
9.92953
 30
0.0
 10
-4.26938
 20
9.92953
 30
0.0
 10
-4.26938
 20
8.89545
 30
0.0
 10
-4.26938
 20
8.89545
 30
0.0
  0
SPLINE
  5
C4
330
1F
100
AcDbEntity
  8
0
370
    15
100
AcDbSpline
210
0.0
220
0.0
230
1.0
 70
    24
 71
     3
 72
     8
 73
     4
 74
     0
 42
0.0000000001
 43
0.0000000001
 40
0.0
 40
0.0
 40
0.0
 40
0.0
 40
1.0
 40
1.0
 40
1.0
 40
1.0
 10
-4.26938
 20
9.92953
 30
0.0
 10
-4.26938
 20
9.92953
 30
0.0
 10
-4.26605
 20
9.9295
 30
0.0
 10
-4.26605
 20
9.9295
 30
0.0
  0
SPLINE
  5
C5
330
1F
100
AcDbEntity
  8
0
370
    15
100
AcDbSpline
210
0.0
220
0.0
230
1.0
 70
    24
 71
     3
 72
     8
 73
     4
 74
     0
 42
0.0000000001
 43
0.0000000001
 40
0.0
 40
0.0
 40
0.0
 40
0.0
 40
1.0
 40
1.0
 40
1.0
 40
1.0
 10
-4.26938
 20
8.89545
 30
0.0
 10
-4.26938
 20
8.89545
 30
0.0
 10
-4.26605
 20
8.89545
 30
0.0
 10
-4.26605
 20
8.89545
 30
0.0
  0
SPLINE
  5
C6
330
1F
100
AcDbEntity
  8
0
370
    15
100
AcDbSpline
210
0.0
220
0.0
230
1.0
 70
     8
 71
     3
 72
    12
 73
     8
 74
     0
 42
0.0000000001
 43
0.0000000001
 40
0.0
 40
0.0
 40
0.0
 40
0.0
 40
0.3333333333333333
 40
0.3333333333333333
 40
0.3333333333333333
 40
0.3333333333333333
 40
1.0
 40
1.0
 40
1.0
 40
1.0
 10
-3.83272
 20
10.00704
 30
0.0
 10
-3.86231
 20
10.00704
 30
0.0
 10
-3.8907
 20
9.99529
 30
0.0
 10
-3.91162
 20
9.97436
 30
0.0
 10
-3.91162
 20
9.97436
 30
0.0
 10
-3.93255
 20
9.95343
 30
0.0
 10
-3.94431
 20
9.92504
 30
0.0
 10
-3.94431
 20
9.89545
 30
0.0
  0
SPLINE
  5
C7
330
1F
100
AcDbEntity
  8
0
370
    15
100
AcDbSpline
210
0.0
220
0.0
230
1.0
 70
    24
 71
     3
 72
     8
 73
     4
 74
     0
 42
0.0000000001
 43
0.0000000001
 40
0.0
 40
0.0
 40
0.0
 40
0.0
 40
1.0
 40
1.0
 40
1.0
 40
1.0
 10
-4.18779
 20
9.89545
 30
0.0
 10
-4.18779
 20
9.89545
 30
0.0
 10
-3.94431
 20
9.89545
 30
0.0
 10
-3.94431
 20
9.89545
 30
0.0
  0
SPLINE
  5
C8
330
1F
100
AcDbEntity
  8
0
370
    15
100
AcDbSpline
210
0.0
220
0.0
230
1.0
 70
     8
 71
     3
 72
    12
 73
     8
 74
     0
 42
0.0000000001
 43
0.0000000001
 40
0.0
 40
0.0
 40
0.0
 40
0.0
 40
0.3333333333333333
 40
0.3333333333333333
 40
0.3333333333333333
 40
0.3333333333333333
 40
1.0
 40
1.0
 40
1.0
 40
1.0
 10
-3.83272
 20
10.25052
 30
0.0
 10
-3.92689
 20
10.25052
 30
0.0
 10
-4.0172
 20
10.21311
 30
0.0
 10
-4.08379
 20
10.14652
 30
0.0
 10
-4.08379
 20
10.14652
 30
0.0
 10
-4.15038
 20
10.07993
 30
0.0
 10
-4.18779
 20
9.98962
 30
0.0
 10
-4.18779
 20
9.89545
 30
0.0
  0
SPLINE
  5
C9
330
1F
100
AcDbEntity
  8
0
370
    15
100
AcDbSpline
210
0.0
220
0.0
230
1.0
 70
    24
 71
     3
 72
     8
 73
     4
 74
     0
 42
0.0000000001
 43
0.0000000001
 40
0.0
 40
0.0
 40
0.0
 40
0.0
 40
1.0
 40
1.0
 40
1.0
 40
1.0
 10
-3.83272
 20
10.25052
 30
0.0
 10
-3.83272
 20
10.25052
 30
0.0
 10
-3.83272
 20
10.00704
 30
0.0
 10
-3.83272
 20
10.00704
 30
0.0
  0
SPLINE
  5
CA
330
1F
100
AcDbEntity
  8
0
370
    15
100
AcDbSpline
210
0.0
220
0.0
230
1.0
 70
     8
 71
     3
 72
    12
 73
     8
 74
     0
 42
0.0000000001
 43
0.0000000001
 40
0.0
 40
0.0
 40
0.0
 40
0.0
 40
0.3333333333333333
 40
0.3333333333333333
 40
0.3333333333333333
 40
0.3333333333333333
 40
1.0
 40
1.0
 40
1.0
 40
1.0
 10
-3.9438
 20
9.89777
 30
0.0
 10
-3.94394
 20
9.89716
 30
0.0
 10
-3.94408
 20
9.89655
 30
0.0
 10
-3.94421
 20
9.89594
 30
0.0
 10
-3.94421
 20
9.89594
 30
0.0
 10
-3.94424
 20
9.89578
 30
0.0
 10
-3.94428
 20
9.89561
 30
0.0
 10
-3.94431
 20
9.89545
 30
0.0
  0
SPLINE
  5
CB
330
1F
100
AcDbEntity
  8
0
370
    15
100
AcDbSpline
210
0.0
220
0.0
230
1.0
 70
    24
 71
     3
 72
     8
 73
     4
 74
     0
 42
0.0000000001
 43
0.0000000001
 40
0.0
 40
0.0
 40
0.0
 40
0.0
 40
1.0
 40
1.0
 40
1.0
 40
1.0
 10
-3.9438
 20
8.89545
 30
0.0
 10
-3.9438
 20
8.89545
 30
0.0
 10
-3.9438
 20
9.89777
 30
0.0
 10
-3.9438
 20
9.89777
 30
0.0
  0
SPLINE
  5
CC
330
1F
100
AcDbEntity
  8
0
370
    15
100
AcDbSpline
210
0.0
220
0.0
230
1.0
 70
    24
 71
     3
 72
     8
 73
     4
 74
     0
 42
0.0000000001
 43
0.0000000001
 40
0.0
 40
0.0
 40
0.0
 40
0.0
 40
1.0
 40
1.0
 40
1.0
 40
1.0
 10
-4.18779
 20
9.89545
 30
0.0
 10
-4.18779
 20
9.89545
 30
0.0
 10
-4.18779
 20
8.89545
 30
0.0
 10
-4.18779
 20
8.89545
 30
0.0
  0
SPLINE
  5
CD
330
1F
100
AcDbEntity
  8
0
370
    15
100
AcDbSpline
210
0.0
220
0.0
230
1.0
 70
    24
 71
     3
 72
     8
 73
     4
 74
     0
 42
0.0000000001
 43
0.0000000001
 40
0.0
 40
0.0
 40
0.0
 40
0.0
 40
1.0
 40
1.0
 40
1.0
 40
1.0
 10
-4.18779
 20
8.89545
 30
0.0
 10
-4.18779
 20
8.89545
 30
0.0
 10
-3.9438
 20
8.89545
 30
0.0
 10
-3.9438
 20
8.89545
 30
0.0
  0
SPLINE
  5
CE
330
1F
100
AcDbEntity
  8
0
370
    15
100
AcDbSpline
210
0.0
220
0.0
230
1.0
 70
    24
 71
     3
 72
     8
 73
     4
 74
     0
 42
0.0000000001
 43
0.0000000001
 40
0.0
 40
0.0
 40
0.0
 40
0.0
 40
1.0
 40
1.0
 40
1.0
 40
1.0
 10
-3.83272
 20
10.00704
 30
0.0
 10
-3.83272
 20
10.00704
 30
0.0
 10
-3.33272
 20
10.00704
 30
0.0
 10
-3.33272
 20
10.00704
 30
0.0
  0
SPLINE
  5
CF
330
1F
100
AcDbEntity
  8
0
370
    15
100
AcDbSpline
210
0.0
220
0.0
230
1.0
 70
    24
 71
     3
 72
     8
 73
     4
 74
     0
 42
0.0000000001
 43
0.0000000001
 40
0.0
 40
0.0
 40
0.0
 40
0.0
 40
1.0
 40
1.0
 40
1.0
 40
1.0
 10
-3.33272
 20
10.25052
 30
0.0
 10
-3.33272
 20
10.25052
 30
0.0
 10
-3.83272
 20
10.25052
 30
0.0
 10
-3.83272
 20
10.25052
 30
0.0
  0
SPLINE
  5
D0
330
1F
100
AcDbEntity
  8
0
370
    15
100
AcDbSpline
210
0.0
220
0.0
230
1.0
 70
    24
 71
     3
 72
     8
 73
     4
 74
     0
 42
0.0000000001
 43
0.0000000001
 40
0.0
 40
0.0
 40
0.0
 40
0.0
 40
1.0
 40
1.0
 40
1.0
 40
1.0
 10
-3.33272
 20
10.25052
 30
0.0
 10
-3.33272
 20
10.25052
 30
0.0
 10
-3.33272
 20
10.00704
 30
0.0
 10
-3.33272
 20
10.00704
 30
0.0
  0
SPLINE
  5
D1
330
1F
100
AcDbEntity
  8
0
370
    15
100
AcDbSpline
210
0.0
220
0.0
230
1.0
 70
    24
 71
     3
 72
     8
 73
     4
 74
     0
 42
0.0000000001
 43
0.0000000001
 40
0.0
 40
0.0
 40
0.0
 40
0.0
 40
1.0
 40
1.0
 40
1.0
 40
1.0
 10
-3.33272
 20
10.00704
 30
0.0
 10
-3.33272
 20
10.00704
 30
0.0
 10
-3.02881
 20
10.00704
 30
0.0
 10
-3.02881
 20
10.00704
 30
0.0
  0
SPLINE
  5
D2
330
1F
100
AcDbEntity
  8
0
370
    15
100
AcDbSpline
210
0.0
220
0.0
230
1.0
 70
    24
 71
     3
 72
     8
 73
     4
 74
     0
 42
0.0000000001
 43
0.0000000001
 40
0.0
 40
0.0
 40
0.0
 40
0.0
 40
1.0
 40
1.0
 40
1.0
 40
1.0
 10
-3.02881
 20
10.25052
 30
0.0
 10
-3.02881
 20
10.25052
 30
0.0
 10
-3.33272
 20
10.25052
 30
0.0
 10
-3.33272
 20
10.25052
 30
0.0
  0
SPLINE
  5
D3
330
1F
100
AcDbEntity
  8
0
370
    15
100
AcDbSpline
210
0.0
220
0.0
230
1.0
 70
     8
 71
     3
 72
     8
 73
     4
 74
     0
 42
0.0000000001
 43
0.0000000001
 40
0.0
 40
0.0
 40
0.0
 40
0.0
 40
1.0
 40
1.0
 40
1.0
 40
1.0
 10
-3.02881
 20
10.00704
 30
0.0
 10
-3.00351
 20
10.08623
 30
0.0
 10
-3.00351
 20
10.17133
 30
0.0
 10
-3.02881
 20
10.25052
 30
0.0
  0
SPLINE
  5
D4
330
1F
100
AcDbEntity
  8
0
370
    15
100
AcDbSpline
210
0.0
220
0.0
230
1.0
 70
    24
 71
     3
 72
     8
 73
     4
 74
     0
 42
0.0000000001
 43
0.0000000001
 40
0.0
 40
0.0
 40
0.0
 40
0.0
 40
1.0
 40
1.0
 40
1.0
 40
1.0
 10
-3.93225
 20
9.90522
 30
0.0
 10
-3.93225
 20
9.90522
 30
0.0
 10
-3.93225
 20
8.89545
 30
0.0
 10
-3.93225
 20
8.89545
 30
0.0
  0
SPLINE
  5
D5
330
1F
100
AcDbEntity
  8
0
370
    15
100
AcDbSpline
210
0.0
220
0.0
230
1.0
 70
     8
 71
     3
 72
    20
 73
    16
 74
     0
 42
0.0000000001
 43
0.0000000001
 40
0.0
 40
0.0
 40
0.0
 40
0.0
 40
0.2
 40
0.2
 40
0.2
 40
0.2
 40
0.4
 40
0.4
 40
0.4
 40
0.4
 40
0.6
 40
0.6
 40
0.6
 40
0.6
 40
1.0
 40
1.0
 40
1.0
 40
1.0
 10
-3.9438
 20
9.89777
 30
0.0
 10
-3.94359
 20
9.89872
 30
0.0
 10
-3.94322
 20
9.89962
 30
0.0
 10
-3.94269
 20
9.9004
 30
0.0
 10
-3.94269
 20
9.9004
 30
0.0
 10
-3.94215
 20
9.90117
 30
0.0
 10
-3.94145
 20
9.90179
 30
0.0
 10
-3.94072
 20
9.90226
 30
0.0
 10
-3.94072
 20
9.90226
 30
0.0
 10
-3.93925
 20
9.9032
 30
0.0
 10
-3.93772
 20
9.90362
 30
0.0
 10
-3.93646
 20
9.90395
 30
0.0
 10
-3.93646
 20
9.90395
 30
0.0
 10
-3.93393
 20
9.90461
 30
0.0
 10
-3.9324
 20
9.90486
 30
0.0
 10
-3.93225
 20
9.90522
 30
0.0
  0
SPLINE
  5
D6
330
1F
100
AcDbEntity
  8
0
370
    15
100
AcDbSpline
210
0.0
220
0.0
230
1.0
 70
    24
 71
     3
 72
     8
 73
     4
 74
     0
 42
0.0000000001
 43
0.0000000001
 40
0.0
 40
0.0
 40
0.0
 40
0.0
 40
1.0
 40
1.0
 40
1.0
 40
1.0
 10
-3.93225
 20
8.89545
 30
0.0
 10
-3.93225
 20
8.89545
 30
0.0
 10
-3.9438
 20
8.89545
 30
0.0
 10
-3.9438
 20
8.89545
 30
0.0
  0
SPLINE
  5
D7
330
1F
100
AcDbEntity
  8
0
370
    15
100
AcDbSpline
210
0.0
220
0.0
230
1.0
 70
    24
 71
     3
 72
     8
 73
     4
 74
     0
 42
0.0000000001
 43
0.0000000001
 40
0.0
 40
0.0
 40
0.0
 40
0.0
 40
1.0
 40
1.0
 40
1.0
 40
1.0
 10
-3.83272
 20
9.99545
 30
0.0
 10
-3.83272
 20
9.99545
 30
0.0
 10
-3.83272
 20
10.00704
 30
0.0
 10
-3.83272
 20
10.00704
 30
0.0
  0
SPLINE
  5
D8
330
1F
100
AcDbEntity
  8
0
370
    15
100
AcDbSpline
210
0.0
220
0.0
230
1.0
 70
     8
 71
     3
 72
     8
 73
     4
 74
     0
 42
0.0000000001
 43
0.0000000001
 40
0.0
 40
0.0
 40
0.0
 40
0.0
 40
1.0
 40
1.0
 40
1.0
 40
1.0
 10
-3.83272
 20
9.99545
 30
0.0
 10
-3.88411
 20
9.99545
 30
0.0
 10
-3.92713
 20
9.95649
 30
0.0
 10
-3.93222
 20
9.90535
 30
0.0
  0
SPLINE
  5
D9
330
1F
100
AcDbEntity
  8
0
370
    15
100
AcDbSpline
210
0.0
220
0.0
230
1.0
 70
     8
 71
     3
 72
     8
 73
     4
 74
     0
 42
0.0000000001
 43
0.0000000001
 40
0.0
 40
0.0
 40
0.0
 40
0.0
 40
1.0
 40
1.0
 40
1.0
 40
1.0
 10
-3.93222
 20
9.90535
 30
0.0
 10
-3.93223
 20
9.90528
 30
0.0
 10
-3.93224
 20
9.90524
 30
0.0
 10
-3.93225
 20
9.90522
 30
0.0
  0
SPLINE
  5
DA
330
1F
100
AcDbEntity
  8
0
370
    15
100
AcDbSpline
210
0.0
220
0.0
230
1.0
 70
    24
 71
     3
 72
     8
 73
     4
 74
     0
 42
0.0000000001
 43
0.0000000001
 40
0.0
 40
0.0
 40
0.0
 40
0.0
 40
1.0
 40
1.0
 40
1.0
 40
1.0
 10
-4.19938
 20
8.89545
 30
0.0
 10
-4.19938
 20
8.89545
 30
0.0
 10
-4.19938
 20
9.89545
 30
0.0
 10
-4.19938
 20
9.89545
 30
0.0
  0
SPLINE
  5
DB
330
1F
100
AcDbEntity
  8
0
370
    15
100
AcDbSpline
210
0.0
220
0.0
230
1.0
 70
    24
 71
     3
 72
     8
 73
     4
 74
     0
 42
0.0000000001
 43
0.0000000001
 40
0.0
 40
0.0
 40
0.0
 40
0.0
 40
1.0
 40
1.0
 40
1.0
 40
1.0
 10
-4.18779
 20
9.89545
 30
0.0
 10
-4.18779
 20
9.89545
 30
0.0
 10
-4.19938
 20
9.89545
 30
0.0
 10
-4.19938
 20
9.89545
 30
0.0
  0
SPLINE
  5
DC
330
1F
100
AcDbEntity
  8
0
370
    15
100
AcDbSpline
210
0.0
220
0.0
230
1.0
 70
    24
 71
     3
 72
     8
 73
     4
 74
     0
 42
0.0000000001
 43
0.0000000001
 40
0.0
 40
0.0
 40
0.0
 40
0.0
 40
1.0
 40
1.0
 40
1.0
 40
1.0
 10
-4.18779
 20
8.89545
 30
0.0
 10
-4.18779
 20
8.89545
 30
0.0
 10
-4.19938
 20
8.89545
 30
0.0
 10
-4.19938
 20
8.89545
 30
0.0
  0
SPLINE
  5
DD
330
1F
100
AcDbEntity
  8
0
370
    15
100
AcDbSpline
210
0.0
220
0.0
230
1.0
 70
     8
 71
     3
 72
    12
 73
     8
 74
     0
 42
0.0000000001
 43
0.0000000001
 40
0.0
 40
0.0
 40
0.0
 40
0.0
 40
0.3333333333333333
 40
0.3333333333333333
 40
0.3333333333333333
 40
0.3333333333333333
 40
1.0
 40
1.0
 40
1.0
 40
1.0
 10
-3.83272
 20
10.26211
 30
0.0
 10
-3.92996
 20
10.26211
 30
0.0
 10
-4.02322
 20
10.22348
 30
0.0
 10
-4.09199
 20
10.15472
 30
0.0
 10
-4.09199
 20
10.15472
 30
0.0
 10
-4.16075
 20
10.08596
 30
0.0
 10
-4.19938
 20
9.99269
 30
0.0
 10
-4.19938
 20
9.89545
 30
0.0
  0
SPLINE
  5
DE
330
1F
100
AcDbEntity
  8
0
370
    15
100
AcDbSpline
210
0.0
220
0.0
230
1.0
 70
    24
 71
     3
 72
     8
 73
     4
 74
     0
 42
0.0000000001
 43
0.0000000001
 40
0.0
 40
0.0
 40
0.0
 40
0.0
 40
1.0
 40
1.0
 40
1.0
 40
1.0
 10
-3.83272
 20
10.25052
 30
0.0
 10
-3.83272
 20
10.25052
 30
0.0
 10
-3.83272
 20
10.26211
 30
0.0
 10
-3.83272
 20
10.26211
 30
0.0
  0
SPLINE
  5
DF
330
1F
100
AcDbEntity
  8
0
370
    15
100
AcDbSpline
210
0.0
220
0.0
230
1.0
 70
    24
 71
     3
 72
     8
 73
     4
 74
     0
 42
0.0000000001
 43
0.0000000001
 40
0.0
 40
0.0
 40
0.0
 40
0.0
 40
1.0
 40
1.0
 40
1.0
 40
1.0
 10
-3.33272
 20
9.99545
 30
0.0
 10
-3.33272
 20
9.99545
 30
0.0
 10
-3.83272
 20
9.99545
 30
0.0
 10
-3.83272
 20
9.99545
 30
0.0
  0
SPLINE
  5
E0
330
1F
100
AcDbEntity
  8
0
370
    15
100
AcDbSpline
210
0.0
220
0.0
230
1.0
 70
    24
 71
     3
 72
     8
 73
     4
 74
     0
 42
0.0000000001
 43
0.0000000001
 40
0.0
 40
0.0
 40
0.0
 40
0.0
 40
1.0
 40
1.0
 40
1.0
 40
1.0
 10
-3.33272
 20
9.99545
 30
0.0
 10
-3.33272
 20
9.99545
 30
0.0
 10
-3.33272
 20
10.00704
 30
0.0
 10
-3.33272
 20
10.00704
 30
0.0
  0
SPLINE
  5
E1
330
1F
100
AcDbEntity
  8
0
370
    15
100
AcDbSpline
210
0.0
220
0.0
230
1.0
 70
    24
 71
     3
 72
     8
 73
     4
 74
     0
 42
0.0000000001
 43
0.0000000001
 40
0.0
 40
0.0
 40
0.0
 40
0.0
 40
1.0
 40
1.0
 40
1.0
 40
1.0
 10
-3.83272
 20
10.26211
 30
0.0
 10
-3.83272
 20
10.26211
 30
0.0
 10
-3.33272
 20
10.26211
 30
0.0
 10
-3.33272
 20
10.26211
 30
0.0
  0
SPLINE
  5
E2
330
1F
100
AcDbEntity
  8
0
370
    15
100
AcDbSpline
210
0.0
220
0.0
230
1.0
 70
    24
 71
     3
 72
     8
 73
     4
 74
     0
 42
0.0000000001
 43
0.0000000001
 40
0.0
 40
0.0
 40
0.0
 40
0.0
 40
1.0
 40
1.0
 40
1.0
 40
1.0
 10
-3.33272
 20
10.25052
 30
0.0
 10
-3.33272
 20
10.25052
 30
0.0
 10
-3.33272
 20
10.26211
 30
0.0
 10
-3.33272
 20
10.26211
 30
0.0
  0
SPLINE
  5
E3
330
1F
100
AcDbEntity
  8
0
370
    15
100
AcDbSpline
210
0.0
220
0.0
230
1.0
 70
    24
 71
     3
 72
     8
 73
     4
 74
     0
 42
0.0000000001
 43
0.0000000001
 40
0.0
 40
0.0
 40
0.0
 40
0.0
 40
1.0
 40
1.0
 40
1.0
 40
1.0
 10
-3.33272
 20
10.26211
 30
0.0
 10
-3.33272
 20
10.26211
 30
0.0
 10
-3.04469
 20
10.26211
 30
0.0
 10
-3.04469
 20
10.26211
 30
0.0
  0
SPLINE
  5
E4
330
1F
100
AcDbEntity
  8
0
370
    15
100
AcDbSpline
210
0.0
220
0.0
230
1.0
 70
     8
 71
     3
 72
     8
 73
     4
 74
     0
 42
0.0000000001
 43
0.0000000001
 40
0.0
 40
0.0
 40
0.0
 40
0.0
 40
1.0
 40
1.0
 40
1.0
 40
1.0
 10
-3.02881
 20
10.25052
 30
0.0
 10
-3.03102
 20
10.25743
 30
0.0
 10
-3.03744
 20
10.26211
 30
0.0
 10
-3.04469
 20
10.26211
 30
0.0
  0
SPLINE
  5
E5
330
1F
100
AcDbEntity
  8
0
370
    15
100
AcDbSpline
210
0.0
220
0.0
230
1.0
 70
    24
 71
     3
 72
     8
 73
     4
 74
     0
 42
0.0000000001
 43
0.0000000001
 40
0.0
 40
0.0
 40
0.0
 40
0.0
 40
1.0
 40
1.0
 40
1.0
 40
1.0
 10
-3.04469
 20
9.99545
 30
0.0
 10
-3.04469
 20
9.99545
 30
0.0
 10
-3.33272
 20
9.99545
 30
0.0
 10
-3.33272
 20
9.99545
 30
0.0
  0
SPLINE
  5
E6
330
1F
100
AcDbEntity
  8
0
370
    15
100
AcDbSpline
210
0.0
220
0.0
230
1.0
 70
     8
 71
     3
 72
     8
 73
     4
 74
     0
 42
0.0000000001
 43
0.0000000001
 40
0.0
 40
0.0
 40
0.0
 40
0.0
 40
1.0
 40
1.0
 40
1.0
 40
1.0
 10
-3.04469
 20
9.99545
 30
0.0
 10
-3.03744
 20
9.99545
 30
0.0
 10
-3.03102
 20
10.00014
 30
0.0
 10
-3.02881
 20
10.00704
 30
0.0
  0
SPLINE
  5
E7
330
1F
100
AcDbEntity
  8
0
370
    15
100
AcDbSpline
210
0.0
220
0.0
230
1.0
 70
    24
 71
     3
 72
     8
 73
     4
 74
     0
 42
0.0000000001
 43
0.0000000001
 40
0.0
 40
0.0
 40
0.0
 40
0.0
 40
1.0
 40
1.0
 40
1.0
 40
1.0
 10
-3.91002
 20
8.89545
 30
0.0
 10
-3.91002
 20
8.89545
 30
0.0
 10
-3.93225
 20
8.89545
 30
0.0
 10
-3.93225
 20
8.89545
 30
0.0
  0
SPLINE
  5
E8
330
1F
100
AcDbEntity
  8
0
370
    15
100
AcDbSpline
210
0.0
220
0.0
230
1.0
 70
     8
 71
     3
 72
    36
 73
    32
 74
     0
 42
0.0000000001
 43
0.0000000001
 40
0.0
 40
0.0
 40
0.0
 40
0.0
 40
0.1111111111111111
 40
0.1111111111111111
 40
0.1111111111111111
 40
0.1111111111111111
 40
0.2222222222222222
 40
0.2222222222222222
 40
0.2222222222222222
 40
0.2222222222222222
 40
0.3333333333333333
 40
0.3333333333333333
 40
0.3333333333333333
 40
0.3333333333333333
 40
0.4444444444444444
 40
0.4444444444444444
 40
0.4444444444444444
 40
0.4444444444444444
 40
0.5555555555555556
 40
0.5555555555555556
 40
0.5555555555555556
 40
0.5555555555555556
 40
0.6666666666666666
 40
0.6666666666666666
 40
0.6666666666666666
 40
0.6666666666666666
 40
0.7777777777777778
 40
0.7777777777777778
 40
0.7777777777777778
 40
0.7777777777777778
 40
1.0
 40
1.0
 40
1.0
 40
1.0
 10
-4.17542
 20
10.02582
 30
0.0
 10
-4.17542
 20
10.02582
 30
0.0
 10
-4.17557
 20
10.02588
 30
0.0
 10
-4.17557
 20
10.02588
 30
0.0
 10
-4.17557
 20
10.02588
 30
0.0
 10
-4.17557
 20
10.02588
 30
0.0
 10
-4.17602
 20
10.02604
 30
0.0
 10
-4.17602
 20
10.02604
 30
0.0
 10
-4.17602
 20
10.02604
 30
0.0
 10
-4.17602
 20
10.02604
 30
0.0
 10
-4.17673
 20
10.02632
 30
0.0
 10
-4.17673
 20
10.02632
 30
0.0
 10
-4.17673
 20
10.02632
 30
0.0
 10
-4.17673
 20
10.02632
 30
0.0
 10
-4.1777
 20
10.02669
 30
0.0
 10
-4.1777
 20
10.02669
 30
0.0
 10
-4.1777
 20
10.02669
 30
0.0
 10
-4.1777
 20
10.02669
 30
0.0
 10
-4.17888
 20
10.02714
 30
0.0
 10
-4.17888
 20
10.02714
 30
0.0
 10
-4.17888
 20
10.02714
 30
0.0
 10
-4.17888
 20
10.02714
 30
0.0
 10
-4.18023
 20
10.02765
 30
0.0
 10
-4.18023
 20
10.02765
 30
0.0
 10
-4.18023
 20
10.02765
 30
0.0
 10
-4.18023
 20
10.02765
 30
0.0
 10
-4.18169
 20
10.0282
 30
0.0
 10
-4.18169
 20
10.0282
 30
0.0
 10
-4.18169
 20
10.0282
 30
0.0
 10
-4.18169
 20
10.0282
 30
0.0
 10
-4.18321
 20
10.02878
 30
0.0
 10
-4.18321
 20
10.02878
 30
0.0
  0
SPLINE
  5
E9
330
1F
100
AcDbEntity
  8
0
370
    15
100
AcDbSpline
210
0.0
220
0.0
230
1.0
 70
     8
 71
     3
 72
    32
 73
    28
 74
     0
 42
0.0000000001
 43
0.0000000001
 40
0.0
 40
0.0
 40
0.0
 40
0.0
 40
0.125
 40
0.125
 40
0.125
 40
0.125
 40
0.25
 40
0.25
 40
0.25
 40
0.25
 40
0.375
 40
0.375
 40
0.375
 40
0.375
 40
0.5
 40
0.5
 40
0.5
 40
0.5
 40
0.625
 40
0.625
 40
0.625
 40
0.625
 40
0.75
 40
0.75
 40
0.75
 40
0.75
 40
1.0
 40
1.0
 40
1.0
 40
1.0
 10
-4.18321
 20
10.02878
 30
0.0
 10
-4.17773
 20
10.04208
 30
0.0
 10
-4.17156
 20
10.0546
 30
0.0
 10
-4.16488
 20
10.06636
 30
0.0
 10
-4.16488
 20
10.06636
 30
0.0
 10
-4.16154
 20
10.07224
 30
0.0
 10
-4.15816
 20
10.07779
 30
0.0
 10
-4.15478
 20
10.08303
 30
0.0
 10
-4.15478
 20
10.08303
 30
0.0
 10
-4.15139
 20
10.08827
 30
0.0
 10
-4.14797
 20
10.09323
 30
0.0
 10
-4.14466
 20
10.09782
 30
0.0
 10
-4.14466
 20
10.09782
 30
0.0
 10
-4.14135
 20
10.1024
 30
0.0
 10
-4.13816
 20
10.10658
 30
0.0
 10
-4.13518
 20
10.11033
 30
0.0
 10
-4.13518
 20
10.11033
 30
0.0
 10
-4.1322
 20
10.11409
 30
0.0
 10
-4.12943
 20
10.11741
 30
0.0
 10
-4.1271
 20
10.12014
 30
0.0
 10
-4.1271
 20
10.12014
 30
0.0
 10
-4.12476
 20
10.12287
 30
0.0
 10
-4.12281
 20
10.12507
 30
0.0
 10
-4.12149
 20
10.12654
 30
0.0
 10
-4.12149
 20
10.12654
 30
0.0
 10
-4.12017
 20
10.12801
 30
0.0
 10
-4.11946
 20
10.12878
 30
0.0
 10
-4.11946
 20
10.12878
 30
0.0
  0
SPLINE
  5
EA
330
1F
100
AcDbEntity
  8
0
370
    15
100
AcDbSpline
210
0.0
220
0.0
230
1.0
 70
     8
 71
     3
 72
     8
 73
     4
 74
     0
 42
0.0000000001
 43
0.0000000001
 40
0.0
 40
0.0
 40
0.0
 40
0.0
 40
1.0
 40
1.0
 40
1.0
 40
1.0
 10
-4.11946
 20
10.12878
 30
0.0
 10
-4.117
 20
10.12878
 30
0.0
 10
-4.11467
 20
10.12987
 30
0.0
 10
-4.11309
 20
10.13174
 30
0.0
  0
SPLINE
  5
EB
330
1F
100
AcDbEntity
  8
0
370
    15
100
AcDbSpline
210
0.0
220
0.0
230
1.0
 70
    24
 71
     3
 72
     8
 73
     4
 74
     0
 42
0.0000000001
 43
0.0000000001
 40
0.0
 40
0.0
 40
0.0
 40
0.0
 40
1.0
 40
1.0
 40
1.0
 40
1.0
 10
-4.19938
 20
9.89545
 30
0.0
 10
-4.19938
 20
9.89545
 30
0.0
 10
-4.20772
 20
9.89545
 30
0.0
 10
-4.20772
 20
9.89545
 30
0.0
  0
SPLINE
  5
EC
330
1F
100
AcDbEntity
  8
0
370
    15
100
AcDbSpline
210
0.0
220
0.0
230
1.0
 70
     8
 71
     3
 72
     8
 73
     4
 74
     0
 42
0.0000000001
 43
0.0000000001
 40
0.0
 40
0.0
 40
0.0
 40
0.0
 40
1.0
 40
1.0
 40
1.0
 40
1.0
 10
-4.18321
 20
10.02878
 30
0.0
 10
-4.19941
 20
9.98619
 30
0.0
 10
-4.20772
 20
9.94101
 30
0.0
 10
-4.20772
 20
9.89545
 30
0.0
  0
SPLINE
  5
ED
330
1F
100
AcDbEntity
  8
0
370
    15
100
AcDbSpline
210
0.0
220
0.0
230
1.0
 70
    24
 71
     3
 72
     8
 73
     4
 74
     0
 42
0.0000000001
 43
0.0000000001
 40
0.0
 40
0.0
 40
0.0
 40
0.0
 40
1.0
 40
1.0
 40
1.0
 40
1.0
 10
-4.20772
 20
8.89545
 30
0.0
 10
-4.20772
 20
8.89545
 30
0.0
 10
-4.20772
 20
9.89545
 30
0.0
 10
-4.20772
 20
9.89545
 30
0.0
  0
SPLINE
  5
EE
330
1F
100
AcDbEntity
  8
0
370
    15
100
AcDbSpline
210
0.0
220
0.0
230
1.0
 70
    24
 71
     3
 72
     8
 73
     4
 74
     0
 42
0.0000000001
 43
0.0000000001
 40
0.0
 40
0.0
 40
0.0
 40
0.0
 40
1.0
 40
1.0
 40
1.0
 40
1.0
 10
-4.19938
 20
8.89545
 30
0.0
 10
-4.19938
 20
8.89545
 30
0.0
 10
-4.20772
 20
8.89545
 30
0.0
 10
-4.20772
 20
8.89545
 30
0.0
  0
SPLINE
  5
EF
330
1F
100
AcDbEntity
  8
0
370
    15
100
AcDbSpline
210
0.0
220
0.0
230
1.0
 70
    24
 71
     3
 72
     8
 73
     4
 74
     0
 42
0.0000000001
 43
0.0000000001
 40
0.0
 40
0.0
 40
0.0
 40
0.0
 40
1.0
 40
1.0
 40
1.0
 40
1.0
 10
-4.24938
 20
10.12878
 30
0.0
 10
-4.24938
 20
10.12878
 30
0.0
 10
-4.24938
 20
10.02878
 30
0.0
 10
-4.24938
 20
10.02878
 30
0.0
  0
SPLINE
  5
F0
330
1F
100
AcDbEntity
  8
0
370
    15
100
AcDbSpline
210
0.0
220
0.0
230
1.0
 70
    24
 71
     3
 72
     8
 73
     4
 74
     0
 42
0.0000000001
 43
0.0000000001
 40
0.0
 40
0.0
 40
0.0
 40
0.0
 40
1.0
 40
1.0
 40
1.0
 40
1.0
 10
-4.24938
 20
10.02878
 30
0.0
 10
-4.24938
 20
10.02878
 30
0.0
 10
-4.26605
 20
10.02878
 30
0.0
 10
-4.26605
 20
10.02878
 30
0.0
  0
SPLINE
  5
F1
330
1F
100
AcDbEntity
  8
0
370
    15
100
AcDbSpline
210
0.0
220
0.0
230
1.0
 70
    24
 71
     3
 72
     8
 73
     4
 74
     0
 42
0.0000000001
 43
0.0000000001
 40
0.0
 40
0.0
 40
0.0
 40
0.0
 40
1.0
 40
1.0
 40
1.0
 40
1.0
 10
-4.26605
 20
10.02878
 30
0.0
 10
-4.26605
 20
10.02878
 30
0.0
 10
-4.26605
 20
10.11211
 30
0.0
 10
-4.26605
 20
10.11211
 30
0.0
  0
SPLINE
  5
F2
330
1F
100
AcDbEntity
  8
0
370
    15
100
AcDbSpline
210
0.0
220
0.0
230
1.0
 70
     8
 71
     3
 72
    12
 73
     8
 74
     0
 42
0.0000000001
 43
0.0000000001
 40
0.0
 40
0.0
 40
0.0
 40
0.0
 40
0.3333333333333333
 40
0.3333333333333333
 40
0.3333333333333333
 40
0.3333333333333333
 40
1.0
 40
1.0
 40
1.0
 40
1.0
 10
-4.24938
 20
10.12878
 30
0.0
 10
-4.2538
 20
10.12878
 30
0.0
 10
-4.25804
 20
10.12703
 30
0.0
 10
-4.26117
 20
10.1239
 30
0.0
 10
-4.26117
 20
10.1239
 30
0.0
 10
-4.26429
 20
10.12077
 30
0.0
 10
-4.26605
 20
10.11653
 30
0.0
 10
-4.26605
 20
10.11211
 30
0.0
  0
SPLINE
  5
F3
330
1F
100
AcDbEntity
  8
0
370
    15
100
AcDbSpline
210
0.0
220
0.0
230
1.0
 70
    24
 71
     3
 72
     8
 73
     4
 74
     0
 42
0.0000000001
 43
0.0000000001
 40
0.0
 40
0.0
 40
0.0
 40
0.0
 40
1.0
 40
1.0
 40
1.0
 40
1.0
 10
-4.24938
 20
10.02878
 30
0.0
 10
-4.24938
 20
10.02878
 30
0.0
 10
-4.24938
 20
8.89545
 30
0.0
 10
-4.24938
 20
8.89545
 30
0.0
  0
SPLINE
  5
F4
330
1F
100
AcDbEntity
  8
0
370
    15
100
AcDbSpline
210
0.0
220
0.0
230
1.0
 70
    24
 71
     3
 72
     8
 73
     4
 74
     0
 42
0.0000000001
 43
0.0000000001
 40
0.0
 40
0.0
 40
0.0
 40
0.0
 40
1.0
 40
1.0
 40
1.0
 40
1.0
 10
-4.18321
 20
10.02878
 30
0.0
 10
-4.18321
 20
10.02878
 30
0.0
 10
-4.24938
 20
10.02878
 30
0.0
 10
-4.24938
 20
10.02878
 30
0.0
  0
SPLINE
  5
F5
330
1F
100
AcDbEntity
  8
0
370
    15
100
AcDbSpline
210
0.0
220
0.0
230
1.0
 70
    24
 71
     3
 72
     8
 73
     4
 74
     0
 42
0.0000000001
 43
0.0000000001
 40
0.0
 40
0.0
 40
0.0
 40
0.0
 40
1.0
 40
1.0
 40
1.0
 40
1.0
 10
-4.24938
 20
8.89545
 30
0.0
 10
-4.24938
 20
8.89545
 30
0.0
 10
-4.20772
 20
8.89545
 30
0.0
 10
-4.20772
 20
8.89545
 30
0.0
  0
SPLINE
  5
F6
330
1F
100
AcDbEntity
  8
0
370
    15
100
AcDbSpline
210
0.0
220
0.0
230
1.0
 70
    24
 71
     3
 72
     8
 73
     4
 74
     0
 42
0.0000000001
 43
0.0000000001
 40
0.0
 40
0.0
 40
0.0
 40
0.0
 40
1.0
 40
1.0
 40
1.0
 40
1.0
 10
-4.26605
 20
8.89545
 30
0.0
 10
-4.26605
 20
8.89545
 30
0.0
 10
-4.26605
 20
10.02878
 30
0.0
 10
-4.26605
 20
10.02878
 30
0.0
  0
SPLINE
  5
F7
330
1F
100
AcDbEntity
  8
0
370
    15
100
AcDbSpline
210
0.0
220
0.0
230
1.0
 70
    24
 71
     3
 72
     8
 73
     4
 74
     0
 42
0.0000000001
 43
0.0000000001
 40
0.0
 40
0.0
 40
0.0
 40
0.0
 40
1.0
 40
1.0
 40
1.0
 40
1.0
 10
-4.24938
 20
8.89545
 30
0.0
 10
-4.24938
 20
8.89545
 30
0.0
 10
-4.26605
 20
8.89545
 30
0.0
 10
-4.26605
 20
8.89545
 30
0.0
  0
SPLINE
  5
F8
330
1F
100
AcDbEntity
  8
0
370
    15
100
AcDbSpline
210
0.0
220
0.0
230
1.0
 70
    24
 71
     3
 72
     8
 73
     4
 74
     0
 42
0.0000000001
 43
0.0000000001
 40
0.0
 40
0.0
 40
0.0
 40
0.0
 40
1.0
 40
1.0
 40
1.0
 40
1.0
 10
-4.24938
 20
10.12878
 30
0.0
 10
-4.24938
 20
10.12878
 30
0.0
 10
-4.11946
 20
10.12878
 30
0.0
 10
-4.11946
 20
10.12878
 30
0.0
  0
SPLINE
  5
F9
330
1F
100
AcDbEntity
  8
0
100
AcDbSpline
210
0.0
220
0.0
230
1.0
 70
    27
 71
     3
 72
    12
 73
     8
 74
     0
 42
0.0000000001
 43
0.0000000001
 40
0.0
 40
0.0
 40
0.0
 40
0.0
 40
0.3333333333333333
 40
0.3333333333333333
 40
0.3333333333333333
 40
0.3333333333333333
 40
1.0
 40
1.0
 40
1.0
 40
1.0
 10
-4.26605
 20
10.65101
 30
0.0
 10
-4.26605
 20
10.65101
 30
0.0
 10
-3.93585
 20
10.70181
 30
0.0
 10
-3.93585
 20
10.70181
 30
0.0
 10
-3.93585
 20
10.70181
 30
0.0
 10
-3.93585
 20
10.70181
 30
0.0
 10
-4.26605
 20
10.65101
 30
0.0
 10
-4.26605
 20
10.65101
 30
0.0
  0
SPLINE
  5
FA
330
1F
100
AcDbEntity
  8
0
100
AcDbSpline
210
0.0
220
0.0
230
1.0
 70
     8
 71
     3
 72
    12
 73
     8
 74
     0
 42
0.0000000001
 43
0.0000000001
 40
0.0
 40
0.0
 40
0.0
 40
0.0
 40
0.3333333333333333
 40
0.3333333333333333
 40
0.3333333333333333
 40
0.3333333333333333
 40
1.0
 40
1.0
 40
1.0
 40
1.0
 10
-3.93585
 20
10.70181
 30
0.0
 10
-3.93585
 20
10.70181
 30
0.0
 10
-3.93585
 20
10.60021
 30
0.0
 10
-3.93585
 20
10.60021
 30
0.0
 10
-3.93585
 20
10.60021
 30
0.0
 10
-3.93585
 20
10.60021
 30
0.0
 10
-4.26605
 20
10.65101
 30
0.0
 10
-4.26605
 20
10.65101
 30
0.0
  0
SPLINE
  5
FB
330
1F
100
AcDbEntity
  8
0
370
     9
100
AcDbSpline
210
0.0
220
0.0
230
1.0
 70
    24
 71
     3
 72
     8
 73
     4
 74
     0
 42
0.0000000001
 43
0.0000000001
 40
0.0
 40
0.0
 40
0.0
 40
0.0
 40
1.0
 40
1.0
 40
1.0
 40
1.0
 10
-4.26605
 20
10.65101
 30
0.0
 10
-4.26605
 20
10.65101
 30
0.0
 10
-3.93585
 20
10.70181
 30
0.0
 10
-3.93585
 20
10.70181
 30
0.0
  0
SPLINE
  5
FC
330
1F
100
AcDbEntity
  8
0
370
     9
100
AcDbSpline
210
0.0
220
0.0
230
1.0
 70
     8
 71
     3
 72
    12
 73
     8
 74
     0
 42
0.0000000001
 43
0.0000000001
 40
0.0
 40
0.0
 40
0.0
 40
0.0
 40
0.3333333333333333
 40
0.3333333333333333
 40
0.3333333333333333
 40
0.3333333333333333
 40
1.0
 40
1.0
 40
1.0
 40
1.0
 10
-3.93585
 20
10.70181
 30
0.0
 10
-3.93585
 20
10.70181
 30
0.0
 10
-3.93585
 20
10.60021
 30
0.0
 10
-3.93585
 20
10.60021
 30
0.0
 10
-3.93585
 20
10.60021
 30
0.0
 10
-3.93585
 20
10.60021
 30
0.0
 10
-4.26605
 20
10.65101
 30
0.0
 10
-4.26605
 20
10.65101
 30
0.0
  0
SPLINE
  5
FD
330
1F
100
AcDbEntity
  8
0
100
AcDbSpline
210
0.0
220
0.0
230
1.0
 70
    27
 71
     3
 72
    12
 73
     8
 74
     0
 42
0.0000000001
 43
0.0000000001
 40
0.0
 40
0.0
 40
0.0
 40
0.0
 40
0.3333333333333333
 40
0.3333333333333333
 40
0.3333333333333333
 40
0.3333333333333333
 40
1.0
 40
1.0
 40
1.0
 40
1.0
 10
6.91728
 20
10.65101
 30
0.0
 10
6.91728
 20
10.65101
 30
0.0
 10
6.58708
 20
10.60021
 30
0.0
 10
6.58708
 20
10.60021
 30
0.0
 10
6.58708
 20
10.60021
 30
0.0
 10
6.58708
 20
10.60021
 30
0.0
 10
6.91728
 20
10.65101
 30
0.0
 10
6.91728
 20
10.65101
 30
0.0
  0
SPLINE
  5
FE
330
1F
100
AcDbEntity
  8
0
100
AcDbSpline
210
0.0
220
0.0
230
1.0
 70
     8
 71
     3
 72
    12
 73
     8
 74
     0
 42
0.0000000001
 43
0.0000000001
 40
0.0
 40
0.0
 40
0.0
 40
0.0
 40
0.3333333333333333
 40
0.3333333333333333
 40
0.3333333333333333
 40
0.3333333333333333
 40
1.0
 40
1.0
 40
1.0
 40
1.0
 10
6.58708
 20
10.60021
 30
0.0
 10
6.58708
 20
10.60021
 30
0.0
 10
6.58708
 20
10.70181
 30
0.0
 10
6.58708
 20
10.70181
 30
0.0
 10
6.58708
 20
10.70181
 30
0.0
 10
6.58708
 20
10.70181
 30
0.0
 10
6.91728
 20
10.65101
 30
0.0
 10
6.91728
 20
10.65101
 30
0.0
  0
SPLINE
  5
FF
330
1F
100
AcDbEntity
  8
0
370
     9
100
AcDbSpline
210
0.0
220
0.0
230
1.0
 70
    24
 71
     3
 72
     8
 73
     4
 74
     0
 42
0.0000000001
 43
0.0000000001
 40
0.0
 40
0.0
 40
0.0
 40
0.0
 40
1.0
 40
1.0
 40
1.0
 40
1.0
 10
6.91728
 20
10.65101
 30
0.0
 10
6.91728
 20
10.65101
 30
0.0
 10
6.58708
 20
10.60021
 30
0.0
 10
6.58708
 20
10.60021
 30
0.0
  0
SPLINE
  5
100
330
1F
100
AcDbEntity
  8
0
370
     9
100
AcDbSpline
210
0.0
220
0.0
230
1.0
 70
     8
 71
     3
 72
    12
 73
     8
 74
     0
 42
0.0000000001
 43
0.0000000001
 40
0.0
 40
0.0
 40
0.0
 40
0.0
 40
0.3333333333333333
 40
0.3333333333333333
 40
0.3333333333333333
 40
0.3333333333333333
 40
1.0
 40
1.0
 40
1.0
 40
1.0
 10
6.58708
 20
10.60021
 30
0.0
 10
6.58708
 20
10.60021
 30
0.0
 10
6.58708
 20
10.70181
 30
0.0
 10
6.58708
 20
10.70181
 30
0.0
 10
6.58708
 20
10.70181
 30
0.0
 10
6.58708
 20
10.70181
 30
0.0
 10
6.91728
 20
10.65101
 30
0.0
 10
6.91728
 20
10.65101
 30
0.0
  0
SPLINE
  5
101
330
1F
100
AcDbEntity
  8
0
370
     9
100
AcDbSpline
210
0.0
220
0.0
230
1.0
 70
    24
 71
     3
 72
     8
 73
     4
 74
     0
 42
0.0000000001
 43
0.0000000001
 40
0.0
 40
0.0
 40
0.0
 40
0.0
 40
1.0
 40
1.0
 40
1.0
 40
1.0
 10
-4.26605
 20
10.12878
 30
0.0
 10
-4.26605
 20
10.12878
 30
0.0
 10
-4.26605
 20
10.75101
 30
0.0
 10
-4.26605
 20
10.75101
 30
0.0
  0
SPLINE
  5
102
330
1F
100
AcDbEntity
  8
0
370
     9
100
AcDbSpline
210
0.0
220
0.0
230
1.0
 70
    24
 71
     3
 72
     8
 73
     4
 74
     0
 42
0.0000000001
 43
0.0000000001
 40
0.0
 40
0.0
 40
0.0
 40
0.0
 40
1.0
 40
1.0
 40
1.0
 40
1.0
 10
6.91728
 20
9.90878
 30
0.0
 10
6.91728
 20
9.90878
 30
0.0
 10
6.91728
 20
10.75101
 30
0.0
 10
6.91728
 20
10.75101
 30
0.0
  0
SPLINE
  5
103
330
1F
100
AcDbEntity
  8
0
370
     9
100
AcDbSpline
210
0.0
220
0.0
230
1.0
 70
    24
 71
     3
 72
     8
 73
     4
 74
     0
 42
0.0000000001
 43
0.0000000001
 40
0.0
 40
0.0
 40
0.0
 40
0.0
 40
1.0
 40
1.0
 40
1.0
 40
1.0
 10
-4.26605
 20
10.65101
 30
0.0
 10
-4.26605
 20
10.65101
 30
0.0
 10
6.91728
 20
10.65101
 30
0.0
 10
6.91728
 20
10.65101
 30
0.0
  0
SPLINE
  5
104
330
1F
100
AcDbEntity
  8
0
100
AcDbSpline
210
0.0
220
0.0
230
1.0
 70
    11
 71
     3
 72
   124
 73
   120
 74
     0
 42
0.0000000001
 43
0.0000000001
 40
0.0
 40
0.0
 40
0.0
 40
0.0
 40
0.032258064516129
 40
0.032258064516129
 40
0.032258064516129
 40
0.032258064516129
 40
0.0645161290322581
 40
0.0645161290322581
 40
0.0645161290322581
 40
0.0645161290322581
 40
0.0967741935483871
 40
0.0967741935483871
 40
0.0967741935483871
 40
0.0967741935483871
 40
0.1290322580645161
 40
0.1290322580645161
 40
0.1290322580645161
 40
0.1290322580645161
 40
0.1612903225806452
 40
0.1612903225806452
 40
0.1612903225806452
 40
0.1612903225806452
 40
0.1935483870967742
 40
0.1935483870967742
 40
0.1935483870967742
 40
0.1935483870967742
 40
0.2258064516129032
 40
0.2258064516129032
 40
0.2258064516129032
 40
0.2258064516129032
 40
0.2580645161290323
 40
0.2580645161290323
 40
0.2580645161290323
 40
0.2580645161290323
 40
0.2903225806451613
 40
0.2903225806451613
 40
0.2903225806451613
 40
0.2903225806451613
 40
0.3225806451612903
 40
0.3225806451612903
 40
0.3225806451612903
 40
0.3225806451612903
 40
0.3548387096774194
 40
0.3548387096774194
 40
0.3548387096774194
 40
0.3548387096774194
 40
0.3870967741935484
 40
0.3870967741935484
 40
0.3870967741935484
 40
0.3870967741935484
 40
0.4193548387096774
 40
0.4193548387096774
 40
0.4193548387096774
 40
0.4193548387096774
 40
0.4516129032258064
 40
0.4516129032258064
 40
0.4516129032258064
 40
0.4516129032258064
 40
0.4838709677419355
 40
0.4838709677419355
 40
0.4838709677419355
 40
0.4838709677419355
 40
0.5161290322580645
 40
0.5161290322580645
 40
0.5161290322580645
 40
0.5161290322580645
 40
0.5483870967741935
 40
0.5483870967741935
 40
0.5483870967741935
 40
0.5483870967741935
 40
0.5806451612903226
 40
0.5806451612903226
 40
0.5806451612903226
 40
0.5806451612903226
 40
0.6129032258064516
 40
0.6129032258064516
 40
0.6129032258064516
 40
0.6129032258064516
 40
0.6451612903225806
 40
0.6451612903225806
 40
0.6451612903225806
 40
0.6451612903225806
 40
0.6774193548387096
 40
0.6774193548387096
 40
0.6774193548387096
 40
0.6774193548387096
 40
0.7096774193548387
 40
0.7096774193548387
 40
0.7096774193548387
 40
0.7096774193548387
 40
0.7419354838709677
 40
0.7419354838709677
 40
0.7419354838709677
 40
0.7419354838709677
 40
0.7741935483870968
 40
0.7741935483870968
 40
0.7741935483870968
 40
0.7741935483870968
 40
0.8064516129032258
 40
0.8064516129032258
 40
0.8064516129032258
 40
0.8064516129032258
 40
0.8387096774193549
 40
0.8387096774193549
 40
0.8387096774193549
 40
0.8387096774193549
 40
0.8709677419354839
 40
0.8709677419354839
 40
0.8709677419354839
 40
0.8709677419354839
 40
0.9032258064516129
 40
0.9032258064516129
 40
0.9032258064516129
 40
0.9032258064516129
 40
0.9354838709677419
 40
0.9354838709677419
 40
0.9354838709677419
 40
0.9354838709677419
 40
1.0
 40
1.0
 40
1.0
 40
1.0
 10
1.15884
 20
10.85146
 30
0.0
 10
1.15884
 20
10.85146
 30
0.0
 10
1.18958
 20
10.85554
 30
0.0
 10
1.18958
 20
10.85554
 30
0.0
 10
1.18958
 20
10.85554
 30
0.0
 10
1.19314
 20
10.8381
 30
0.0
 10
1.19915
 20
10.82556
 30
0.0
 10
1.20761
 20
10.81786
 30
0.0
 10
1.20761
 20
10.81786
 30
0.0
 10
1.21612
 20
10.81016
 30
0.0
 10
1.22645
 20
10.80631
 30
0.0
 10
1.23864
 20
10.80631
 30
0.0
 10
1.23864
 20
10.80631
 30
0.0
 10
1.25311
 20
10.80631
 30
0.0
 10
1.26536
 20
10.81133
 30
0.0
 10
1.27533
 20
10.82136
 30
0.0
 10
1.27533
 20
10.82136
 30
0.0
 10
1.28525
 20
10.83139
 30
0.0
 10
1.29026
 20
10.84382
 30
0.0
 10
1.29026
 20
10.85863
 30
0.0
 10
1.29026
 20
10.85863
 30
0.0
 10
1.29026
 20
10.87275
 30
0.0
 10
1.28566
 20
10.88442
 30
0.0
 10
1.27644
 20
10.89358
 30
0.0
 10
1.27644
 20
10.89358
 30
0.0
 10
1.26716
 20
10.90273
 30
0.0
 10
1.25544
 20
10.90734
 30
0.0
 10
1.24121
 20
10.90734
 30
0.0
 10
1.24121
 20
10.90734
 30
0.0
 10
1.23537
 20
10.90734
 30
0.0
 10
1.22814
 20
10.90618
 30
0.0
 10
1.21951
 20
10.9039
 30
0.0
 10
1.21951
 20
10.9039
 30
0.0
 10
1.21951
 20
10.9039
 30
0.0
 10
1.22295
 20
10.93091
 30
0.0
 10
1.22295
 20
10.93091
 30
0.0
 10
1.22295
 20
10.93091
 30
0.0
 10
1.22499
 20
10.93068
 30
0.0
 10
1.22662
 20
10.93056
 30
0.0
 10
1.22791
 20
10.93056
 30
0.0
 10
1.22791
 20
10.93056
 30
0.0
 10
1.24097
 20
10.93056
 30
0.0
 10
1.25276
 20
10.934
 30
0.0
 10
1.26326
 20
10.94083
 30
0.0
 10
1.26326
 20
10.94083
 30
0.0
 10
1.27376
 20
10.94765
 30
0.0
 10
1.27901
 20
10.95821
 30
0.0
 10
1.27901
 20
10.97244
 30
0.0
 10
1.27901
 20
10.97244
 30
0.0
 10
1.27901
 20
10.9837
 30
0.0
 10
1.27516
 20
10.99309
 30
0.0
 10
1.26751
 20
11.00044
 30
0.0
 10
1.26751
 20
11.00044
 30
0.0
 10
1.25987
 20
11.00785
 30
0.0
 10
1.25001
 20
11.01158
 30
0.0
 10
1.23794
 20
11.01158
 30
0.0
 10
1.23794
 20
11.01158
 30
0.0
 10
1.22598
 20
11.01158
 30
0.0
 10
1.21601
 20
11.00779
 30
0.0
 10
1.20807
 20
11.00033
 30
0.0
 10
1.20807
 20
11.00033
 30
0.0
 10
1.20008
 20
10.9928
 30
0.0
 10
1.19495
 20
10.98148
 30
0.0
 10
1.19267
 20
10.96643
 30
0.0
 10
1.19267
 20
10.96643
 30
0.0
 10
1.19267
 20
10.96643
 30
0.0
 10
1.16193
 20
10.97192
 30
0.0
 10
1.16193
 20
10.97192
 30
0.0
 10
1.16193
 20
10.97192
 30
0.0
 10
1.16566
 20
10.99257
 30
0.0
 10
1.17424
 20
11.00855
 30
0.0
 10
1.18754
 20
11.01987
 30
0.0
 10
1.18754
 20
11.01987
 30
0.0
 10
1.2009
 20
11.03118
 30
0.0
 10
1.21746
 20
11.0369
 30
0.0
 10
1.2373
 20
11.0369
 30
0.0
 10
1.2373
 20
11.0369
 30
0.0
 10
1.25095
 20
11.0369
 30
0.0
 10
1.26355
 20
11.03393
 30
0.0
 10
1.27504
 20
11.02809
 30
0.0
 10
1.27504
 20
11.02809
 30
0.0
 10
1.28653
 20
11.0222
 30
0.0
 10
1.29534
 20
11.01421
 30
0.0
 10
1.30146
 20
11.00406
 30
0.0
 10
1.30146
 20
11.00406
 30
0.0
 10
1.30753
 20
10.99391
 30
0.0
 10
1.31062
 20
10.98318
 30
0.0
 10
1.31062
 20
10.97174
 30
0.0
 10
1.31062
 20
10.97174
 30
0.0
 10
1.31062
 20
10.96095
 30
0.0
 10
1.30771
 20
10.95109
 30
0.0
 10
1.30187
 20
10.94217
 30
0.0
 10
1.30187
 20
10.94217
 30
0.0
 10
1.29604
 20
10.9333
 30
0.0
 10
1.28746
 20
10.92624
 30
0.0
 10
1.27609
 20
10.92099
 30
0.0
 10
1.27609
 20
10.92099
 30
0.0
 10
1.29091
 20
10.91761
 30
0.0
 10
1.3024
 20
10.91049
 30
0.0
 10
1.31062
 20
10.8997
 30
0.0
 10
1.31062
 20
10.8997
 30
0.0
 10
1.31879
 20
10.88897
 30
0.0
 10
1.32287
 20
10.87549
 30
0.0
 10
1.32287
 20
10.85933
 30
0.0
 10
1.32287
 20
10.85933
 30
0.0
 10
1.32287
 20
10.83746
 30
0.0
 10
1.31494
 20
10.81891
 30
0.0
 10
1.29896
 20
10.80368
 30
0.0
 10
1.29896
 20
10.80368
 30
0.0
 10
1.28303
 20
10.78846
 30
0.0
 10
1.26285
 20
10.78088
 30
0.0
 10
1.23846
 20
10.78088
 30
0.0
 10
1.23846
 20
10.78088
 30
0.0
 10
1.21647
 20
10.78088
 30
0.0
 10
1.19821
 20
10.78741
 30
0.0
 10
1.18369
 20
10.80053
 30
0.0
 10
1.18369
 20
10.80053
 30
0.0
 10
1.16916
 20
10.8136
 30
0.0
 10
1.16088
 20
10.83058
 30
0.0
 10
1.15884
 20
10.85146
 30
0.0
  0
SPLINE
  5
105
330
1F
100
AcDbEntity
  8
0
100
AcDbSpline
210
0.0
220
0.0
230
1.0
 70
    11
 71
     3
 72
   124
 73
   120
 74
     0
 42
0.0000000001
 43
0.0000000001
 40
0.0
 40
0.0
 40
0.0
 40
0.0
 40
0.032258064516129
 40
0.032258064516129
 40
0.032258064516129
 40
0.032258064516129
 40
0.0645161290322581
 40
0.0645161290322581
 40
0.0645161290322581
 40
0.0645161290322581
 40
0.0967741935483871
 40
0.0967741935483871
 40
0.0967741935483871
 40
0.0967741935483871
 40
0.1290322580645161
 40
0.1290322580645161
 40
0.1290322580645161
 40
0.1290322580645161
 40
0.1612903225806452
 40
0.1612903225806452
 40
0.1612903225806452
 40
0.1612903225806452
 40
0.1935483870967742
 40
0.1935483870967742
 40
0.1935483870967742
 40
0.1935483870967742
 40
0.2258064516129032
 40
0.2258064516129032
 40
0.2258064516129032
 40
0.2258064516129032
 40
0.2580645161290323
 40
0.2580645161290323
 40
0.2580645161290323
 40
0.2580645161290323
 40
0.2903225806451613
 40
0.2903225806451613
 40
0.2903225806451613
 40
0.2903225806451613
 40
0.3225806451612903
 40
0.3225806451612903
 40
0.3225806451612903
 40
0.3225806451612903
 40
0.3548387096774194
 40
0.3548387096774194
 40
0.3548387096774194
 40
0.3548387096774194
 40
0.3870967741935484
 40
0.3870967741935484
 40
0.3870967741935484
 40
0.3870967741935484
 40
0.4193548387096774
 40
0.4193548387096774
 40
0.4193548387096774
 40
0.4193548387096774
 40
0.4516129032258064
 40
0.4516129032258064
 40
0.4516129032258064
 40
0.4516129032258064
 40
0.4838709677419355
 40
0.4838709677419355
 40
0.4838709677419355
 40
0.4838709677419355
 40
0.5161290322580645
 40
0.5161290322580645
 40
0.5161290322580645
 40
0.5161290322580645
 40
0.5483870967741935
 40
0.5483870967741935
 40
0.5483870967741935
 40
0.5483870967741935
 40
0.5806451612903226
 40
0.5806451612903226
 40
0.5806451612903226
 40
0.5806451612903226
 40
0.6129032258064516
 40
0.6129032258064516
 40
0.6129032258064516
 40
0.6129032258064516
 40
0.6451612903225806
 40
0.6451612903225806
 40
0.6451612903225806
 40
0.6451612903225806
 40
0.6774193548387096
 40
0.6774193548387096
 40
0.6774193548387096
 40
0.6774193548387096
 40
0.7096774193548387
 40
0.7096774193548387
 40
0.7096774193548387
 40
0.7096774193548387
 40
0.7419354838709677
 40
0.7419354838709677
 40
0.7419354838709677
 40
0.7419354838709677
 40
0.7741935483870968
 40
0.7741935483870968
 40
0.7741935483870968
 40
0.7741935483870968
 40
0.8064516129032258
 40
0.8064516129032258
 40
0.8064516129032258
 40
0.8064516129032258
 40
0.8387096774193549
 40
0.8387096774193549
 40
0.8387096774193549
 40
0.8387096774193549
 40
0.8709677419354839
 40
0.8709677419354839
 40
0.8709677419354839
 40
0.8709677419354839
 40
0.9032258064516129
 40
0.9032258064516129
 40
0.9032258064516129
 40
0.9032258064516129
 40
0.9354838709677419
 40
0.9354838709677419
 40
0.9354838709677419
 40
0.9354838709677419
 40
1.0
 40
1.0
 40
1.0
 40
1.0
 10
1.3535
 20
10.85146
 30
0.0
 10
1.3535
 20
10.85146
 30
0.0
 10
1.38424
 20
10.85554
 30
0.0
 10
1.38424
 20
10.85554
 30
0.0
 10
1.38424
 20
10.85554
 30
0.0
 10
1.3878
 20
10.8381
 30
0.0
 10
1.39381
 20
10.82556
 30
0.0
 10
1.40227
 20
10.81786
 30
0.0
 10
1.40227
 20
10.81786
 30
0.0
 10
1.41078
 20
10.81016
 30
0.0
 10
1.42111
 20
10.80631
 30
0.0
 10
1.4333
 20
10.80631
 30
0.0
 10
1.4333
 20
10.80631
 30
0.0
 10
1.44777
 20
10.80631
 30
0.0
 10
1.46002
 20
10.81133
 30
0.0
 10
1.46999
 20
10.82136
 30
0.0
 10
1.46999
 20
10.82136
 30
0.0
 10
1.47991
 20
10.83139
 30
0.0
 10
1.48492
 20
10.84382
 30
0.0
 10
1.48492
 20
10.85863
 30
0.0
 10
1.48492
 20
10.85863
 30
0.0
 10
1.48492
 20
10.87275
 30
0.0
 10
1.48032
 20
10.88442
 30
0.0
 10
1.4711
 20
10.89358
 30
0.0
 10
1.4711
 20
10.89358
 30
0.0
 10
1.46182
 20
10.90273
 30
0.0
 10
1.4501
 20
10.90734
 30
0.0
 10
1.43587
 20
10.90734
 30
0.0
 10
1.43587
 20
10.90734
 30
0.0
 10
1.43003
 20
10.90734
 30
0.0
 10
1.4228
 20
10.90618
 30
0.0
 10
1.41417
 20
10.9039
 30
0.0
 10
1.41417
 20
10.9039
 30
0.0
 10
1.41417
 20
10.9039
 30
0.0
 10
1.41761
 20
10.93091
 30
0.0
 10
1.41761
 20
10.93091
 30
0.0
 10
1.41761
 20
10.93091
 30
0.0
 10
1.41965
 20
10.93068
 30
0.0
 10
1.42128
 20
10.93056
 30
0.0
 10
1.42257
 20
10.93056
 30
0.0
 10
1.42257
 20
10.93056
 30
0.0
 10
1.43563
 20
10.93056
 30
0.0
 10
1.44742
 20
10.934
 30
0.0
 10
1.45792
 20
10.94083
 30
0.0
 10
1.45792
 20
10.94083
 30
0.0
 10
1.46842
 20
10.94765
 30
0.0
 10
1.47367
 20
10.95821
 30
0.0
 10
1.47367
 20
10.97244
 30
0.0
 10
1.47367
 20
10.97244
 30
0.0
 10
1.47367
 20
10.9837
 30
0.0
 10
1.46982
 20
10.99309
 30
0.0
 10
1.46217
 20
11.00044
 30
0.0
 10
1.46217
 20
11.00044
 30
0.0
 10
1.45453
 20
11.00785
 30
0.0
 10
1.44467
 20
11.01158
 30
0.0
 10
1.4326
 20
11.01158
 30
0.0
 10
1.4326
 20
11.01158
 30
0.0
 10
1.42064
 20
11.01158
 30
0.0
 10
1.41067
 20
11.00779
 30
0.0
 10
1.40273
 20
11.00033
 30
0.0
 10
1.40273
 20
11.00033
 30
0.0
 10
1.39474
 20
10.9928
 30
0.0
 10
1.38961
 20
10.98148
 30
0.0
 10
1.38733
 20
10.96643
 30
0.0
 10
1.38733
 20
10.96643
 30
0.0
 10
1.38733
 20
10.96643
 30
0.0
 10
1.35659
 20
10.97192
 30
0.0
 10
1.35659
 20
10.97192
 30
0.0
 10
1.35659
 20
10.97192
 30
0.0
 10
1.36032
 20
10.99257
 30
0.0
 10
1.3689
 20
11.00855
 30
0.0
 10
1.3822
 20
11.01987
 30
0.0
 10
1.3822
 20
11.01987
 30
0.0
 10
1.39556
 20
11.03118
 30
0.0
 10
1.41212
 20
11.0369
 30
0.0
 10
1.43196
 20
11.0369
 30
0.0
 10
1.43196
 20
11.0369
 30
0.0
 10
1.44561
 20
11.0369
 30
0.0
 10
1.45821
 20
11.03393
 30
0.0
 10
1.4697
 20
11.02809
 30
0.0
 10
1.4697
 20
11.02809
 30
0.0
 10
1.48119
 20
11.0222
 30
0.0
 10
1.49
 20
11.01421
 30
0.0
 10
1.49612
 20
11.00406
 30
0.0
 10
1.49612
 20
11.00406
 30
0.0
 10
1.50219
 20
10.99391
 30
0.0
 10
1.50528
 20
10.98318
 30
0.0
 10
1.50528
 20
10.97174
 30
0.0
 10
1.50528
 20
10.97174
 30
0.0
 10
1.50528
 20
10.96095
 30
0.0
 10
1.50237
 20
10.95109
 30
0.0
 10
1.49653
 20
10.94217
 30
0.0
 10
1.49653
 20
10.94217
 30
0.0
 10
1.4907
 20
10.9333
 30
0.0
 10
1.48212
 20
10.92624
 30
0.0
 10
1.47075
 20
10.92099
 30
0.0
 10
1.47075
 20
10.92099
 30
0.0
 10
1.48557
 20
10.91761
 30
0.0
 10
1.49706
 20
10.91049
 30
0.0
 10
1.50528
 20
10.8997
 30
0.0
 10
1.50528
 20
10.8997
 30
0.0
 10
1.51345
 20
10.88897
 30
0.0
 10
1.51753
 20
10.87549
 30
0.0
 10
1.51753
 20
10.85933
 30
0.0
 10
1.51753
 20
10.85933
 30
0.0
 10
1.51753
 20
10.83746
 30
0.0
 10
1.5096
 20
10.81891
 30
0.0
 10
1.49362
 20
10.80368
 30
0.0
 10
1.49362
 20
10.80368
 30
0.0
 10
1.47769
 20
10.78846
 30
0.0
 10
1.45751
 20
10.78088
 30
0.0
 10
1.43312
 20
10.78088
 30
0.0
 10
1.43312
 20
10.78088
 30
0.0
 10
1.41113
 20
10.78088
 30
0.0
 10
1.39287
 20
10.78741
 30
0.0
 10
1.37835
 20
10.80053
 30
0.0
 10
1.37835
 20
10.80053
 30
0.0
 10
1.36382
 20
10.8136
 30
0.0
 10
1.35554
 20
10.83058
 30
0.0
 10
1.3535
 20
10.85146
 30
0.0
  0
SPLINE
  5
106
330
1F
100
AcDbEntity
  8
0
100
AcDbSpline
210
0.0
220
0.0
230
1.0
 70
    11
 71
     3
 72
    80
 73
    76
 74
     0
 42
0.0000000001
 43
0.0000000001
 40
0.0
 40
0.0
 40
0.0
 40
0.0
 40
0.05
 40
0.05
 40
0.05
 40
0.05
 40
0.1
 40
0.1
 40
0.1
 40
0.1
 40
0.15
 40
0.15
 40
0.15
 40
0.15
 40
0.2
 40
0.2
 40
0.2
 40
0.2
 40
0.25
 40
0.25
 40
0.25
 40
0.25
 40
0.3
 40
0.3
 40
0.3
 40
0.3
 40
0.35
 40
0.35
 40
0.35
 40
0.35
 40
0.4
 40
0.4
 40
0.4
 40
0.4
 40
0.45
 40
0.45
 40
0.45
 40
0.45
 40
0.5
 40
0.5
 40
0.5
 40
0.5
 40
0.55
 40
0.55
 40
0.55
 40
0.55
 40
0.6
 40
0.6
 40
0.6
 40
0.6
 40
0.65
 40
0.65
 40
0.65
 40
0.65
 40
0.7
 40
0.7
 40
0.7
 40
0.7
 40
0.75
 40
0.75
 40
0.75
 40
0.75
 40
0.8
 40
0.8
 40
0.8
 40
0.8
 40
0.85
 40
0.85
 40
0.85
 40
0.85
 40
0.9
 40
0.9
 40
0.9
 40
0.9
 40
1.0
 40
1.0
 40
1.0
 40
1.0
 10
1.70758
 20
10.97448
 30
0.0
 10
1.70758
 20
10.97448
 30
0.0
 10
1.67702
 20
10.97209
 30
0.0
 10
1.67702
 20
10.97209
 30
0.0
 10
1.67702
 20
10.97209
 30
0.0
 10
1.67428
 20
10.98417
 30
0.0
 10
1.67043
 20
10.99298
 30
0.0
 10
1.66541
 20
10.9984
 30
0.0
 10
1.66541
 20
10.9984
 30
0.0
 10
1.65707
 20
11.00721
 30
0.0
 10
1.6468
 20
11.01158
 30
0.0
 10
1.63461
 20
11.01158
 30
0.0
 10
1.63461
 20
11.01158
 30
0.0
 10
1.62481
 20
11.01158
 30
0.0
 10
1.61623
 20
11.00884
 30
0.0
 10
1.60883
 20
11.00336
 30
0.0
 10
1.60883
 20
11.00336
 30
0.0
 10
1.59914
 20
10.9963
 30
0.0
 10
1.5915
 20
10.98598
 30
0.0
 10
1.5859
 20
10.97244
 30
0.0
 10
1.5859
 20
10.97244
 30
0.0
 10
1.58036
 20
10.95891
 30
0.0
 10
1.57744
 20
10.9396
 30
0.0
 10
1.57721
 20
10.91452
 30
0.0
 10
1.57721
 20
10.91452
 30
0.0
 10
1.58462
 20
10.92578
 30
0.0
 10
1.59366
 20
10.93418
 30
0.0
 10
1.60439
 20
10.93966
 30
0.0
 10
1.60439
 20
10.93966
 30
0.0
 10
1.61507
 20
10.94508
 30
0.0
 10
1.62633
 20
10.94783
 30
0.0
 10
1.63805
 20
10.94783
 30
0.0
 10
1.63805
 20
10.94783
 30
0.0
 10
1.65858
 20
10.94783
 30
0.0
 10
1.67603
 20
10.9403
 30
0.0
 10
1.69043
 20
10.92519
 30
0.0
 10
1.69043
 20
10.92519
 30
0.0
 10
1.70484
 20
10.91008
 30
0.0
 10
1.71208
 20
10.8906
 30
0.0
 10
1.71208
 20
10.86668
 30
0.0
 10
1.71208
 20
10.86668
 30
0.0
 10
1.71208
 20
10.85093
 30
0.0
 10
1.70863
 20
10.83635
 30
0.0
 10
1.70187
 20
10.82282
 30
0.0
 10
1.70187
 20
10.82282
 30
0.0
 10
1.6951
 20
10.80934
 30
0.0
 10
1.68577
 20
10.79896
 30
0.0
 10
1.67393
 20
10.79178
 30
0.0
 10
1.67393
 20
10.79178
 30
0.0
 10
1.66208
 20
10.78461
 30
0.0
 10
1.64867
 20
10.78105
 30
0.0
 10
1.63362
 20
10.78105
 30
0.0
 10
1.63362
 20
10.78105
 30
0.0
 10
1.60795
 20
10.78105
 30
0.0
 10
1.58707
 20
10.79044
 30
0.0
 10
1.57091
 20
10.80934
 30
0.0
 10
1.57091
 20
10.80934
 30
0.0
 10
1.55469
 20
10.82818
 30
0.0
 10
1.54664
 20
10.85928
 30
0.0
 10
1.54664
 20
10.90256
 30
0.0
 10
1.54664
 20
10.90256
 30
0.0
 10
1.54664
 20
10.95098
 30
0.0
 10
1.55557
 20
10.98615
 30
0.0
 10
1.57348
 20
11.00814
 30
0.0
 10
1.57348
 20
11.00814
 30
0.0
 10
1.58905
 20
11.02728
 30
0.0
 10
1.61005
 20
11.0369
 30
0.0
 10
1.63653
 20
11.0369
 30
0.0
 10
1.63653
 20
11.0369
 30
0.0
 10
1.65619
 20
11.0369
 30
0.0
 10
1.67235
 20
11.03136
 30
0.0
 10
1.68495
 20
11.02028
 30
0.0
 10
1.68495
 20
11.02028
 30
0.0
 10
1.69755
 20
11.00925
 30
0.0
 10
1.70508
 20
10.99397
 30
0.0
 10
1.70758
 20
10.97448
 30
0.0
  0
SPLINE
  5
107
330
1F
100
AcDbEntity
  8
0
100
AcDbSpline
210
0.0
220
0.0
230
1.0
 70
    11
 71
     3
 72
    40
 73
    36
 74
     0
 42
0.0000000001
 43
0.0000000001
 40
0.0
 40
0.0
 40
0.0
 40
0.0
 40
0.1
 40
0.1
 40
0.1
 40
0.1
 40
0.2
 40
0.2
 40
0.2
 40
0.2
 40
0.3
 40
0.3
 40
0.3
 40
0.3
 40
0.4
 40
0.4
 40
0.4
 40
0.4
 40
0.5
 40
0.5
 40
0.5
 40
0.5
 40
0.6
 40
0.6
 40
0.6
 40
0.6
 40
0.7
 40
0.7
 40
0.7
 40
0.7
 40
0.8
 40
0.8
 40
0.8
 40
0.8
 40
1.0
 40
1.0
 40
1.0
 40
1.0
 10
1.58199
 20
10.86651
 30
0.0
 10
1.58199
 20
10.85589
 30
0.0
 10
1.58427
 20
10.84574
 30
0.0
 10
1.58876
 20
10.83606
 30
0.0
 10
1.58876
 20
10.83606
 30
0.0
 10
1.59325
 20
10.82638
 30
0.0
 10
1.59955
 20
10.81903
 30
0.0
 10
1.6076
 20
10.81395
 30
0.0
 10
1.6076
 20
10.81395
 30
0.0
 10
1.61571
 20
10.80888
 30
0.0
 10
1.62423
 20
10.80631
 30
0.0
 10
1.63309
 20
10.80631
 30
0.0
 10
1.63309
 20
10.80631
 30
0.0
 10
1.6461
 20
10.80631
 30
0.0
 10
1.65724
 20
10.81156
 30
0.0
 10
1.66658
 20
10.82206
 30
0.0
 10
1.66658
 20
10.82206
 30
0.0
 10
1.67591
 20
10.83256
 30
0.0
 10
1.68058
 20
10.84679
 30
0.0
 10
1.68058
 20
10.86476
 30
0.0
 10
1.68058
 20
10.86476
 30
0.0
 10
1.68058
 20
10.88208
 30
0.0
 10
1.67597
 20
10.89573
 30
0.0
 10
1.66675
 20
10.90571
 30
0.0
 10
1.66675
 20
10.90571
 30
0.0
 10
1.65753
 20
10.91568
 30
0.0
 10
1.64593
 20
10.92064
 30
0.0
 10
1.63193
 20
10.92064
 30
0.0
 10
1.63193
 20
10.92064
 30
0.0
 10
1.61798
 20
10.92064
 30
0.0
 10
1.6062
 20
10.91568
 30
0.0
 10
1.59652
 20
10.90571
 30
0.0
 10
1.59652
 20
10.90571
 30
0.0
 10
1.58683
 20
10.89573
 30
0.0
 10
1.58199
 20
10.88267
 30
0.0
 10
1.58199
 20
10.86651
 30
0.0
  0
SPLINE
  5
108
330
1F
100
AcDbEntity
  8
0
100
AcDbSpline
210
0.0
220
0.0
230
1.0
 70
    27
 71
     3
 72
    12
 73
     8
 74
     0
 42
0.0000000001
 43
0.0000000001
 40
0.0
 40
0.0
 40
0.0
 40
0.0
 40
0.3333333333333333
 40
0.3333333333333333
 40
0.3333333333333333
 40
0.3333333333333333
 40
1.0
 40
1.0
 40
1.0
 40
1.0
 10
7.91728
 20
9.94211
 30
0.0
 10
7.91728
 20
9.94211
 30
0.0
 10
7.86648
 20
10.27231
 30
0.0
 10
7.86648
 20
10.27231
 30
0.0
 10
7.86648
 20
10.27231
 30
0.0
 10
7.86648
 20
10.27231
 30
0.0
 10
7.91728
 20
9.94211
 30
0.0
 10
7.91728
 20
9.94211
 30
0.0
  0
SPLINE
  5
109
330
1F
100
AcDbEntity
  8
0
100
AcDbSpline
210
0.0
220
0.0
230
1.0
 70
     8
 71
     3
 72
    12
 73
     8
 74
     0
 42
0.0000000001
 43
0.0000000001
 40
0.0
 40
0.0
 40
0.0
 40
0.0
 40
0.3333333333333333
 40
0.3333333333333333
 40
0.3333333333333333
 40
0.3333333333333333
 40
1.0
 40
1.0
 40
1.0
 40
1.0
 10
7.86648
 20
10.27231
 30
0.0
 10
7.86648
 20
10.27231
 30
0.0
 10
7.96808
 20
10.27231
 30
0.0
 10
7.96808
 20
10.27231
 30
0.0
 10
7.96808
 20
10.27231
 30
0.0
 10
7.96808
 20
10.27231
 30
0.0
 10
7.91728
 20
9.94211
 30
0.0
 10
7.91728
 20
9.94211
 30
0.0
  0
SPLINE
  5
10A
330
1F
100
AcDbEntity
  8
0
370
     9
100
AcDbSpline
210
0.0
220
0.0
230
1.0
 70
    24
 71
     3
 72
     8
 73
     4
 74
     0
 42
0.0000000001
 43
0.0000000001
 40
0.0
 40
0.0
 40
0.0
 40
0.0
 40
1.0
 40
1.0
 40
1.0
 40
1.0
 10
7.91728
 20
9.94211
 30
0.0
 10
7.91728
 20
9.94211
 30
0.0
 10
7.86648
 20
10.27231
 30
0.0
 10
7.86648
 20
10.27231
 30
0.0
  0
SPLINE
  5
10B
330
1F
100
AcDbEntity
  8
0
370
     9
100
AcDbSpline
210
0.0
220
0.0
230
1.0
 70
     8
 71
     3
 72
    12
 73
     8
 74
     0
 42
0.0000000001
 43
0.0000000001
 40
0.0
 40
0.0
 40
0.0
 40
0.0
 40
0.3333333333333333
 40
0.3333333333333333
 40
0.3333333333333333
 40
0.3333333333333333
 40
1.0
 40
1.0
 40
1.0
 40
1.0
 10
7.86648
 20
10.27231
 30
0.0
 10
7.86648
 20
10.27231
 30
0.0
 10
7.96808
 20
10.27231
 30
0.0
 10
7.96808
 20
10.27231
 30
0.0
 10
7.96808
 20
10.27231
 30
0.0
 10
7.96808
 20
10.27231
 30
0.0
 10
7.91728
 20
9.94211
 30
0.0
 10
7.91728
 20
9.94211
 30
0.0
  0
SPLINE
  5
10C
330
1F
100
AcDbEntity
  8
0
100
AcDbSpline
210
0.0
220
0.0
230
1.0
 70
    27
 71
     3
 72
    12
 73
     8
 74
     0
 42
0.0000000001
 43
0.0000000001
 40
0.0
 40
0.0
 40
0.0
 40
0.0
 40
0.3333333333333333
 40
0.3333333333333333
 40
0.3333333333333333
 40
0.3333333333333333
 40
1.0
 40
1.0
 40
1.0
 40
1.0
 10
7.91728
 20
9.20878
 30
0.0
 10
7.91728
 20
9.20878
 30
0.0
 10
7.96808
 20
8.87858
 30
0.0
 10
7.96808
 20
8.87858
 30
0.0
 10
7.96808
 20
8.87858
 30
0.0
 10
7.96808
 20
8.87858
 30
0.0
 10
7.91728
 20
9.20878
 30
0.0
 10
7.91728
 20
9.20878
 30
0.0
  0
SPLINE
  5
10D
330
1F
100
AcDbEntity
  8
0
100
AcDbSpline
210
0.0
220
0.0
230
1.0
 70
     8
 71
     3
 72
    12
 73
     8
 74
     0
 42
0.0000000001
 43
0.0000000001
 40
0.0
 40
0.0
 40
0.0
 40
0.0
 40
0.3333333333333333
 40
0.3333333333333333
 40
0.3333333333333333
 40
0.3333333333333333
 40
1.0
 40
1.0
 40
1.0
 40
1.0
 10
7.96808
 20
8.87858
 30
0.0
 10
7.96808
 20
8.87858
 30
0.0
 10
7.86648
 20
8.87858
 30
0.0
 10
7.86648
 20
8.87858
 30
0.0
 10
7.86648
 20
8.87858
 30
0.0
 10
7.86648
 20
8.87858
 30
0.0
 10
7.91728
 20
9.20878
 30
0.0
 10
7.91728
 20
9.20878
 30
0.0
  0
SPLINE
  5
10E
330
1F
100
AcDbEntity
  8
0
370
     9
100
AcDbSpline
210
0.0
220
0.0
230
1.0
 70
    24
 71
     3
 72
     8
 73
     4
 74
     0
 42
0.0000000001
 43
0.0000000001
 40
0.0
 40
0.0
 40
0.0
 40
0.0
 40
1.0
 40
1.0
 40
1.0
 40
1.0
 10
7.91728
 20
9.20878
 30
0.0
 10
7.91728
 20
9.20878
 30
0.0
 10
7.96808
 20
8.87858
 30
0.0
 10
7.96808
 20
8.87858
 30
0.0
  0
SPLINE
  5
10F
330
1F
100
AcDbEntity
  8
0
370
     9
100
AcDbSpline
210
0.0
220
0.0
230
1.0
 70
     8
 71
     3
 72
    12
 73
     8
 74
     0
 42
0.0000000001
 43
0.0000000001
 40
0.0
 40
0.0
 40
0.0
 40
0.0
 40
0.3333333333333333
 40
0.3333333333333333
 40
0.3333333333333333
 40
0.3333333333333333
 40
1.0
 40
1.0
 40
1.0
 40
1.0
 10
7.96808
 20
8.87858
 30
0.0
 10
7.96808
 20
8.87858
 30
0.0
 10
7.86648
 20
8.87858
 30
0.0
 10
7.86648
 20
8.87858
 30
0.0
 10
7.86648
 20
8.87858
 30
0.0
 10
7.86648
 20
8.87858
 30
0.0
 10
7.91728
 20
9.20878
 30
0.0
 10
7.91728
 20
9.20878
 30
0.0
  0
SPLINE
  5
110
330
1F
100
AcDbEntity
  8
0
370
     9
100
AcDbSpline
210
0.0
220
0.0
230
1.0
 70
    24
 71
     3
 72
     8
 73
     4
 74
     0
 42
0.0000000001
 43
0.0000000001
 40
0.0
 40
0.0
 40
0.0
 40
0.0
 40
1.0
 40
1.0
 40
1.0
 40
1.0
 10
6.88395
 20
9.94211
 30
0.0
 10
6.88395
 20
9.94211
 30
0.0
 10
8.01728
 20
9.94211
 30
0.0
 10
8.01728
 20
9.94211
 30
0.0
  0
SPLINE
  5
111
330
1F
100
AcDbEntity
  8
0
370
     9
100
AcDbSpline
210
0.0
220
0.0
230
1.0
 70
    24
 71
     3
 72
     8
 73
     4
 74
     0
 42
0.0000000001
 43
0.0000000001
 40
0.0
 40
0.0
 40
0.0
 40
0.0
 40
1.0
 40
1.0
 40
1.0
 40
1.0
 10
6.88395
 20
9.20878
 30
0.0
 10
6.88395
 20
9.20878
 30
0.0
 10
8.01728
 20
9.20878
 30
0.0
 10
8.01728
 20
9.20878
 30
0.0
  0
SPLINE
  5
112
330
1F
100
AcDbEntity
  8
0
370
     9
100
AcDbSpline
210
0.0
220
0.0
230
1.0
 70
    24
 71
     3
 72
     8
 73
     4
 74
     0
 42
0.0000000001
 43
0.0000000001
 40
0.0
 40
0.0
 40
0.0
 40
0.0
 40
1.0
 40
1.0
 40
1.0
 40
1.0
 10
7.91728
 20
9.94211
 30
0.0
 10
7.91728
 20
9.94211
 30
0.0
 10
7.91728
 20
10.57711
 30
0.0
 10
7.91728
 20
10.57711
 30
0.0
  0
SPLINE
  5
113
330
1F
100
AcDbEntity
  8
0
370
     9
100
AcDbSpline
210
0.0
220
0.0
230
1.0
 70
    24
 71
     3
 72
     8
 73
     4
 74
     0
 42
0.0000000001
 43
0.0000000001
 40
0.0
 40
0.0
 40
0.0
 40
0.0
 40
1.0
 40
1.0
 40
1.0
 40
1.0
 10
7.91728
 20
9.94211
 30
0.0
 10
7.91728
 20
9.94211
 30
0.0
 10
7.91728
 20
9.20878
 30
0.0
 10
7.91728
 20
9.20878
 30
0.0
  0
SPLINE
  5
114
330
1F
100
AcDbEntity
  8
0
370
     9
100
AcDbSpline
210
0.0
220
0.0
230
1.0
 70
    24
 71
     3
 72
     8
 73
     4
 74
     0
 42
0.0000000001
 43
0.0000000001
 40
0.0
 40
0.0
 40
0.0
 40
0.0
 40
1.0
 40
1.0
 40
1.0
 40
1.0
 10
7.91728
 20
9.20878
 30
0.0
 10
7.91728
 20
9.20878
 30
0.0
 10
7.91728
 20
8.57378
 30
0.0
 10
7.91728
 20
8.57378
 30
0.0
  0
SPLINE
  5
115
330
1F
100
AcDbEntity
  8
0
100
AcDbSpline
210
0.0
220
0.0
230
1.0
 70
    11
 71
     3
 72
    92
 73
    88
 74
     0
 42
0.0000000001
 43
0.0000000001
 40
0.0
 40
0.0
 40
0.0
 40
0.0
 40
0.0434782608695652
 40
0.0434782608695652
 40
0.0434782608695652
 40
0.0434782608695652
 40
0.0869565217391304
 40
0.0869565217391304
 40
0.0869565217391304
 40
0.0869565217391304
 40
0.1304347826086956
 40
0.1304347826086956
 40
0.1304347826086956
 40
0.1304347826086956
 40
0.1739130434782609
 40
0.1739130434782609
 40
0.1739130434782609
 40
0.1739130434782609
 40
0.2173913043478261
 40
0.2173913043478261
 40
0.2173913043478261
 40
0.2173913043478261
 40
0.2608695652173913
 40
0.2608695652173913
 40
0.2608695652173913
 40
0.2608695652173913
 40
0.3043478260869565
 40
0.3043478260869565
 40
0.3043478260869565
 40
0.3043478260869565
 40
0.3478260869565217
 40
0.3478260869565217
 40
0.3478260869565217
 40
0.3478260869565217
 40
0.391304347826087
 40
0.391304347826087
 40
0.391304347826087
 40
0.391304347826087
 40
0.4347826086956522
 40
0.4347826086956522
 40
0.4347826086956522
 40
0.4347826086956522
 40
0.4782608695652174
 40
0.4782608695652174
 40
0.4782608695652174
 40
0.4782608695652174
 40
0.5217391304347826
 40
0.5217391304347826
 40
0.5217391304347826
 40
0.5217391304347826
 40
0.5652173913043478
 40
0.5652173913043478
 40
0.5652173913043478
 40
0.5652173913043478
 40
0.6086956521739131
 40
0.6086956521739131
 40
0.6086956521739131
 40
0.6086956521739131
 40
0.6521739130434783
 40
0.6521739130434783
 40
0.6521739130434783
 40
0.6521739130434783
 40
0.6956521739130435
 40
0.6956521739130435
 40
0.6956521739130435
 40
0.6956521739130435
 40
0.7391304347826086
 40
0.7391304347826086
 40
0.7391304347826086
 40
0.7391304347826086
 40
0.782608695652174
 40
0.782608695652174
 40
0.782608695652174
 40
0.782608695652174
 40
0.8260869565217391
 40
0.8260869565217391
 40
0.8260869565217391
 40
0.8260869565217391
 40
0.8695652173913043
 40
0.8695652173913043
 40
0.8695652173913043
 40
0.8695652173913043
 40
0.9130434782608695
 40
0.9130434782608695
 40
0.9130434782608695
 40
0.9130434782608695
 40
1.0
 40
1.0
 40
1.0
 40
1.0
 10
7.75341
 20
9.35175
 30
0.0
 10
7.75341
 20
9.35175
 30
0.0
 10
7.78298
 20
9.35175
 30
0.0
 10
7.78298
 20
9.35175
 30
0.0
 10
7.78298
 20
9.35175
 30
0.0
 10
7.78298
 20
9.35175
 30
0.0
 10
7.78298
 20
9.18615
 30
0.0
 10
7.78298
 20
9.18615
 30
0.0
 10
7.78298
 20
9.18615
 30
0.0
 10
7.77557
 20
9.18591
 30
0.0
 10
7.76846
 20
9.18708
 30
0.0
 10
7.76163
 20
9.1897
 30
0.0
 10
7.76163
 20
9.1897
 30
0.0
 10
7.75031
 20
9.1939
 30
0.0
 10
7.73923
 20
9.20067
 30
0.0
 10
7.72832
 20
9.20995
 30
0.0
 10
7.72832
 20
9.20995
 30
0.0
 10
7.71736
 20
9.21928
 30
0.0
 10
7.7047
 20
9.2327
 30
0.0
 10
7.69035
 20
9.2502
 30
0.0
 10
7.69035
 20
9.2502
 30
0.0
 10
7.66801
 20
9.27744
 30
0.0
 10
7.65033
 20
9.29587
 30
0.0
 10
7.63726
 20
9.30544
 30
0.0
 10
7.63726
 20
9.30544
 30
0.0
 10
7.62426
 20
9.315
 30
0.0
 10
7.61189
 20
9.31979
 30
0.0
 10
7.60028
 20
9.31979
 30
0.0
 10
7.60028
 20
9.31979
 30
0.0
 10
7.58809
 20
9.31979
 30
0.0
 10
7.57782
 20
9.31541
 30
0.0
 10
7.56942
 20
9.30672
 30
0.0
 10
7.56942
 20
9.30672
 30
0.0
 10
7.56108
 20
9.29797
 30
0.0
 10
7.55688
 20
9.2866
 30
0.0
 10
7.55688
 20
9.2726
 30
0.0
 10
7.55688
 20
9.2726
 30
0.0
 10
7.55688
 20
9.25778
 30
0.0
 10
7.56131
 20
9.24594
 30
0.0
 10
7.57024
 20
9.23707
 30
0.0
 10
7.57024
 20
9.23707
 30
0.0
 10
7.57911
 20
9.22815
 30
0.0
 10
7.59141
 20
9.22365
 30
0.0
 10
7.60711
 20
9.22354
 30
0.0
 10
7.60711
 20
9.22354
 30
0.0
 10
7.60711
 20
9.22354
 30
0.0
 10
7.6039
 20
9.19192
 30
0.0
 10
7.6039
 20
9.19192
 30
0.0
 10
7.6039
 20
9.19192
 30
0.0
 10
7.58027
 20
9.19408
 30
0.0
 10
7.56231
 20
9.20225
 30
0.0
 10
7.54994
 20
9.21636
 30
0.0
 10
7.54994
 20
9.21636
 30
0.0
 10
7.53757
 20
9.23048
 30
0.0
 10
7.53145
 20
9.2495
 30
0.0
 10
7.53145
 20
9.2733
 30
0.0
 10
7.53145
 20
9.2733
 30
0.0
 10
7.53145
 20
9.29733
 30
0.0
 10
7.5381
 20
9.31635
 30
0.0
 10
7.5514
 20
9.33035
 30
0.0
 10
7.5514
 20
9.33035
 30
0.0
 10
7.56476
 20
9.3444
 30
0.0
 10
7.58126
 20
9.3514
 30
0.0
 10
7.60098
 20
9.3514
 30
0.0
 10
7.60098
 20
9.3514
 30
0.0
 10
7.61101
 20
9.3514
 30
0.0
 10
7.62087
 20
9.34936
 30
0.0
 10
7.63056
 20
9.34522
 30
0.0
 10
7.63056
 20
9.34522
 30
0.0
 10
7.64024
 20
9.34114
 30
0.0
 10
7.65045
 20
9.33431
 30
0.0
 10
7.66112
 20
9.3248
 30
0.0
 10
7.66112
 20
9.3248
 30
0.0
 10
7.67186
 20
9.3153
 30
0.0
 10
7.68656
 20
9.29949
 30
0.0
 10
7.70522
 20
9.27738
 30
0.0
 10
7.70522
 20
9.27738
 30
0.0
 10
7.72074
 20
9.25895
 30
0.0
 10
7.73124
 20
9.2471
 30
0.0
 10
7.73678
 20
9.24185
 30
0.0
 10
7.73678
 20
9.24185
 30
0.0
 10
7.74226
 20
9.2366
 30
0.0
 10
7.74781
 20
9.23229
 30
0.0
 10
7.75341
 20
9.22885
 30
0.0
 10
7.75341
 20
9.22885
 30
0.0
 10
7.75341
 20
9.22885
 30
0.0
 10
7.75341
 20
9.35175
 30
0.0
 10
7.75341
 20
9.35175
 30
0.0
  0
SPLINE
  5
116
330
1F
100
AcDbEntity
  8
0
100
AcDbSpline
210
0.0
220
0.0
230
1.0
 70
    11
 71
     3
 72
    92
 73
    88
 74
     0
 42
0.0000000001
 43
0.0000000001
 40
0.0
 40
0.0
 40
0.0
 40
0.0
 40
0.0434782608695652
 40
0.0434782608695652
 40
0.0434782608695652
 40
0.0434782608695652
 40
0.0869565217391304
 40
0.0869565217391304
 40
0.0869565217391304
 40
0.0869565217391304
 40
0.1304347826086956
 40
0.1304347826086956
 40
0.1304347826086956
 40
0.1304347826086956
 40
0.1739130434782609
 40
0.1739130434782609
 40
0.1739130434782609
 40
0.1739130434782609
 40
0.2173913043478261
 40
0.2173913043478261
 40
0.2173913043478261
 40
0.2173913043478261
 40
0.2608695652173913
 40
0.2608695652173913
 40
0.2608695652173913
 40
0.2608695652173913
 40
0.3043478260869565
 40
0.3043478260869565
 40
0.3043478260869565
 40
0.3043478260869565
 40
0.3478260869565217
 40
0.3478260869565217
 40
0.3478260869565217
 40
0.3478260869565217
 40
0.391304347826087
 40
0.391304347826087
 40
0.391304347826087
 40
0.391304347826087
 40
0.4347826086956522
 40
0.4347826086956522
 40
0.4347826086956522
 40
0.4347826086956522
 40
0.4782608695652174
 40
0.4782608695652174
 40
0.4782608695652174
 40
0.4782608695652174
 40
0.5217391304347826
 40
0.5217391304347826
 40
0.5217391304347826
 40
0.5217391304347826
 40
0.5652173913043478
 40
0.5652173913043478
 40
0.5652173913043478
 40
0.5652173913043478
 40
0.6086956521739131
 40
0.6086956521739131
 40
0.6086956521739131
 40
0.6086956521739131
 40
0.6521739130434783
 40
0.6521739130434783
 40
0.6521739130434783
 40
0.6521739130434783
 40
0.6956521739130435
 40
0.6956521739130435
 40
0.6956521739130435
 40
0.6956521739130435
 40
0.7391304347826086
 40
0.7391304347826086
 40
0.7391304347826086
 40
0.7391304347826086
 40
0.782608695652174
 40
0.782608695652174
 40
0.782608695652174
 40
0.782608695652174
 40
0.8260869565217391
 40
0.8260869565217391
 40
0.8260869565217391
 40
0.8260869565217391
 40
0.8695652173913043
 40
0.8695652173913043
 40
0.8695652173913043
 40
0.8695652173913043
 40
0.9130434782608695
 40
0.9130434782608695
 40
0.9130434782608695
 40
0.9130434782608695
 40
1.0
 40
1.0
 40
1.0
 40
1.0
 10
7.75341
 20
9.54641
 30
0.0
 10
7.75341
 20
9.54641
 30
0.0
 10
7.78298
 20
9.54641
 30
0.0
 10
7.78298
 20
9.54641
 30
0.0
 10
7.78298
 20
9.54641
 30
0.0
 10
7.78298
 20
9.54641
 30
0.0
 10
7.78298
 20
9.38081
 30
0.0
 10
7.78298
 20
9.38081
 30
0.0
 10
7.78298
 20
9.38081
 30
0.0
 10
7.77557
 20
9.38057
 30
0.0
 10
7.76846
 20
9.38174
 30
0.0
 10
7.76163
 20
9.38436
 30
0.0
 10
7.76163
 20
9.38436
 30
0.0
 10
7.75031
 20
9.38856
 30
0.0
 10
7.73923
 20
9.39533
 30
0.0
 10
7.72832
 20
9.40461
 30
0.0
 10
7.72832
 20
9.40461
 30
0.0
 10
7.71736
 20
9.41394
 30
0.0
 10
7.7047
 20
9.42736
 30
0.0
 10
7.69035
 20
9.44486
 30
0.0
 10
7.69035
 20
9.44486
 30
0.0
 10
7.66801
 20
9.4721
 30
0.0
 10
7.65033
 20
9.49053
 30
0.0
 10
7.63726
 20
9.5001
 30
0.0
 10
7.63726
 20
9.5001
 30
0.0
 10
7.62426
 20
9.50966
 30
0.0
 10
7.61189
 20
9.51445
 30
0.0
 10
7.60028
 20
9.51445
 30
0.0
 10
7.60028
 20
9.51445
 30
0.0
 10
7.58809
 20
9.51445
 30
0.0
 10
7.57782
 20
9.51007
 30
0.0
 10
7.56942
 20
9.50138
 30
0.0
 10
7.56942
 20
9.50138
 30
0.0
 10
7.56108
 20
9.49263
 30
0.0
 10
7.55688
 20
9.48126
 30
0.0
 10
7.55688
 20
9.46726
 30
0.0
 10
7.55688
 20
9.46726
 30
0.0
 10
7.55688
 20
9.45244
 30
0.0
 10
7.56131
 20
9.4406
 30
0.0
 10
7.57024
 20
9.43173
 30
0.0
 10
7.57024
 20
9.43173
 30
0.0
 10
7.57911
 20
9.42281
 30
0.0
 10
7.59141
 20
9.41831
 30
0.0
 10
7.60711
 20
9.4182
 30
0.0
 10
7.60711
 20
9.4182
 30
0.0
 10
7.60711
 20
9.4182
 30
0.0
 10
7.6039
 20
9.38658
 30
0.0
 10
7.6039
 20
9.38658
 30
0.0
 10
7.6039
 20
9.38658
 30
0.0
 10
7.58027
 20
9.38874
 30
0.0
 10
7.56231
 20
9.39691
 30
0.0
 10
7.54994
 20
9.41102
 30
0.0
 10
7.54994
 20
9.41102
 30
0.0
 10
7.53757
 20
9.42514
 30
0.0
 10
7.53145
 20
9.44416
 30
0.0
 10
7.53145
 20
9.46796
 30
0.0
 10
7.53145
 20
9.46796
 30
0.0
 10
7.53145
 20
9.49199
 30
0.0
 10
7.5381
 20
9.51101
 30
0.0
 10
7.5514
 20
9.52501
 30
0.0
 10
7.5514
 20
9.52501
 30
0.0
 10
7.56476
 20
9.53906
 30
0.0
 10
7.58126
 20
9.54606
 30
0.0
 10
7.60098
 20
9.54606
 30
0.0
 10
7.60098
 20
9.54606
 30
0.0
 10
7.61101
 20
9.54606
 30
0.0
 10
7.62087
 20
9.54402
 30
0.0
 10
7.63056
 20
9.53988
 30
0.0
 10
7.63056
 20
9.53988
 30
0.0
 10
7.64024
 20
9.5358
 30
0.0
 10
7.65045
 20
9.52897
 30
0.0
 10
7.66112
 20
9.51946
 30
0.0
 10
7.66112
 20
9.51946
 30
0.0
 10
7.67186
 20
9.50996
 30
0.0
 10
7.68656
 20
9.49415
 30
0.0
 10
7.70522
 20
9.47204
 30
0.0
 10
7.70522
 20
9.47204
 30
0.0
 10
7.72074
 20
9.45361
 30
0.0
 10
7.73124
 20
9.44176
 30
0.0
 10
7.73678
 20
9.43651
 30
0.0
 10
7.73678
 20
9.43651
 30
0.0
 10
7.74226
 20
9.43126
 30
0.0
 10
7.74781
 20
9.42695
 30
0.0
 10
7.75341
 20
9.42351
 30
0.0
 10
7.75341
 20
9.42351
 30
0.0
 10
7.75341
 20
9.42351
 30
0.0
 10
7.75341
 20
9.54641
 30
0.0
 10
7.75341
 20
9.54641
 30
0.0
  0
SPLINE
  5
117
330
1F
100
AcDbEntity
  8
0
100
AcDbSpline
210
0.0
220
0.0
230
1.0
 70
    27
 71
     3
 72
    12
 73
     8
 74
     0
 42
0.0000000001
 43
0.0000000001
 40
0.0
 40
0.0
 40
0.0
 40
0.0
 40
0.3333333333333333
 40
0.3333333333333333
 40
0.3333333333333333
 40
0.3333333333333333
 40
1.0
 40
1.0
 40
1.0
 40
1.0
 10
-3.08272
 20
8.12931
 30
0.0
 10
-3.08272
 20
8.12931
 30
0.0
 10
-2.75252
 20
8.18011
 30
0.0
 10
-2.75252
 20
8.18011
 30
0.0
 10
-2.75252
 20
8.18011
 30
0.0
 10
-2.75252
 20
8.18011
 30
0.0
 10
-3.08272
 20
8.12931
 30
0.0
 10
-3.08272
 20
8.12931
 30
0.0
  0
SPLINE
  5
118
330
1F
100
AcDbEntity
  8
0
100
AcDbSpline
210
0.0
220
0.0
230
1.0
 70
     8
 71
     3
 72
    12
 73
     8
 74
     0
 42
0.0000000001
 43
0.0000000001
 40
0.0
 40
0.0
 40
0.0
 40
0.0
 40
0.3333333333333333
 40
0.3333333333333333
 40
0.3333333333333333
 40
0.3333333333333333
 40
1.0
 40
1.0
 40
1.0
 40
1.0
 10
-2.75252
 20
8.18011
 30
0.0
 10
-2.75252
 20
8.18011
 30
0.0
 10
-2.75252
 20
8.07851
 30
0.0
 10
-2.75252
 20
8.07851
 30
0.0
 10
-2.75252
 20
8.07851
 30
0.0
 10
-2.75252
 20
8.07851
 30
0.0
 10
-3.08272
 20
8.12931
 30
0.0
 10
-3.08272
 20
8.12931
 30
0.0
  0
SPLINE
  5
119
330
1F
100
AcDbEntity
  8
0
370
     9
100
AcDbSpline
210
0.0
220
0.0
230
1.0
 70
    24
 71
     3
 72
     8
 73
     4
 74
     0
 42
0.0000000001
 43
0.0000000001
 40
0.0
 40
0.0
 40
0.0
 40
0.0
 40
1.0
 40
1.0
 40
1.0
 40
1.0
 10
-3.08272
 20
8.12931
 30
0.0
 10
-3.08272
 20
8.12931
 30
0.0
 10
-2.75252
 20
8.18011
 30
0.0
 10
-2.75252
 20
8.18011
 30
0.0
  0
SPLINE
  5
11A
330
1F
100
AcDbEntity
  8
0
370
     9
100
AcDbSpline
210
0.0
220
0.0
230
1.0
 70
     8
 71
     3
 72
    12
 73
     8
 74
     0
 42
0.0000000001
 43
0.0000000001
 40
0.0
 40
0.0
 40
0.0
 40
0.0
 40
0.3333333333333333
 40
0.3333333333333333
 40
0.3333333333333333
 40
0.3333333333333333
 40
1.0
 40
1.0
 40
1.0
 40
1.0
 10
-2.75252
 20
8.18011
 30
0.0
 10
-2.75252
 20
8.18011
 30
0.0
 10
-2.75252
 20
8.07851
 30
0.0
 10
-2.75252
 20
8.07851
 30
0.0
 10
-2.75252
 20
8.07851
 30
0.0
 10
-2.75252
 20
8.07851
 30
0.0
 10
-3.08272
 20
8.12931
 30
0.0
 10
-3.08272
 20
8.12931
 30
0.0
  0
SPLINE
  5
11B
330
1F
100
AcDbEntity
  8
0
100
AcDbSpline
210
0.0
220
0.0
230
1.0
 70
    27
 71
     3
 72
    12
 73
     8
 74
     0
 42
0.0000000001
 43
0.0000000001
 40
0.0
 40
0.0
 40
0.0
 40
0.0
 40
0.3333333333333333
 40
0.3333333333333333
 40
0.3333333333333333
 40
0.3333333333333333
 40
1.0
 40
1.0
 40
1.0
 40
1.0
 10
6.91728
 20
8.12931
 30
0.0
 10
6.91728
 20
8.12931
 30
0.0
 10
6.58708
 20
8.07851
 30
0.0
 10
6.58708
 20
8.07851
 30
0.0
 10
6.58708
 20
8.07851
 30
0.0
 10
6.58708
 20
8.07851
 30
0.0
 10
6.91728
 20
8.12931
 30
0.0
 10
6.91728
 20
8.12931
 30
0.0
  0
SPLINE
  5
11C
330
1F
100
AcDbEntity
  8
0
100
AcDbSpline
210
0.0
220
0.0
230
1.0
 70
     8
 71
     3
 72
    12
 73
     8
 74
     0
 42
0.0000000001
 43
0.0000000001
 40
0.0
 40
0.0
 40
0.0
 40
0.0
 40
0.3333333333333333
 40
0.3333333333333333
 40
0.3333333333333333
 40
0.3333333333333333
 40
1.0
 40
1.0
 40
1.0
 40
1.0
 10
6.58708
 20
8.07851
 30
0.0
 10
6.58708
 20
8.07851
 30
0.0
 10
6.58708
 20
8.18011
 30
0.0
 10
6.58708
 20
8.18011
 30
0.0
 10
6.58708
 20
8.18011
 30
0.0
 10
6.58708
 20
8.18011
 30
0.0
 10
6.91728
 20
8.12931
 30
0.0
 10
6.91728
 20
8.12931
 30
0.0
  0
SPLINE
  5
11D
330
1F
100
AcDbEntity
  8
0
370
     9
100
AcDbSpline
210
0.0
220
0.0
230
1.0
 70
    24
 71
     3
 72
     8
 73
     4
 74
     0
 42
0.0000000001
 43
0.0000000001
 40
0.0
 40
0.0
 40
0.0
 40
0.0
 40
1.0
 40
1.0
 40
1.0
 40
1.0
 10
6.91728
 20
8.12931
 30
0.0
 10
6.91728
 20
8.12931
 30
0.0
 10
6.58708
 20
8.07851
 30
0.0
 10
6.58708
 20
8.07851
 30
0.0
  0
SPLINE
  5
11E
330
1F
100
AcDbEntity
  8
0
370
     9
100
AcDbSpline
210
0.0
220
0.0
230
1.0
 70
     8
 71
     3
 72
    12
 73
     8
 74
     0
 42
0.0000000001
 43
0.0000000001
 40
0.0
 40
0.0
 40
0.0
 40
0.0
 40
0.3333333333333333
 40
0.3333333333333333
 40
0.3333333333333333
 40
0.3333333333333333
 40
1.0
 40
1.0
 40
1.0
 40
1.0
 10
6.58708
 20
8.07851
 30
0.0
 10
6.58708
 20
8.07851
 30
0.0
 10
6.58708
 20
8.18011
 30
0.0
 10
6.58708
 20
8.18011
 30
0.0
 10
6.58708
 20
8.18011
 30
0.0
 10
6.58708
 20
8.18011
 30
0.0
 10
6.91728
 20
8.12931
 30
0.0
 10
6.91728
 20
8.12931
 30
0.0
  0
SPLINE
  5
11F
330
1F
100
AcDbEntity
  8
0
370
     9
100
AcDbSpline
210
0.0
220
0.0
230
1.0
 70
    24
 71
     3
 72
     8
 73
     4
 74
     0
 42
0.0000000001
 43
0.0000000001
 40
0.0
 40
0.0
 40
0.0
 40
0.0
 40
1.0
 40
1.0
 40
1.0
 40
1.0
 10
-3.08272
 20
9.10878
 30
0.0
 10
-3.08272
 20
9.10878
 30
0.0
 10
-3.08272
 20
8.02931
 30
0.0
 10
-3.08272
 20
8.02931
 30
0.0
  0
SPLINE
  5
120
330
1F
100
AcDbEntity
  8
0
370
     9
100
AcDbSpline
210
0.0
220
0.0
230
1.0
 70
    24
 71
     3
 72
     8
 73
     4
 74
     0
 42
0.0000000001
 43
0.0000000001
 40
0.0
 40
0.0
 40
0.0
 40
0.0
 40
1.0
 40
1.0
 40
1.0
 40
1.0
 10
6.91728
 20
9.24211
 30
0.0
 10
6.91728
 20
9.24211
 30
0.0
 10
6.91728
 20
8.02931
 30
0.0
 10
6.91728
 20
8.02931
 30
0.0
  0
SPLINE
  5
121
330
1F
100
AcDbEntity
  8
0
370
     9
100
AcDbSpline
210
0.0
220
0.0
230
1.0
 70
    24
 71
     3
 72
     8
 73
     4
 74
     0
 42
0.0000000001
 43
0.0000000001
 40
0.0
 40
0.0
 40
0.0
 40
0.0
 40
1.0
 40
1.0
 40
1.0
 40
1.0
 10
-3.08272
 20
8.12931
 30
0.0
 10
-3.08272
 20
8.12931
 30
0.0
 10
6.91728
 20
8.12931
 30
0.0
 10
6.91728
 20
8.12931
 30
0.0
  0
SPLINE
  5
122
330
1F
100
AcDbEntity
  8
0
100
AcDbSpline
210
0.0
220
0.0
230
1.0
 70
    11
 71
     3
 72
   124
 73
   120
 74
     0
 42
0.0000000001
 43
0.0000000001
 40
0.0
 40
0.0
 40
0.0
 40
0.0
 40
0.032258064516129
 40
0.032258064516129
 40
0.032258064516129
 40
0.032258064516129
 40
0.0645161290322581
 40
0.0645161290322581
 40
0.0645161290322581
 40
0.0645161290322581
 40
0.0967741935483871
 40
0.0967741935483871
 40
0.0967741935483871
 40
0.0967741935483871
 40
0.1290322580645161
 40
0.1290322580645161
 40
0.1290322580645161
 40
0.1290322580645161
 40
0.1612903225806452
 40
0.1612903225806452
 40
0.1612903225806452
 40
0.1612903225806452
 40
0.1935483870967742
 40
0.1935483870967742
 40
0.1935483870967742
 40
0.1935483870967742
 40
0.2258064516129032
 40
0.2258064516129032
 40
0.2258064516129032
 40
0.2258064516129032
 40
0.2580645161290323
 40
0.2580645161290323
 40
0.2580645161290323
 40
0.2580645161290323
 40
0.2903225806451613
 40
0.2903225806451613
 40
0.2903225806451613
 40
0.2903225806451613
 40
0.3225806451612903
 40
0.3225806451612903
 40
0.3225806451612903
 40
0.3225806451612903
 40
0.3548387096774194
 40
0.3548387096774194
 40
0.3548387096774194
 40
0.3548387096774194
 40
0.3870967741935484
 40
0.3870967741935484
 40
0.3870967741935484
 40
0.3870967741935484
 40
0.4193548387096774
 40
0.4193548387096774
 40
0.4193548387096774
 40
0.4193548387096774
 40
0.4516129032258064
 40
0.4516129032258064
 40
0.4516129032258064
 40
0.4516129032258064
 40
0.4838709677419355
 40
0.4838709677419355
 40
0.4838709677419355
 40
0.4838709677419355
 40
0.5161290322580645
 40
0.5161290322580645
 40
0.5161290322580645
 40
0.5161290322580645
 40
0.5483870967741935
 40
0.5483870967741935
 40
0.5483870967741935
 40
0.5483870967741935
 40
0.5806451612903226
 40
0.5806451612903226
 40
0.5806451612903226
 40
0.5806451612903226
 40
0.6129032258064516
 40
0.6129032258064516
 40
0.6129032258064516
 40
0.6129032258064516
 40
0.6451612903225806
 40
0.6451612903225806
 40
0.6451612903225806
 40
0.6451612903225806
 40
0.6774193548387096
 40
0.6774193548387096
 40
0.6774193548387096
 40
0.6774193548387096
 40
0.7096774193548387
 40
0.7096774193548387
 40
0.7096774193548387
 40
0.7096774193548387
 40
0.7419354838709677
 40
0.7419354838709677
 40
0.7419354838709677
 40
0.7419354838709677
 40
0.7741935483870968
 40
0.7741935483870968
 40
0.7741935483870968
 40
0.7741935483870968
 40
0.8064516129032258
 40
0.8064516129032258
 40
0.8064516129032258
 40
0.8064516129032258
 40
0.8387096774193549
 40
0.8387096774193549
 40
0.8387096774193549
 40
0.8387096774193549
 40
0.8709677419354839
 40
0.8709677419354839
 40
0.8709677419354839
 40
0.8709677419354839
 40
0.9032258064516129
 40
0.9032258064516129
 40
0.9032258064516129
 40
0.9032258064516129
 40
0.9354838709677419
 40
0.9354838709677419
 40
0.9354838709677419
 40
0.9354838709677419
 40
1.0
 40
1.0
 40
1.0
 40
1.0
 10
1.20572
 20
8.32976
 30
0.0
 10
1.20572
 20
8.32976
 30
0.0
 10
1.23646
 20
8.33384
 30
0.0
 10
1.23646
 20
8.33384
 30
0.0
 10
1.23646
 20
8.33384
 30
0.0
 10
1.24002
 20
8.3164
 30
0.0
 10
1.24603
 20
8.30386
 30
0.0
 10
1.25449
 20
8.29616
 30
0.0
 10
1.25449
 20
8.29616
 30
0.0
 10
1.263
 20
8.28846
 30
0.0
 10
1.27333
 20
8.28461
 30
0.0
 10
1.28552
 20
8.28461
 30
0.0
 10
1.28552
 20
8.28461
 30
0.0
 10
1.29999
 20
8.28461
 30
0.0
 10
1.31224
 20
8.28963
 30
0.0
 10
1.32221
 20
8.29966
 30
0.0
 10
1.32221
 20
8.29966
 30
0.0
 10
1.33213
 20
8.30969
 30
0.0
 10
1.33714
 20
8.32212
 30
0.0
 10
1.33714
 20
8.33693
 30
0.0
 10
1.33714
 20
8.33693
 30
0.0
 10
1.33714
 20
8.35105
 30
0.0
 10
1.33254
 20
8.36272
 30
0.0
 10
1.32332
 20
8.37188
 30
0.0
 10
1.32332
 20
8.37188
 30
0.0
 10
1.31404
 20
8.38103
 30
0.0
 10
1.30232
 20
8.38564
 30
0.0
 10
1.28809
 20
8.38564
 30
0.0
 10
1.28809
 20
8.38564
 30
0.0
 10
1.28225
 20
8.38564
 30
0.0
 10
1.27502
 20
8.38448
 30
0.0
 10
1.26639
 20
8.3822
 30
0.0
 10
1.26639
 20
8.3822
 30
0.0
 10
1.26639
 20
8.3822
 30
0.0
 10
1.26983
 20
8.40921
 30
0.0
 10
1.26983
 20
8.40921
 30
0.0
 10
1.26983
 20
8.40921
 30
0.0
 10
1.27187
 20
8.40898
 30
0.0
 10
1.2735
 20
8.40886
 30
0.0
 10
1.27479
 20
8.40886
 30
0.0
 10
1.27479
 20
8.40886
 30
0.0
 10
1.28785
 20
8.40886
 30
0.0
 10
1.29964
 20
8.4123
 30
0.0
 10
1.31014
 20
8.41913
 30
0.0
 10
1.31014
 20
8.41913
 30
0.0
 10
1.32064
 20
8.42595
 30
0.0
 10
1.32589
 20
8.43651
 30
0.0
 10
1.32589
 20
8.45074
 30
0.0
 10
1.32589
 20
8.45074
 30
0.0
 10
1.32589
 20
8.462
 30
0.0
 10
1.32204
 20
8.47139
 30
0.0
 10
1.31439
 20
8.47874
 30
0.0
 10
1.31439
 20
8.47874
 30
0.0
 10
1.30675
 20
8.48615
 30
0.0
 10
1.29689
 20
8.48988
 30
0.0
 10
1.28482
 20
8.48988
 30
0.0
 10
1.28482
 20
8.48988
 30
0.0
 10
1.27286
 20
8.48988
 30
0.0
 10
1.26289
 20
8.48609
 30
0.0
 10
1.25495
 20
8.47863
 30
0.0
 10
1.25495
 20
8.47863
 30
0.0
 10
1.24696
 20
8.4711
 30
0.0
 10
1.24183
 20
8.45978
 30
0.0
 10
1.23955
 20
8.44473
 30
0.0
 10
1.23955
 20
8.44473
 30
0.0
 10
1.23955
 20
8.44473
 30
0.0
 10
1.20881
 20
8.45022
 30
0.0
 10
1.20881
 20
8.45022
 30
0.0
 10
1.20881
 20
8.45022
 30
0.0
 10
1.21254
 20
8.47087
 30
0.0
 10
1.22112
 20
8.48685
 30
0.0
 10
1.23442
 20
8.49817
 30
0.0
 10
1.23442
 20
8.49817
 30
0.0
 10
1.24778
 20
8.50948
 30
0.0
 10
1.26434
 20
8.5152
 30
0.0
 10
1.28418
 20
8.5152
 30
0.0
 10
1.28418
 20
8.5152
 30
0.0
 10
1.29783
 20
8.5152
 30
0.0
 10
1.31043
 20
8.51223
 30
0.0
 10
1.32192
 20
8.50639
 30
0.0
 10
1.32192
 20
8.50639
 30
0.0
 10
1.33341
 20
8.5005
 30
0.0
 10
1.34222
 20
8.49251
 30
0.0
 10
1.34834
 20
8.48236
 30
0.0
 10
1.34834
 20
8.48236
 30
0.0
 10
1.35441
 20
8.47221
 30
0.0
 10
1.3575
 20
8.46148
 30
0.0
 10
1.3575
 20
8.45004
 30
0.0
 10
1.3575
 20
8.45004
 30
0.0
 10
1.3575
 20
8.43925
 30
0.0
 10
1.35459
 20
8.42939
 30
0.0
 10
1.34875
 20
8.42047
 30
0.0
 10
1.34875
 20
8.42047
 30
0.0
 10
1.34292
 20
8.4116
 30
0.0
 10
1.33434
 20
8.40454
 30
0.0
 10
1.32297
 20
8.39929
 30
0.0
 10
1.32297
 20
8.39929
 30
0.0
 10
1.33779
 20
8.39591
 30
0.0
 10
1.34928
 20
8.38879
 30
0.0
 10
1.3575
 20
8.378
 30
0.0
 10
1.3575
 20
8.378
 30
0.0
 10
1.36567
 20
8.36727
 30
0.0
 10
1.36975
 20
8.35379
 30
0.0
 10
1.36975
 20
8.33763
 30
0.0
 10
1.36975
 20
8.33763
 30
0.0
 10
1.36975
 20
8.31576
 30
0.0
 10
1.36182
 20
8.29721
 30
0.0
 10
1.34584
 20
8.28198
 30
0.0
 10
1.34584
 20
8.28198
 30
0.0
 10
1.32991
 20
8.26676
 30
0.0
 10
1.30973
 20
8.25918
 30
0.0
 10
1.28534
 20
8.25918
 30
0.0
 10
1.28534
 20
8.25918
 30
0.0
 10
1.26335
 20
8.25918
 30
0.0
 10
1.24509
 20
8.26571
 30
0.0
 10
1.23057
 20
8.27883
 30
0.0
 10
1.23057
 20
8.27883
 30
0.0
 10
1.21604
 20
8.2919
 30
0.0
 10
1.20776
 20
8.30888
 30
0.0
 10
1.20572
 20
8.32976
 30
0.0
  0
SPLINE
  5
123
330
1F
100
AcDbEntity
  8
0
100
AcDbSpline
210
0.0
220
0.0
230
1.0
 70
    11
 71
     3
 72
    52
 73
    48
 74
     0
 42
0.0000000001
 43
0.0000000001
 40
0.0
 40
0.0
 40
0.0
 40
0.0
 40
0.0769230769230769
 40
0.0769230769230769
 40
0.0769230769230769
 40
0.0769230769230769
 40
0.1538461538461539
 40
0.1538461538461539
 40
0.1538461538461539
 40
0.1538461538461539
 40
0.2307692307692308
 40
0.2307692307692308
 40
0.2307692307692308
 40
0.2307692307692308
 40
0.3076923076923077
 40
0.3076923076923077
 40
0.3076923076923077
 40
0.3076923076923077
 40
0.3846153846153846
 40
0.3846153846153846
 40
0.3846153846153846
 40
0.3846153846153846
 40
0.4615384615384616
 40
0.4615384615384616
 40
0.4615384615384616
 40
0.4615384615384616
 40
0.5384615384615384
 40
0.5384615384615384
 40
0.5384615384615384
 40
0.5384615384615384
 40
0.6153846153846154
 40
0.6153846153846154
 40
0.6153846153846154
 40
0.6153846153846154
 40
0.6923076923076923
 40
0.6923076923076923
 40
0.6923076923076923
 40
0.6923076923076923
 40
0.7692307692307693
 40
0.7692307692307693
 40
0.7692307692307693
 40
0.7692307692307693
 40
0.8461538461538461
 40
0.8461538461538461
 40
0.8461538461538461
 40
0.8461538461538461
 40
1.0
 40
1.0
 40
1.0
 40
1.0
 10
1.4002
 20
8.38716
 30
0.0
 10
1.4002
 20
8.41679
 30
0.0
 10
1.40324
 20
8.44065
 30
0.0
 10
1.40936
 20
8.45868
 30
0.0
 10
1.40936
 20
8.45868
 30
0.0
 10
1.41543
 20
8.47676
 30
0.0
 10
1.42453
 20
8.4907
 30
0.0
 10
1.43655
 20
8.5005
 30
0.0
 10
1.43655
 20
8.5005
 30
0.0
 10
1.44856
 20
8.5103
 30
0.0
 10
1.46367
 20
8.5152
 30
0.0
 10
1.48187
 20
8.5152
 30
0.0
 10
1.48187
 20
8.5152
 30
0.0
 10
1.49535
 20
8.5152
 30
0.0
 10
1.50713
 20
8.51246
 30
0.0
 10
1.51728
 20
8.50703
 30
0.0
 10
1.51728
 20
8.50703
 30
0.0
 10
1.52743
 20
8.50167
 30
0.0
 10
1.53577
 20
8.49385
 30
0.0
 10
1.54242
 20
8.48364
 30
0.0
 10
1.54242
 20
8.48364
 30
0.0
 10
1.54901
 20
8.47343
 30
0.0
 10
1.5542
 20
8.46101
 30
0.0
 10
1.55794
 20
8.44637
 30
0.0
 10
1.55794
 20
8.44637
 30
0.0
 10
1.56173
 20
8.43173
 30
0.0
 10
1.5636
 20
8.41201
 30
0.0
 10
1.5636
 20
8.38716
 30
0.0
 10
1.5636
 20
8.38716
 30
0.0
 10
1.5636
 20
8.35776
 30
0.0
 10
1.56056
 20
8.33408
 30
0.0
 10
1.55455
 20
8.31599
 30
0.0
 10
1.55455
 20
8.31599
 30
0.0
 10
1.54849
 20
8.29791
 30
0.0
 10
1.53945
 20
8.28397
 30
0.0
 10
1.52743
 20
8.27411
 30
0.0
 10
1.52743
 20
8.27411
 30
0.0
 10
1.51541
 20
8.26425
 30
0.0
 10
1.50025
 20
8.25935
 30
0.0
 10
1.48187
 20
8.25935
 30
0.0
 10
1.48187
 20
8.25935
 30
0.0
 10
1.45772
 20
8.25935
 30
0.0
 10
1.43876
 20
8.26798
 30
0.0
 10
1.425
 20
8.28531
 30
0.0
 10
1.425
 20
8.28531
 30
0.0
 10
1.40849
 20
8.30613
 30
0.0
 10
1.4002
 20
8.34014
 30
0.0
 10
1.4002
 20
8.38716
 30
0.0
  0
SPLINE
  5
124
330
1F
100
AcDbEntity
  8
0
100
AcDbSpline
210
0.0
220
0.0
230
1.0
 70
    11
 71
     3
 72
    36
 73
    32
 74
     0
 42
0.0000000001
 43
0.0000000001
 40
0.0
 40
0.0
 40
0.0
 40
0.0
 40
0.1111111111111111
 40
0.1111111111111111
 40
0.1111111111111111
 40
0.1111111111111111
 40
0.2222222222222222
 40
0.2222222222222222
 40
0.2222222222222222
 40
0.2222222222222222
 40
0.3333333333333333
 40
0.3333333333333333
 40
0.3333333333333333
 40
0.3333333333333333
 40
0.4444444444444444
 40
0.4444444444444444
 40
0.4444444444444444
 40
0.4444444444444444
 40
0.5555555555555556
 40
0.5555555555555556
 40
0.5555555555555556
 40
0.5555555555555556
 40
0.6666666666666666
 40
0.6666666666666666
 40
0.6666666666666666
 40
0.6666666666666666
 40
0.7777777777777778
 40
0.7777777777777778
 40
0.7777777777777778
 40
0.7777777777777778
 40
1.0
 40
1.0
 40
1.0
 40
1.0
 10
1.43182
 20
8.38716
 30
0.0
 10
1.43182
 20
8.34603
 30
0.0
 10
1.43666
 20
8.31868
 30
0.0
 10
1.44629
 20
8.30503
 30
0.0
 10
1.44629
 20
8.30503
 30
0.0
 10
1.45591
 20
8.29143
 30
0.0
 10
1.46775
 20
8.28461
 30
0.0
 10
1.48187
 20
8.28461
 30
0.0
 10
1.48187
 20
8.28461
 30
0.0
 10
1.49605
 20
8.28461
 30
0.0
 10
1.50789
 20
8.29149
 30
0.0
 10
1.51751
 20
8.30514
 30
0.0
 10
1.51751
 20
8.30514
 30
0.0
 10
1.52714
 20
8.31879
 30
0.0
 10
1.53198
 20
8.34615
 30
0.0
 10
1.53198
 20
8.38716
 30
0.0
 10
1.53198
 20
8.38716
 30
0.0
 10
1.53198
 20
8.4284
 30
0.0
 10
1.52714
 20
8.45582
 30
0.0
 10
1.51751
 20
8.46935
 30
0.0
 10
1.51751
 20
8.46935
 30
0.0
 10
1.50789
 20
8.48294
 30
0.0
 10
1.49593
 20
8.48971
 30
0.0
 10
1.48158
 20
8.48971
 30
0.0
 10
1.48158
 20
8.48971
 30
0.0
 10
1.4674
 20
8.48971
 30
0.0
 10
1.45615
 20
8.4837
 30
0.0
 10
1.44769
 20
8.47174
 30
0.0
 10
1.44769
 20
8.47174
 30
0.0
 10
1.43713
 20
8.45652
 30
0.0
 10
1.43182
 20
8.42828
 30
0.0
 10
1.43182
 20
8.38716
 30
0.0
  0
SPLINE
  5
125
330
1F
100
AcDbEntity
  8
0
100
AcDbSpline
210
0.0
220
0.0
230
1.0
 70
    11
 71
     3
 72
    52
 73
    48
 74
     0
 42
0.0000000001
 43
0.0000000001
 40
0.0
 40
0.0
 40
0.0
 40
0.0
 40
0.0769230769230769
 40
0.0769230769230769
 40
0.0769230769230769
 40
0.0769230769230769
 40
0.1538461538461539
 40
0.1538461538461539
 40
0.1538461538461539
 40
0.1538461538461539
 40
0.2307692307692308
 40
0.2307692307692308
 40
0.2307692307692308
 40
0.2307692307692308
 40
0.3076923076923077
 40
0.3076923076923077
 40
0.3076923076923077
 40
0.3076923076923077
 40
0.3846153846153846
 40
0.3846153846153846
 40
0.3846153846153846
 40
0.3846153846153846
 40
0.4615384615384616
 40
0.4615384615384616
 40
0.4615384615384616
 40
0.4615384615384616
 40
0.5384615384615384
 40
0.5384615384615384
 40
0.5384615384615384
 40
0.5384615384615384
 40
0.6153846153846154
 40
0.6153846153846154
 40
0.6153846153846154
 40
0.6153846153846154
 40
0.6923076923076923
 40
0.6923076923076923
 40
0.6923076923076923
 40
0.6923076923076923
 40
0.7692307692307693
 40
0.7692307692307693
 40
0.7692307692307693
 40
0.7692307692307693
 40
0.8461538461538461
 40
0.8461538461538461
 40
0.8461538461538461
 40
0.8461538461538461
 40
1.0
 40
1.0
 40
1.0
 40
1.0
 10
1.59486
 20
8.38716
 30
0.0
 10
1.59486
 20
8.41679
 30
0.0
 10
1.5979
 20
8.44065
 30
0.0
 10
1.60402
 20
8.45868
 30
0.0
 10
1.60402
 20
8.45868
 30
0.0
 10
1.61009
 20
8.47676
 30
0.0
 10
1.61919
 20
8.4907
 30
0.0
 10
1.63121
 20
8.5005
 30
0.0
 10
1.63121
 20
8.5005
 30
0.0
 10
1.64322
 20
8.5103
 30
0.0
 10
1.65833
 20
8.5152
 30
0.0
 10
1.67653
 20
8.5152
 30
0.0
 10
1.67653
 20
8.5152
 30
0.0
 10
1.69001
 20
8.5152
 30
0.0
 10
1.70179
 20
8.51246
 30
0.0
 10
1.71194
 20
8.50703
 30
0.0
 10
1.71194
 20
8.50703
 30
0.0
 10
1.72209
 20
8.50167
 30
0.0
 10
1.73043
 20
8.49385
 30
0.0
 10
1.73708
 20
8.48364
 30
0.0
 10
1.73708
 20
8.48364
 30
0.0
 10
1.74367
 20
8.47343
 30
0.0
 10
1.74886
 20
8.46101
 30
0.0
 10
1.7526
 20
8.44637
 30
0.0
 10
1.7526
 20
8.44637
 30
0.0
 10
1.75639
 20
8.43173
 30
0.0
 10
1.75826
 20
8.41201
 30
0.0
 10
1.75826
 20
8.38716
 30
0.0
 10
1.75826
 20
8.38716
 30
0.0
 10
1.75826
 20
8.35776
 30
0.0
 10
1.75522
 20
8.33408
 30
0.0
 10
1.74921
 20
8.31599
 30
0.0
 10
1.74921
 20
8.31599
 30
0.0
 10
1.74315
 20
8.29791
 30
0.0
 10
1.73411
 20
8.28397
 30
0.0
 10
1.72209
 20
8.27411
 30
0.0
 10
1.72209
 20
8.27411
 30
0.0
 10
1.71007
 20
8.26425
 30
0.0
 10
1.69491
 20
8.25935
 30
0.0
 10
1.67653
 20
8.25935
 30
0.0
 10
1.67653
 20
8.25935
 30
0.0
 10
1.65238
 20
8.25935
 30
0.0
 10
1.63342
 20
8.26798
 30
0.0
 10
1.61966
 20
8.28531
 30
0.0
 10
1.61966
 20
8.28531
 30
0.0
 10
1.60315
 20
8.30613
 30
0.0
 10
1.59486
 20
8.34014
 30
0.0
 10
1.59486
 20
8.38716
 30
0.0
  0
SPLINE
  5
126
330
1F
100
AcDbEntity
  8
0
100
AcDbSpline
210
0.0
220
0.0
230
1.0
 70
    11
 71
     3
 72
    36
 73
    32
 74
     0
 42
0.0000000001
 43
0.0000000001
 40
0.0
 40
0.0
 40
0.0
 40
0.0
 40
0.1111111111111111
 40
0.1111111111111111
 40
0.1111111111111111
 40
0.1111111111111111
 40
0.2222222222222222
 40
0.2222222222222222
 40
0.2222222222222222
 40
0.2222222222222222
 40
0.3333333333333333
 40
0.3333333333333333
 40
0.3333333333333333
 40
0.3333333333333333
 40
0.4444444444444444
 40
0.4444444444444444
 40
0.4444444444444444
 40
0.4444444444444444
 40
0.5555555555555556
 40
0.5555555555555556
 40
0.5555555555555556
 40
0.5555555555555556
 40
0.6666666666666666
 40
0.6666666666666666
 40
0.6666666666666666
 40
0.6666666666666666
 40
0.7777777777777778
 40
0.7777777777777778
 40
0.7777777777777778
 40
0.7777777777777778
 40
1.0
 40
1.0
 40
1.0
 40
1.0
 10
1.62648
 20
8.38716
 30
0.0
 10
1.62648
 20
8.34603
 30
0.0
 10
1.63132
 20
8.31868
 30
0.0
 10
1.64095
 20
8.30503
 30
0.0
 10
1.64095
 20
8.30503
 30
0.0
 10
1.65057
 20
8.29143
 30
0.0
 10
1.66241
 20
8.28461
 30
0.0
 10
1.67653
 20
8.28461
 30
0.0
 10
1.67653
 20
8.28461
 30
0.0
 10
1.69071
 20
8.28461
 30
0.0
 10
1.70255
 20
8.29149
 30
0.0
 10
1.71217
 20
8.30514
 30
0.0
 10
1.71217
 20
8.30514
 30
0.0
 10
1.7218
 20
8.31879
 30
0.0
 10
1.72664
 20
8.34615
 30
0.0
 10
1.72664
 20
8.38716
 30
0.0
 10
1.72664
 20
8.38716
 30
0.0
 10
1.72664
 20
8.4284
 30
0.0
 10
1.7218
 20
8.45582
 30
0.0
 10
1.71217
 20
8.46935
 30
0.0
 10
1.71217
 20
8.46935
 30
0.0
 10
1.70255
 20
8.48294
 30
0.0
 10
1.69059
 20
8.48971
 30
0.0
 10
1.67624
 20
8.48971
 30
0.0
 10
1.67624
 20
8.48971
 30
0.0
 10
1.66206
 20
8.48971
 30
0.0
 10
1.65081
 20
8.4837
 30
0.0
 10
1.64235
 20
8.47174
 30
0.0
 10
1.64235
 20
8.47174
 30
0.0
 10
1.63179
 20
8.45652
 30
0.0
 10
1.62648
 20
8.42828
 30
0.0
 10
1.62648
 20
8.38716
 30
0.0
  0
SPLINE
  5
127
330
1F
100
AcDbEntity
  8
0
370
    15
100
AcDbSpline
210
0.0
220
0.0
230
1.0
 70
    24
 71
     3
 72
     8
 73
     4
 74
     0
 42
0.0000000001
 43
0.0000000001
 40
0.0
 40
0.0
 40
0.0
 40
0.0
 40
1.0
 40
1.0
 40
1.0
 40
1.0
 10
-3.83272
 20
4.38206
 30
0.0
 10
-3.83272
 20
4.38206
 30
0.0
 10
-4.06605
 20
4.38206
 30
0.0
 10
-4.06605
 20
4.38206
 30
0.0
  0
SPLINE
  5
128
330
1F
100
AcDbEntity
  8
0
370
    15
100
AcDbSpline
210
0.0
220
0.0
230
1.0
 70
    24
 71
     3
 72
     8
 73
     4
 74
     0
 42
0.0000000001
 43
0.0000000001
 40
0.0
 40
0.0
 40
0.0
 40
0.0
 40
1.0
 40
1.0
 40
1.0
 40
1.0
 10
-3.33272
 20
4.38206
 30
0.0
 10
-3.33272
 20
4.38206
 30
0.0
 10
-3.83272
 20
4.38206
 30
0.0
 10
-3.83272
 20
4.38206
 30
0.0
  0
SPLINE
  5
129
330
1F
100
AcDbEntity
  8
0
370
    15
100
AcDbSpline
210
0.0
220
0.0
230
1.0
 70
     8
 71
     3
 72
    12
 73
     8
 74
     0
 42
0.0000000001
 43
0.0000000001
 40
0.0
 40
0.0
 40
0.0
 40
0.0
 40
0.3333333333333333
 40
0.3333333333333333
 40
0.3333333333333333
 40
0.3333333333333333
 40
1.0
 40
1.0
 40
1.0
 40
1.0
 10
-3.00984
 20
4.05918
 30
0.0
 10
-3.00984
 20
4.14481
 30
0.0
 10
-3.04386
 20
4.22694
 30
0.0
 10
-3.10441
 20
4.28749
 30
0.0
 10
-3.10441
 20
4.28749
 30
0.0
 10
-3.16496
 20
4.34804
 30
0.0
 10
-3.24708
 20
4.38206
 30
0.0
 10
-3.33272
 20
4.38206
 30
0.0
  0
SPLINE
  5
12A
330
1F
100
AcDbEntity
  8
0
370
    15
100
AcDbSpline
210
0.0
220
0.0
230
1.0
 70
    24
 71
     3
 72
     8
 73
     4
 74
     0
 42
0.0000000001
 43
0.0000000001
 40
0.0
 40
0.0
 40
0.0
 40
0.0
 40
1.0
 40
1.0
 40
1.0
 40
1.0
 10
-3.00984
 20
2.45918
 30
0.0
 10
-3.00984
 20
2.45918
 30
0.0
 10
-3.00984
 20
4.05918
 30
0.0
 10
-3.00984
 20
4.05918
 30
0.0
  0
SPLINE
  5
12B
330
1F
100
AcDbEntity
  8
0
370
    15
100
AcDbSpline
210
0.0
220
0.0
230
1.0
 70
     8
 71
     3
 72
     8
 73
     4
 74
     0
 42
0.0000000001
 43
0.0000000001
 40
0.0
 40
0.0
 40
0.0
 40
0.0
 40
1.0
 40
1.0
 40
1.0
 40
1.0
 10
-3.33272
 20
2.1363
 30
0.0
 10
-3.1544
 20
2.1363
 30
0.0
 10
-3.00984
 20
2.28086
 30
0.0
 10
-3.00984
 20
2.45918
 30
0.0
  0
SPLINE
  5
12C
330
1F
100
AcDbEntity
  8
0
370
    15
100
AcDbSpline
210
0.0
220
0.0
230
1.0
 70
    24
 71
     3
 72
     8
 73
     4
 74
     0
 42
0.0000000001
 43
0.0000000001
 40
0.0
 40
0.0
 40
0.0
 40
0.0
 40
1.0
 40
1.0
 40
1.0
 40
1.0
 10
-4.06605
 20
2.1363
 30
0.0
 10
-4.06605
 20
2.1363
 30
0.0
 10
-3.83272
 20
2.1363
 30
0.0
 10
-3.83272
 20
2.1363
 30
0.0
  0
SPLINE
  5
12D
330
1F
100
AcDbEntity
  8
0
370
    15
100
AcDbSpline
210
0.0
220
0.0
230
1.0
 70
    24
 71
     3
 72
     8
 73
     4
 74
     0
 42
0.0000000001
 43
0.0000000001
 40
0.0
 40
0.0
 40
0.0
 40
0.0
 40
1.0
 40
1.0
 40
1.0
 40
1.0
 10
-3.83272
 20
2.1363
 30
0.0
 10
-3.83272
 20
2.1363
 30
0.0
 10
-3.33272
 20
2.1363
 30
0.0
 10
-3.33272
 20
2.1363
 30
0.0
  0
SPLINE
  5
12E
330
1F
100
AcDbEntity
  8
0
370
    15
100
AcDbSpline
210
0.0
220
0.0
230
1.0
 70
    24
 71
     3
 72
     8
 73
     4
 74
     0
 42
0.0000000001
 43
0.0000000001
 40
0.0
 40
0.0
 40
0.0
 40
0.0
 40
1.0
 40
1.0
 40
1.0
 40
1.0
 10
6.78395
 20
3.95918
 30
0.0
 10
6.78395
 20
3.95918
 30
0.0
 10
6.78395
 20
4.15918
 30
0.0
 10
6.78395
 20
4.15918
 30
0.0
  0
SPLINE
  5
12F
330
1F
100
AcDbEntity
  8
0
370
    15
100
AcDbSpline
210
0.0
220
0.0
230
1.0
 70
    24
 71
     3
 72
     8
 73
     4
 74
     0
 42
0.0000000001
 43
0.0000000001
 40
0.0
 40
0.0
 40
0.0
 40
0.0
 40
1.0
 40
1.0
 40
1.0
 40
1.0
 10
6.78395
 20
3.95918
 30
0.0
 10
6.78395
 20
3.95918
 30
0.0
 10
-3.00984
 20
3.95918
 30
0.0
 10
-3.00984
 20
3.95918
 30
0.0
  0
SPLINE
  5
130
330
1F
100
AcDbEntity
  8
0
370
    15
100
AcDbSpline
210
0.0
220
0.0
230
1.0
 70
    24
 71
     3
 72
     8
 73
     4
 74
     0
 42
0.0000000001
 43
0.0000000001
 40
0.0
 40
0.0
 40
0.0
 40
0.0
 40
1.0
 40
1.0
 40
1.0
 40
1.0
 10
6.78395
 20
4.15918
 30
0.0
 10
6.78395
 20
4.15918
 30
0.0
 10
-3.02572
 20
4.15918
 30
0.0
 10
-3.02572
 20
4.15918
 30
0.0
  0
SPLINE
  5
131
330
1F
100
AcDbEntity
  8
0
370
    15
100
AcDbSpline
210
0.0
220
0.0
230
1.0
 70
    24
 71
     3
 72
     8
 73
     4
 74
     0
 42
0.0000000001
 43
0.0000000001
 40
0.0
 40
0.0
 40
0.0
 40
0.0
 40
1.0
 40
1.0
 40
1.0
 40
1.0
 10
6.91728
 20
4.15918
 30
0.0
 10
6.91728
 20
4.15918
 30
0.0
 10
6.91728
 20
3.95918
 30
0.0
 10
6.91728
 20
3.95918
 30
0.0
  0
SPLINE
  5
132
330
1F
100
AcDbEntity
  8
0
370
    15
100
AcDbSpline
210
0.0
220
0.0
230
1.0
 70
    24
 71
     3
 72
     8
 73
     4
 74
     0
 42
0.0000000001
 43
0.0000000001
 40
0.0
 40
0.0
 40
0.0
 40
0.0
 40
1.0
 40
1.0
 40
1.0
 40
1.0
 10
6.91728
 20
3.95918
 30
0.0
 10
6.91728
 20
3.95918
 30
0.0
 10
6.78395
 20
3.95918
 30
0.0
 10
6.78395
 20
3.95918
 30
0.0
  0
SPLINE
  5
133
330
1F
100
AcDbEntity
  8
0
370
    15
100
AcDbSpline
210
0.0
220
0.0
230
1.0
 70
    24
 71
     3
 72
     8
 73
     4
 74
     0
 42
0.0000000001
 43
0.0000000001
 40
0.0
 40
0.0
 40
0.0
 40
0.0
 40
1.0
 40
1.0
 40
1.0
 40
1.0
 10
6.78395
 20
4.15918
 30
0.0
 10
6.78395
 20
4.15918
 30
0.0
 10
6.91728
 20
4.15918
 30
0.0
 10
6.91728
 20
4.15918
 30
0.0
  0
SPLINE
  5
134
330
1F
100
AcDbEntity
  8
0
370
    15
100
AcDbSpline
210
0.0
220
0.0
230
1.0
 70
    24
 71
     3
 72
     8
 73
     4
 74
     0
 42
0.0000000001
 43
0.0000000001
 40
0.0
 40
0.0
 40
0.0
 40
0.0
 40
1.0
 40
1.0
 40
1.0
 40
1.0
 10
6.78395
 20
2.55918
 30
0.0
 10
6.78395
 20
2.55918
 30
0.0
 10
-3.00984
 20
2.55918
 30
0.0
 10
-3.00984
 20
2.55918
 30
0.0
  0
SPLINE
  5
135
330
1F
100
AcDbEntity
  8
0
370
    15
100
AcDbSpline
210
0.0
220
0.0
230
1.0
 70
    24
 71
     3
 72
     8
 73
     4
 74
     0
 42
0.0000000001
 43
0.0000000001
 40
0.0
 40
0.0
 40
0.0
 40
0.0
 40
1.0
 40
1.0
 40
1.0
 40
1.0
 10
6.78395
 20
2.35918
 30
0.0
 10
6.78395
 20
2.35918
 30
0.0
 10
6.78395
 20
2.55918
 30
0.0
 10
6.78395
 20
2.55918
 30
0.0
  0
SPLINE
  5
136
330
1F
100
AcDbEntity
  8
0
370
    15
100
AcDbSpline
210
0.0
220
0.0
230
1.0
 70
    24
 71
     3
 72
     8
 73
     4
 74
     0
 42
0.0000000001
 43
0.0000000001
 40
0.0
 40
0.0
 40
0.0
 40
0.0
 40
1.0
 40
1.0
 40
1.0
 40
1.0
 10
6.78395
 20
2.35918
 30
0.0
 10
6.78395
 20
2.35918
 30
0.0
 10
-3.02572
 20
2.35918
 30
0.0
 10
-3.02572
 20
2.35918
 30
0.0
  0
SPLINE
  5
137
330
1F
100
AcDbEntity
  8
0
370
    15
100
AcDbSpline
210
0.0
220
0.0
230
1.0
 70
    24
 71
     3
 72
     8
 73
     4
 74
     0
 42
0.0000000001
 43
0.0000000001
 40
0.0
 40
0.0
 40
0.0
 40
0.0
 40
1.0
 40
1.0
 40
1.0
 40
1.0
 10
6.91728
 20
2.55918
 30
0.0
 10
6.91728
 20
2.55918
 30
0.0
 10
6.91728
 20
2.35918
 30
0.0
 10
6.91728
 20
2.35918
 30
0.0
  0
SPLINE
  5
138
330
1F
100
AcDbEntity
  8
0
370
    15
100
AcDbSpline
210
0.0
220
0.0
230
1.0
 70
    24
 71
     3
 72
     8
 73
     4
 74
     0
 42
0.0000000001
 43
0.0000000001
 40
0.0
 40
0.0
 40
0.0
 40
0.0
 40
1.0
 40
1.0
 40
1.0
 40
1.0
 10
6.91728
 20
2.35918
 30
0.0
 10
6.91728
 20
2.35918
 30
0.0
 10
6.78395
 20
2.35918
 30
0.0
 10
6.78395
 20
2.35918
 30
0.0
  0
SPLINE
  5
139
330
1F
100
AcDbEntity
  8
0
370
    15
100
AcDbSpline
210
0.0
220
0.0
230
1.0
 70
    24
 71
     3
 72
     8
 73
     4
 74
     0
 42
0.0000000001
 43
0.0000000001
 40
0.0
 40
0.0
 40
0.0
 40
0.0
 40
1.0
 40
1.0
 40
1.0
 40
1.0
 10
6.78395
 20
2.55918
 30
0.0
 10
6.78395
 20
2.55918
 30
0.0
 10
6.91728
 20
2.55918
 30
0.0
 10
6.91728
 20
2.55918
 30
0.0
  0
SPLINE
  5
13A
330
1F
100
AcDbEntity
  8
0
370
    15
100
AcDbSpline
210
0.0
220
0.0
230
1.0
 70
    24
 71
     3
 72
     8
 73
     4
 74
     0
 42
0.0000000001
 43
0.0000000001
 40
0.0
 40
0.0
 40
0.0
 40
0.0
 40
1.0
 40
1.0
 40
1.0
 40
1.0
 10
-4.26938
 20
4.10849
 30
0.0
 10
-4.26938
 20
4.10849
 30
0.0
 10
-4.26938
 20
2.40987
 30
0.0
 10
-4.26938
 20
2.40987
 30
0.0
  0
SPLINE
  5
13B
330
1F
100
AcDbEntity
  8
0
370
    15
100
AcDbSpline
210
0.0
220
0.0
230
1.0
 70
    24
 71
     3
 72
     8
 73
     4
 74
     0
 42
0.0000000001
 43
0.0000000001
 40
0.0
 40
0.0
 40
0.0
 40
0.0
 40
1.0
 40
1.0
 40
1.0
 40
1.0
 10
-4.26605
 20
4.10849
 30
0.0
 10
-4.26605
 20
4.10849
 30
0.0
 10
-4.26938
 20
4.10849
 30
0.0
 10
-4.26938
 20
4.10849
 30
0.0
  0
SPLINE
  5
13C
330
1F
100
AcDbEntity
  8
0
370
    15
100
AcDbSpline
210
0.0
220
0.0
230
1.0
 70
    24
 71
     3
 72
     8
 73
     4
 74
     0
 42
0.0000000001
 43
0.0000000001
 40
0.0
 40
0.0
 40
0.0
 40
0.0
 40
1.0
 40
1.0
 40
1.0
 40
1.0
 10
-4.26938
 20
2.40987
 30
0.0
 10
-4.26938
 20
2.40987
 30
0.0
 10
-4.26605
 20
2.40987
 30
0.0
 10
-4.26605
 20
2.40987
 30
0.0
  0
SPLINE
  5
13D
330
1F
100
AcDbEntity
  8
0
370
    15
100
AcDbSpline
210
0.0
220
0.0
230
1.0
 70
    24
 71
     3
 72
     8
 73
     4
 74
     0
 42
0.0000000001
 43
0.0000000001
 40
0.0
 40
0.0
 40
0.0
 40
0.0
 40
1.0
 40
1.0
 40
1.0
 40
1.0
 10
-4.26605
 20
4.11751
 30
0.0
 10
-4.26605
 20
4.11751
 30
0.0
 10
-4.26938
 20
4.11751
 30
0.0
 10
-4.26938
 20
4.11751
 30
0.0
  0
SPLINE
  5
13E
330
1F
100
AcDbEntity
  8
0
370
    15
100
AcDbSpline
210
0.0
220
0.0
230
1.0
 70
    24
 71
     3
 72
     8
 73
     4
 74
     0
 42
0.0000000001
 43
0.0000000001
 40
0.0
 40
0.0
 40
0.0
 40
0.0
 40
1.0
 40
1.0
 40
1.0
 40
1.0
 10
-4.26938
 20
4.10849
 30
0.0
 10
-4.26938
 20
4.10849
 30
0.0
 10
-4.26938
 20
4.11751
 30
0.0
 10
-4.26938
 20
4.11751
 30
0.0
  0
SPLINE
  5
13F
330
1F
100
AcDbEntity
  8
0
370
    15
100
AcDbSpline
210
0.0
220
0.0
230
1.0
 70
    24
 71
     3
 72
     8
 73
     4
 74
     0
 42
0.0000000001
 43
0.0000000001
 40
0.0
 40
0.0
 40
0.0
 40
0.0
 40
1.0
 40
1.0
 40
1.0
 40
1.0
 10
-4.26938
 20
2.40085
 30
0.0
 10
-4.26938
 20
2.40085
 30
0.0
 10
-4.26605
 20
2.40085
 30
0.0
 10
-4.26605
 20
2.40085
 30
0.0
  0
SPLINE
  5
140
330
1F
100
AcDbEntity
  8
0
370
    15
100
AcDbSpline
210
0.0
220
0.0
230
1.0
 70
    24
 71
     3
 72
     8
 73
     4
 74
     0
 42
0.0000000001
 43
0.0000000001
 40
0.0
 40
0.0
 40
0.0
 40
0.0
 40
1.0
 40
1.0
 40
1.0
 40
1.0
 10
-4.26938
 20
2.40987
 30
0.0
 10
-4.26938
 20
2.40987
 30
0.0
 10
-4.26938
 20
2.40085
 30
0.0
 10
-4.26938
 20
2.40085
 30
0.0
  0
SPLINE
  5
141
330
1F
100
AcDbEntity
  8
0
370
    15
100
AcDbSpline
210
0.0
220
0.0
230
1.0
 70
    24
 71
     3
 72
     8
 73
     4
 74
     0
 42
0.0000000001
 43
0.0000000001
 40
0.0
 40
0.0
 40
0.0
 40
0.0
 40
1.0
 40
1.0
 40
1.0
 40
1.0
 10
-3.83272
 20
4.36308
 30
0.0
 10
-3.83272
 20
4.36308
 30
0.0
 10
-3.33272
 20
4.36308
 30
0.0
 10
-3.33272
 20
4.36308
 30
0.0
  0
SPLINE
  5
142
330
1F
100
AcDbEntity
  8
0
370
    15
100
AcDbSpline
210
0.0
220
0.0
230
1.0
 70
    24
 71
     3
 72
     8
 73
     4
 74
     0
 42
0.0000000001
 43
0.0000000001
 40
0.0
 40
0.0
 40
0.0
 40
0.0
 40
1.0
 40
1.0
 40
1.0
 40
1.0
 10
-3.33272
 20
4.36308
 30
0.0
 10
-3.33272
 20
4.36308
 30
0.0
 10
-3.33272
 20
4.34721
 30
0.0
 10
-3.33272
 20
4.34721
 30
0.0
  0
SPLINE
  5
143
330
1F
100
AcDbEntity
  8
0
370
    15
100
AcDbSpline
210
0.0
220
0.0
230
1.0
 70
    24
 71
     3
 72
     8
 73
     4
 74
     0
 42
0.0000000001
 43
0.0000000001
 40
0.0
 40
0.0
 40
0.0
 40
0.0
 40
1.0
 40
1.0
 40
1.0
 40
1.0
 10
-3.33272
 20
4.34721
 30
0.0
 10
-3.33272
 20
4.34721
 30
0.0
 10
-3.83272
 20
4.34721
 30
0.0
 10
-3.83272
 20
4.34721
 30
0.0
  0
SPLINE
  5
144
330
1F
100
AcDbEntity
  8
0
370
    15
100
AcDbSpline
210
0.0
220
0.0
230
1.0
 70
    24
 71
     3
 72
     8
 73
     4
 74
     0
 42
0.0000000001
 43
0.0000000001
 40
0.0
 40
0.0
 40
0.0
 40
0.0
 40
1.0
 40
1.0
 40
1.0
 40
1.0
 10
-3.83272
 20
4.36308
 30
0.0
 10
-3.83272
 20
4.36308
 30
0.0
 10
-3.83272
 20
4.34721
 30
0.0
 10
-3.83272
 20
4.34721
 30
0.0
  0
SPLINE
  5
145
330
1F
100
AcDbEntity
  8
0
370
    15
100
AcDbSpline
210
0.0
220
0.0
230
1.0
 70
    24
 71
     3
 72
     8
 73
     4
 74
     0
 42
0.0000000001
 43
0.0000000001
 40
0.0
 40
0.0
 40
0.0
 40
0.0
 40
1.0
 40
1.0
 40
1.0
 40
1.0
 10
-4.18779
 20
4.36308
 30
0.0
 10
-4.18779
 20
4.36308
 30
0.0
 10
-3.83272
 20
4.36308
 30
0.0
 10
-3.83272
 20
4.36308
 30
0.0
  0
SPLINE
  5
146
330
1F
100
AcDbEntity
  8
0
370
    15
100
AcDbSpline
210
0.0
220
0.0
230
1.0
 70
    24
 71
     3
 72
     8
 73
     4
 74
     0
 42
0.0000000001
 43
0.0000000001
 40
0.0
 40
0.0
 40
0.0
 40
0.0
 40
1.0
 40
1.0
 40
1.0
 40
1.0
 10
-3.83272
 20
4.34721
 30
0.0
 10
-3.83272
 20
4.34721
 30
0.0
 10
-4.19938
 20
4.34721
 30
0.0
 10
-4.19938
 20
4.34721
 30
0.0
  0
SPLINE
  5
147
330
1F
100
AcDbEntity
  8
0
370
    15
100
AcDbSpline
210
0.0
220
0.0
230
1.0
 70
     8
 71
     3
 72
     8
 73
     4
 74
     0
 42
0.0000000001
 43
0.0000000001
 40
0.0
 40
0.0
 40
0.0
 40
0.0
 40
1.0
 40
1.0
 40
1.0
 40
1.0
 10
-4.18779
 20
4.36308
 30
0.0
 10
-4.19469
 20
4.36087
 30
0.0
 10
-4.19938
 20
4.35446
 30
0.0
 10
-4.19938
 20
4.34721
 30
0.0
  0
SPLINE
  5
148
330
1F
100
AcDbEntity
  8
0
370
    15
100
AcDbSpline
210
0.0
220
0.0
230
1.0
 70
     8
 71
     3
 72
    12
 73
     8
 74
     0
 42
0.0000000001
 43
0.0000000001
 40
0.0
 40
0.0
 40
0.0
 40
0.0
 40
0.3333333333333333
 40
0.3333333333333333
 40
0.3333333333333333
 40
0.3333333333333333
 40
1.0
 40
1.0
 40
1.0
 40
1.0
 10
-3.02881
 20
4.05918
 30
0.0
 10
-3.02881
 20
4.13978
 30
0.0
 10
-3.06083
 20
4.21708
 30
0.0
 10
-3.11782
 20
4.27407
 30
0.0
 10
-3.11782
 20
4.27407
 30
0.0
 10
-3.17482
 20
4.33106
 30
0.0
 10
-3.25212
 20
4.36308
 30
0.0
 10
-3.33272
 20
4.36308
 30
0.0
  0
SPLINE
  5
149
330
1F
100
AcDbEntity
  8
0
370
    15
100
AcDbSpline
210
0.0
220
0.0
230
1.0
 70
    24
 71
     3
 72
     8
 73
     4
 74
     0
 42
0.0000000001
 43
0.0000000001
 40
0.0
 40
0.0
 40
0.0
 40
0.0
 40
1.0
 40
1.0
 40
1.0
 40
1.0
 10
-3.02881
 20
4.05918
 30
0.0
 10
-3.02881
 20
4.05918
 30
0.0
 10
-3.04469
 20
4.05918
 30
0.0
 10
-3.04469
 20
4.05918
 30
0.0
  0
SPLINE
  5
14A
330
1F
100
AcDbEntity
  8
0
370
    15
100
AcDbSpline
210
0.0
220
0.0
230
1.0
 70
     8
 71
     3
 72
    12
 73
     8
 74
     0
 42
0.0000000001
 43
0.0000000001
 40
0.0
 40
0.0
 40
0.0
 40
0.0
 40
0.3333333333333333
 40
0.3333333333333333
 40
0.3333333333333333
 40
0.3333333333333333
 40
1.0
 40
1.0
 40
1.0
 40
1.0
 10
-3.04469
 20
4.05918
 30
0.0
 10
-3.04469
 20
4.13557
 30
0.0
 10
-3.07504
 20
4.20883
 30
0.0
 10
-3.12905
 20
4.26284
 30
0.0
 10
-3.12905
 20
4.26284
 30
0.0
 10
-3.18307
 20
4.31686
 30
0.0
 10
-3.25633
 20
4.34721
 30
0.0
 10
-3.33272
 20
4.34721
 30
0.0
  0
SPLINE
  5
14B
330
1F
100
AcDbEntity
  8
0
370
    15
100
AcDbSpline
210
0.0
220
0.0
230
1.0
 70
    24
 71
     3
 72
     8
 73
     4
 74
     0
 42
0.0000000001
 43
0.0000000001
 40
0.0
 40
0.0
 40
0.0
 40
0.0
 40
1.0
 40
1.0
 40
1.0
 40
1.0
 10
-4.17542
 20
2.18418
 30
0.0
 10
-4.17542
 20
2.18418
 30
0.0
 10
-4.19938
 20
2.18418
 30
0.0
 10
-4.19938
 20
2.18418
 30
0.0
  0
SPLINE
  5
14C
330
1F
100
AcDbEntity
  8
0
370
    15
100
AcDbSpline
210
0.0
220
0.0
230
1.0
 70
     8
 71
     3
 72
    32
 73
    28
 74
     0
 42
0.0000000001
 43
0.0000000001
 40
0.0
 40
0.0
 40
0.0
 40
0.0
 40
0.125
 40
0.125
 40
0.125
 40
0.125
 40
0.25
 40
0.25
 40
0.25
 40
0.25
 40
0.375
 40
0.375
 40
0.375
 40
0.375
 40
0.5
 40
0.5
 40
0.5
 40
0.5
 40
0.625
 40
0.625
 40
0.625
 40
0.625
 40
0.75
 40
0.75
 40
0.75
 40
0.75
 40
1.0
 40
1.0
 40
1.0
 40
1.0
 10
-4.11309
 20
2.29251
 30
0.0
 10
-4.11309
 20
2.28489
 30
0.0
 10
-4.11375
 20
2.27746
 30
0.0
 10
-4.11499
 20
2.27019
 30
0.0
 10
-4.11499
 20
2.27019
 30
0.0
 10
-4.11623
 20
2.26292
 30
0.0
 10
-4.11807
 20
2.25582
 30
0.0
 10
-4.1203
 20
2.24921
 30
0.0
 10
-4.1203
 20
2.24921
 30
0.0
 10
-4.12253
 20
2.2426
 30
0.0
 10
-4.12519
 20
2.23633
 30
0.0
 10
-4.12808
 20
2.23056
 30
0.0
 10
-4.12808
 20
2.23056
 30
0.0
 10
-4.13097
 20
2.2248
 30
0.0
 10
-4.13408
 20
2.21953
 30
0.0
 10
-4.13733
 20
2.21473
 30
0.0
 10
-4.13733
 20
2.21473
 30
0.0
 10
-4.14057
 20
2.20993
 30
0.0
 10
-4.14394
 20
2.20561
 30
0.0
 10
-4.14729
 20
2.20187
 30
0.0
 10
-4.14729
 20
2.20187
 30
0.0
 10
-4.15063
 20
2.19814
 30
0.0
 10
-4.15397
 20
2.19494
 30
0.0
 10
-4.15728
 20
2.19229
 30
0.0
 10
-4.15728
 20
2.19229
 30
0.0
 10
-4.16389
 20
2.18701
 30
0.0
 10
-4.17001
 20
2.18418
 30
0.0
 10
-4.17542
 20
2.18418
 30
0.0
  0
SPLINE
  5
14D
330
1F
100
AcDbEntity
  8
0
370
    15
100
AcDbSpline
210
0.0
220
0.0
230
1.0
 70
    24
 71
     3
 72
     8
 73
     4
 74
     0
 42
0.0000000001
 43
0.0000000001
 40
0.0
 40
0.0
 40
0.0
 40
0.0
 40
1.0
 40
1.0
 40
1.0
 40
1.0
 10
-4.11309
 20
4.22585
 30
0.0
 10
-4.11309
 20
4.22585
 30
0.0
 10
-4.11309
 20
2.29251
 30
0.0
 10
-4.11309
 20
2.29251
 30
0.0
  0
SPLINE
  5
14E
330
1F
100
AcDbEntity
  8
0
370
    15
100
AcDbSpline
210
0.0
220
0.0
230
1.0
 70
     8
 71
     3
 72
    36
 73
    32
 74
     0
 42
0.0000000001
 43
0.0000000001
 40
0.0
 40
0.0
 40
0.0
 40
0.0
 40
0.1111111111111111
 40
0.1111111111111111
 40
0.1111111111111111
 40
0.1111111111111111
 40
0.2222222222222222
 40
0.2222222222222222
 40
0.2222222222222222
 40
0.2222222222222222
 40
0.3333333333333333
 40
0.3333333333333333
 40
0.3333333333333333
 40
0.3333333333333333
 40
0.4444444444444444
 40
0.4444444444444444
 40
0.4444444444444444
 40
0.4444444444444444
 40
0.5555555555555556
 40
0.5555555555555556
 40
0.5555555555555556
 40
0.5555555555555556
 40
0.6666666666666666
 40
0.6666666666666666
 40
0.6666666666666666
 40
0.6666666666666666
 40
0.7777777777777778
 40
0.7777777777777778
 40
0.7777777777777778
 40
0.7777777777777778
 40
1.0
 40
1.0
 40
1.0
 40
1.0
 10
-4.17542
 20
4.33418
 30
0.0
 10
-4.17272
 20
4.33418
 30
0.0
 10
-4.16984
 20
4.33346
 30
0.0
 10
-4.16681
 20
4.33209
 30
0.0
 10
-4.16681
 20
4.33209
 30
0.0
 10
-4.16377
 20
4.33072
 30
0.0
 10
-4.16056
 20
4.32869
 30
0.0
 10
-4.15726
 20
4.32605
 30
0.0
 10
-4.15726
 20
4.32605
 30
0.0
 10
-4.15396
 20
4.32341
 30
0.0
 10
-4.15062
 20
4.32021
 30
0.0
 10
-4.14728
 20
4.31647
 30
0.0
 10
-4.14728
 20
4.31647
 30
0.0
 10
-4.14393
 20
4.31274
 30
0.0
 10
-4.14055
 20
4.30841
 30
0.0
 10
-4.13732
 20
4.30362
 30
0.0
 10
-4.13732
 20
4.30362
 30
0.0
 10
-4.13408
 20
4.29882
 30
0.0
 10
-4.13099
 20
4.29359
 30
0.0
 10
-4.12812
 20
4.28789
 30
0.0
 10
-4.12812
 20
4.28789
 30
0.0
 10
-4.12526
 20
4.28218
 30
0.0
 10
-4.12258
 20
4.27591
 30
0.0
 10
-4.12034
 20
4.26928
 30
0.0
 10
-4.12034
 20
4.26928
 30
0.0
 10
-4.1181
 20
4.26265
 30
0.0
 10
-4.11628
 20
4.25569
 30
0.0
 10
-4.11502
 20
4.24836
 30
0.0
 10
-4.11502
 20
4.24836
 30
0.0
 10
-4.11376
 20
4.24102
 30
0.0
 10
-4.11309
 20
4.23347
 30
0.0
 10
-4.11309
 20
4.22585
 30
0.0
  0
SPLINE
  5
14F
330
1F
100
AcDbEntity
  8
0
370
    15
100
AcDbSpline
210
0.0
220
0.0
230
1.0
 70
    24
 71
     3
 72
     8
 73
     4
 74
     0
 42
0.0000000001
 43
0.0000000001
 40
0.0
 40
0.0
 40
0.0
 40
0.0
 40
1.0
 40
1.0
 40
1.0
 40
1.0
 10
-4.19938
 20
4.33418
 30
0.0
 10
-4.19938
 20
4.33418
 30
0.0
 10
-4.17542
 20
4.33418
 30
0.0
 10
-4.17542
 20
4.33418
 30
0.0
  0
SPLINE
  5
150
330
1F
100
AcDbEntity
  8
0
370
    15
100
AcDbSpline
210
0.0
220
0.0
230
1.0
 70
    24
 71
     3
 72
     8
 73
     4
 74
     0
 42
0.0000000001
 43
0.0000000001
 40
0.0
 40
0.0
 40
0.0
 40
0.0
 40
1.0
 40
1.0
 40
1.0
 40
1.0
 10
-4.19938
 20
4.34721
 30
0.0
 10
-4.19938
 20
4.34721
 30
0.0
 10
-4.19938
 20
4.33418
 30
0.0
 10
-4.19938
 20
4.33418
 30
0.0
  0
SPLINE
  5
151
330
1F
100
AcDbEntity
  8
0
370
    15
100
AcDbSpline
210
0.0
220
0.0
230
1.0
 70
    24
 71
     3
 72
     8
 73
     4
 74
     0
 42
0.0000000001
 43
0.0000000001
 40
0.0
 40
0.0
 40
0.0
 40
0.0
 40
1.0
 40
1.0
 40
1.0
 40
1.0
 10
-3.83272
 20
4.34721
 30
0.0
 10
-3.83272
 20
4.34721
 30
0.0
 10
-3.83272
 20
2.17116
 30
0.0
 10
-3.83272
 20
2.17116
 30
0.0
  0
SPLINE
  5
152
330
1F
100
AcDbEntity
  8
0
370
    15
100
AcDbSpline
210
0.0
220
0.0
230
1.0
 70
    24
 71
     3
 72
     8
 73
     4
 74
     0
 42
0.0000000001
 43
0.0000000001
 40
0.0
 40
0.0
 40
0.0
 40
0.0
 40
1.0
 40
1.0
 40
1.0
 40
1.0
 10
-4.19938
 20
2.17116
 30
0.0
 10
-4.19938
 20
2.17116
 30
0.0
 10
-3.83272
 20
2.17116
 30
0.0
 10
-3.83272
 20
2.17116
 30
0.0
  0
SPLINE
  5
153
330
1F
100
AcDbEntity
  8
0
370
    15
100
AcDbSpline
210
0.0
220
0.0
230
1.0
 70
    24
 71
     3
 72
     8
 73
     4
 74
     0
 42
0.0000000001
 43
0.0000000001
 40
0.0
 40
0.0
 40
0.0
 40
0.0
 40
1.0
 40
1.0
 40
1.0
 40
1.0
 10
-4.19938
 20
2.18418
 30
0.0
 10
-4.19938
 20
2.18418
 30
0.0
 10
-4.19938
 20
2.17116
 30
0.0
 10
-4.19938
 20
2.17116
 30
0.0
  0
SPLINE
  5
154
330
1F
100
AcDbEntity
  8
0
370
    15
100
AcDbSpline
210
0.0
220
0.0
230
1.0
 70
    24
 71
     3
 72
     8
 73
     4
 74
     0
 42
0.0000000001
 43
0.0000000001
 40
0.0
 40
0.0
 40
0.0
 40
0.0
 40
1.0
 40
1.0
 40
1.0
 40
1.0
 10
-3.04469
 20
2.45918
 30
0.0
 10
-3.04469
 20
2.45918
 30
0.0
 10
-3.04469
 20
4.05918
 30
0.0
 10
-3.04469
 20
4.05918
 30
0.0
  0
SPLINE
  5
155
330
1F
100
AcDbEntity
  8
0
370
    15
100
AcDbSpline
210
0.0
220
0.0
230
1.0
 70
     8
 71
     3
 72
     8
 73
     4
 74
     0
 42
0.0000000001
 43
0.0000000001
 40
0.0
 40
0.0
 40
0.0
 40
0.0
 40
1.0
 40
1.0
 40
1.0
 40
1.0
 10
-3.33272
 20
2.17116
 30
0.0
 10
-3.17364
 20
2.17116
 30
0.0
 10
-3.04469
 20
2.30011
 30
0.0
 10
-3.04469
 20
2.45918
 30
0.0
  0
SPLINE
  5
156
330
1F
100
AcDbEntity
  8
0
370
    15
100
AcDbSpline
210
0.0
220
0.0
230
1.0
 70
    24
 71
     3
 72
     8
 73
     4
 74
     0
 42
0.0000000001
 43
0.0000000001
 40
0.0
 40
0.0
 40
0.0
 40
0.0
 40
1.0
 40
1.0
 40
1.0
 40
1.0
 10
-3.83272
 20
2.17116
 30
0.0
 10
-3.83272
 20
2.17116
 30
0.0
 10
-3.33272
 20
2.17116
 30
0.0
 10
-3.33272
 20
2.17116
 30
0.0
  0
SPLINE
  5
157
330
1F
100
AcDbEntity
  8
0
370
    15
100
AcDbSpline
210
0.0
220
0.0
230
1.0
 70
    24
 71
     3
 72
     8
 73
     4
 74
     0
 42
0.0000000001
 43
0.0000000001
 40
0.0
 40
0.0
 40
0.0
 40
0.0
 40
1.0
 40
1.0
 40
1.0
 40
1.0
 10
-3.02881
 20
4.05918
 30
0.0
 10
-3.02881
 20
4.05918
 30
0.0
 10
-3.02881
 20
2.45918
 30
0.0
 10
-3.02881
 20
2.45918
 30
0.0
  0
SPLINE
  5
158
330
1F
100
AcDbEntity
  8
0
370
    15
100
AcDbSpline
210
0.0
220
0.0
230
1.0
 70
    24
 71
     3
 72
     8
 73
     4
 74
     0
 42
0.0000000001
 43
0.0000000001
 40
0.0
 40
0.0
 40
0.0
 40
0.0
 40
1.0
 40
1.0
 40
1.0
 40
1.0
 10
-3.02881
 20
2.45918
 30
0.0
 10
-3.02881
 20
2.45918
 30
0.0
 10
-3.04469
 20
2.45918
 30
0.0
 10
-3.04469
 20
2.45918
 30
0.0
  0
SPLINE
  5
159
330
1F
100
AcDbEntity
  8
0
370
    15
100
AcDbSpline
210
0.0
220
0.0
230
1.0
 70
     8
 71
     3
 72
     8
 73
     4
 74
     0
 42
0.0000000001
 43
0.0000000001
 40
0.0
 40
0.0
 40
0.0
 40
0.0
 40
1.0
 40
1.0
 40
1.0
 40
1.0
 10
-3.33272
 20
2.15528
 30
0.0
 10
-3.16488
 20
2.15528
 30
0.0
 10
-3.02882
 20
2.29134
 30
0.0
 10
-3.02881
 20
2.45918
 30
0.0
  0
SPLINE
  5
15A
330
1F
100
AcDbEntity
  8
0
370
    15
100
AcDbSpline
210
0.0
220
0.0
230
1.0
 70
    24
 71
     3
 72
     8
 73
     4
 74
     0
 42
0.0000000001
 43
0.0000000001
 40
0.0
 40
0.0
 40
0.0
 40
0.0
 40
1.0
 40
1.0
 40
1.0
 40
1.0
 10
-3.33272
 20
2.15528
 30
0.0
 10
-3.33272
 20
2.15528
 30
0.0
 10
-3.33272
 20
2.17116
 30
0.0
 10
-3.33272
 20
2.17116
 30
0.0
  0
SPLINE
  5
15B
330
1F
100
AcDbEntity
  8
0
370
    15
100
AcDbSpline
210
0.0
220
0.0
230
1.0
 70
    24
 71
     3
 72
     8
 73
     4
 74
     0
 42
0.0000000001
 43
0.0000000001
 40
0.0
 40
0.0
 40
0.0
 40
0.0
 40
1.0
 40
1.0
 40
1.0
 40
1.0
 10
-3.33272
 20
2.15528
 30
0.0
 10
-3.33272
 20
2.15528
 30
0.0
 10
-3.83272
 20
2.15528
 30
0.0
 10
-3.83272
 20
2.15528
 30
0.0
  0
SPLINE
  5
15C
330
1F
100
AcDbEntity
  8
0
370
    15
100
AcDbSpline
210
0.0
220
0.0
230
1.0
 70
    24
 71
     3
 72
     8
 73
     4
 74
     0
 42
0.0000000001
 43
0.0000000001
 40
0.0
 40
0.0
 40
0.0
 40
0.0
 40
1.0
 40
1.0
 40
1.0
 40
1.0
 10
-3.83272
 20
2.15528
 30
0.0
 10
-3.83272
 20
2.15528
 30
0.0
 10
-3.83272
 20
2.17116
 30
0.0
 10
-3.83272
 20
2.17116
 30
0.0
  0
SPLINE
  5
15D
330
1F
100
AcDbEntity
  8
0
370
    15
100
AcDbSpline
210
0.0
220
0.0
230
1.0
 70
    24
 71
     3
 72
     8
 73
     4
 74
     0
 42
0.0000000001
 43
0.0000000001
 40
0.0
 40
0.0
 40
0.0
 40
0.0
 40
1.0
 40
1.0
 40
1.0
 40
1.0
 10
-3.83272
 20
2.15528
 30
0.0
 10
-3.83272
 20
2.15528
 30
0.0
 10
-4.18779
 20
2.15528
 30
0.0
 10
-4.18779
 20
2.15528
 30
0.0
  0
SPLINE
  5
15E
330
1F
100
AcDbEntity
  8
0
370
    15
100
AcDbSpline
210
0.0
220
0.0
230
1.0
 70
     8
 71
     3
 72
     8
 73
     4
 74
     0
 42
0.0000000001
 43
0.0000000001
 40
0.0
 40
0.0
 40
0.0
 40
0.0
 40
1.0
 40
1.0
 40
1.0
 40
1.0
 10
-4.19938
 20
2.17116
 30
0.0
 10
-4.19938
 20
2.1639
 30
0.0
 10
-4.19469
 20
2.15749
 30
0.0
 10
-4.18779
 20
2.15528
 30
0.0
  0
SPLINE
  5
15F
330
1F
100
AcDbEntity
  8
0
370
    15
100
AcDbSpline
210
0.0
220
0.0
230
1.0
 70
     8
 71
     3
 72
     8
 73
     4
 74
     0
 42
0.0000000001
 43
0.0000000001
 40
0.0
 40
0.0
 40
0.0
 40
0.0
 40
1.0
 40
1.0
 40
1.0
 40
1.0
 10
-4.06605
 20
4.38206
 30
0.0
 10
-4.10736
 20
4.38206
 30
0.0
 10
-4.14843
 20
4.37566
 30
0.0
 10
-4.18779
 20
4.36308
 30
0.0
  0
SPLINE
  5
160
330
1F
100
AcDbEntity
  8
0
370
    15
100
AcDbSpline
210
0.0
220
0.0
230
1.0
 70
     8
 71
     3
 72
     8
 73
     4
 74
     0
 42
0.0000000001
 43
0.0000000001
 40
0.0
 40
0.0
 40
0.0
 40
0.0
 40
1.0
 40
1.0
 40
1.0
 40
1.0
 10
-4.18779
 20
2.15528
 30
0.0
 10
-4.14843
 20
2.14271
 30
0.0
 10
-4.10736
 20
2.1363
 30
0.0
 10
-4.06605
 20
2.1363
 30
0.0
  0
SPLINE
  5
161
330
1F
100
AcDbEntity
  8
0
370
    15
100
AcDbSpline
210
0.0
220
0.0
230
1.0
 70
    24
 71
     3
 72
     8
 73
     4
 74
     0
 42
0.0000000001
 43
0.0000000001
 40
0.0
 40
0.0
 40
0.0
 40
0.0
 40
1.0
 40
1.0
 40
1.0
 40
1.0
 10
-4.11309
 20
4.22585
 30
0.0
 10
-4.11309
 20
4.22585
 30
0.0
 10
-4.11946
 20
4.22585
 30
0.0
 10
-4.11946
 20
4.22585
 30
0.0
  0
SPLINE
  5
162
330
1F
100
AcDbEntity
  8
0
370
    15
100
AcDbSpline
210
0.0
220
0.0
230
1.0
 70
     8
 71
     3
 72
    36
 73
    32
 74
     0
 42
0.0000000001
 43
0.0000000001
 40
0.0
 40
0.0
 40
0.0
 40
0.0
 40
0.1111111111111111
 40
0.1111111111111111
 40
0.1111111111111111
 40
0.1111111111111111
 40
0.2222222222222222
 40
0.2222222222222222
 40
0.2222222222222222
 40
0.2222222222222222
 40
0.3333333333333333
 40
0.3333333333333333
 40
0.3333333333333333
 40
0.3333333333333333
 40
0.4444444444444444
 40
0.4444444444444444
 40
0.4444444444444444
 40
0.4444444444444444
 40
0.5555555555555556
 40
0.5555555555555556
 40
0.5555555555555556
 40
0.5555555555555556
 40
0.6666666666666666
 40
0.6666666666666666
 40
0.6666666666666666
 40
0.6666666666666666
 40
0.7777777777777778
 40
0.7777777777777778
 40
0.7777777777777778
 40
0.7777777777777778
 40
1.0
 40
1.0
 40
1.0
 40
1.0
 10
-4.11946
 20
4.22585
 30
0.0
 10
-4.11946
 20
4.23307
 30
0.0
 10
-4.12018
 20
4.2402
 30
0.0
 10
-4.12153
 20
4.2471
 30
0.0
 10
-4.12153
 20
4.2471
 30
0.0
 10
-4.12287
 20
4.25399
 30
0.0
 10
-4.12479
 20
4.26048
 30
0.0
 10
-4.12714
 20
4.26664
 30
0.0
 10
-4.12714
 20
4.26664
 30
0.0
 10
-4.1295
 20
4.2728
 30
0.0
 10
-4.13227
 20
4.27858
 30
0.0
 10
-4.13523
 20
4.28381
 30
0.0
 10
-4.13523
 20
4.28381
 30
0.0
 10
-4.13818
 20
4.28905
 30
0.0
 10
-4.14135
 20
4.29382
 30
0.0
 10
-4.14466
 20
4.29819
 30
0.0
 10
-4.14466
 20
4.29819
 30
0.0
 10
-4.14796
 20
4.30255
 30
0.0
 10
-4.15138
 20
4.30647
 30
0.0
 10
-4.15477
 20
4.30985
 30
0.0
 10
-4.15477
 20
4.30985
 30
0.0
 10
-4.15816
 20
4.31323
 30
0.0
 10
-4.16153
 20
4.31612
 30
0.0
 10
-4.16486
 20
4.31851
 30
0.0
 10
-4.16486
 20
4.31851
 30
0.0
 10
-4.1682
 20
4.32089
 30
0.0
 10
-4.17143
 20
4.32272
 30
0.0
 10
-4.1745
 20
4.32396
 30
0.0
 10
-4.1745
 20
4.32396
 30
0.0
 10
-4.17756
 20
4.32519
 30
0.0
 10
-4.18047
 20
4.32585
 30
0.0
 10
-4.18321
 20
4.32585
 30
0.0
  0
SPLINE
  5
163
330
1F
100
AcDbEntity
  8
0
370
    15
100
AcDbSpline
210
0.0
220
0.0
230
1.0
 70
     8
 71
     3
 72
     8
 73
     4
 74
     0
 42
0.0000000001
 43
0.0000000001
 40
0.0
 40
0.0
 40
0.0
 40
0.0
 40
1.0
 40
1.0
 40
1.0
 40
1.0
 10
-4.18321
 20
4.32585
 30
0.0
 10
-4.17876
 20
4.326
 30
0.0
 10
-4.17528
 20
4.32973
 30
0.0
 10
-4.17542
 20
4.33418
 30
0.0
  0
SPLINE
  5
164
330
1F
100
AcDbEntity
  8
0
370
    15
100
AcDbSpline
210
0.0
220
0.0
230
1.0
 70
     8
 71
     3
 72
     8
 73
     4
 74
     0
 42
0.0000000001
 43
0.0000000001
 40
0.0
 40
0.0
 40
0.0
 40
0.0
 40
1.0
 40
1.0
 40
1.0
 40
1.0
 10
-4.17542
 20
2.18418
 30
0.0
 10
-4.17528
 20
2.18863
 30
0.0
 10
-4.17876
 20
2.19236
 30
0.0
 10
-4.18321
 20
2.19251
 30
0.0
  0
SPLINE
  5
165
330
1F
100
AcDbEntity
  8
0
370
    15
100
AcDbSpline
210
0.0
220
0.0
230
1.0
 70
     8
 71
     3
 72
    32
 73
    28
 74
     0
 42
0.0000000001
 43
0.0000000001
 40
0.0
 40
0.0
 40
0.0
 40
0.0
 40
0.125
 40
0.125
 40
0.125
 40
0.125
 40
0.25
 40
0.25
 40
0.25
 40
0.25
 40
0.375
 40
0.375
 40
0.375
 40
0.375
 40
0.5
 40
0.5
 40
0.5
 40
0.5
 40
0.625
 40
0.625
 40
0.625
 40
0.625
 40
0.75
 40
0.75
 40
0.75
 40
0.75
 40
1.0
 40
1.0
 40
1.0
 40
1.0
 10
-4.18321
 20
2.19251
 30
0.0
 10
-4.17773
 20
2.19251
 30
0.0
 10
-4.17156
 20
2.19507
 30
0.0
 10
-4.16488
 20
2.19984
 30
0.0
 10
-4.16488
 20
2.19984
 30
0.0
 10
-4.16154
 20
2.20223
 30
0.0
 10
-4.15816
 20
2.20512
 30
0.0
 10
-4.15478
 20
2.2085
 30
0.0
 10
-4.15478
 20
2.2085
 30
0.0
 10
-4.15139
 20
2.21189
 30
0.0
 10
-4.14797
 20
2.21579
 30
0.0
 10
-4.14466
 20
2.22017
 30
0.0
 10
-4.14466
 20
2.22017
 30
0.0
 10
-4.14135
 20
2.22454
 30
0.0
 10
-4.13816
 20
2.22935
 30
0.0
 10
-4.13518
 20
2.23464
 30
0.0
 10
-4.13518
 20
2.23464
 30
0.0
 10
-4.1322
 20
2.23993
 30
0.0
 10
-4.12943
 20
2.24571
 30
0.0
 10
-4.1271
 20
2.25185
 30
0.0
 10
-4.1271
 20
2.25185
 30
0.0
 10
-4.12476
 20
2.25798
 30
0.0
 10
-4.12281
 20
2.26463
 30
0.0
 10
-4.12149
 20
2.27146
 30
0.0
 10
-4.12149
 20
2.27146
 30
0.0
 10
-4.12017
 20
2.27829
 30
0.0
 10
-4.11946
 20
2.2853
 30
0.0
 10
-4.11946
 20
2.29251
 30
0.0
  0
SPLINE
  5
166
330
1F
100
AcDbEntity
  8
0
370
    15
100
AcDbSpline
210
0.0
220
0.0
230
1.0
 70
    24
 71
     3
 72
     8
 73
     4
 74
     0
 42
0.0000000001
 43
0.0000000001
 40
0.0
 40
0.0
 40
0.0
 40
0.0
 40
1.0
 40
1.0
 40
1.0
 40
1.0
 10
-4.11309
 20
2.29251
 30
0.0
 10
-4.11309
 20
2.29251
 30
0.0
 10
-4.11946
 20
2.29251
 30
0.0
 10
-4.11946
 20
2.29251
 30
0.0
  0
SPLINE
  5
167
330
1F
100
AcDbEntity
  8
0
370
    15
100
AcDbSpline
210
0.0
220
0.0
230
1.0
 70
    24
 71
     3
 72
     8
 73
     4
 74
     0
 42
0.0000000001
 43
0.0000000001
 40
0.0
 40
0.0
 40
0.0
 40
0.0
 40
1.0
 40
1.0
 40
1.0
 40
1.0
 10
-4.11946
 20
2.29251
 30
0.0
 10
-4.11946
 20
2.29251
 30
0.0
 10
-4.11946
 20
4.22585
 30
0.0
 10
-4.11946
 20
4.22585
 30
0.0
  0
SPLINE
  5
168
330
1F
100
AcDbEntity
  8
0
370
    15
100
AcDbSpline
210
0.0
220
0.0
230
1.0
 70
    24
 71
     3
 72
     8
 73
     4
 74
     0
 42
0.0000000001
 43
0.0000000001
 40
0.0
 40
0.0
 40
0.0
 40
0.0
 40
1.0
 40
1.0
 40
1.0
 40
1.0
 10
-4.11946
 20
4.22585
 30
0.0
 10
-4.11946
 20
4.22585
 30
0.0
 10
-4.24938
 20
4.22585
 30
0.0
 10
-4.24938
 20
4.22585
 30
0.0
  0
SPLINE
  5
169
330
1F
100
AcDbEntity
  8
0
370
    15
100
AcDbSpline
210
0.0
220
0.0
230
1.0
 70
    24
 71
     3
 72
     8
 73
     4
 74
     0
 42
0.0000000001
 43
0.0000000001
 40
0.0
 40
0.0
 40
0.0
 40
0.0
 40
1.0
 40
1.0
 40
1.0
 40
1.0
 10
-4.24938
 20
4.32585
 30
0.0
 10
-4.24938
 20
4.32585
 30
0.0
 10
-4.24938
 20
4.22585
 30
0.0
 10
-4.24938
 20
4.22585
 30
0.0
  0
SPLINE
  5
16A
330
1F
100
AcDbEntity
  8
0
370
    15
100
AcDbSpline
210
0.0
220
0.0
230
1.0
 70
    24
 71
     3
 72
     8
 73
     4
 74
     0
 42
0.0000000001
 43
0.0000000001
 40
0.0
 40
0.0
 40
0.0
 40
0.0
 40
1.0
 40
1.0
 40
1.0
 40
1.0
 10
-4.24938
 20
4.32585
 30
0.0
 10
-4.24938
 20
4.32585
 30
0.0
 10
-4.18321
 20
4.32585
 30
0.0
 10
-4.18321
 20
4.32585
 30
0.0
  0
SPLINE
  5
16B
330
1F
100
AcDbEntity
  8
0
370
    15
100
AcDbSpline
210
0.0
220
0.0
230
1.0
 70
    24
 71
     3
 72
     8
 73
     4
 74
     0
 42
0.0000000001
 43
0.0000000001
 40
0.0
 40
0.0
 40
0.0
 40
0.0
 40
1.0
 40
1.0
 40
1.0
 40
1.0
 10
-4.24938
 20
4.22585
 30
0.0
 10
-4.24938
 20
4.22585
 30
0.0
 10
-4.26605
 20
4.22585
 30
0.0
 10
-4.26605
 20
4.22585
 30
0.0
  0
SPLINE
  5
16C
330
1F
100
AcDbEntity
  8
0
370
    15
100
AcDbSpline
210
0.0
220
0.0
230
1.0
 70
    24
 71
     3
 72
     8
 73
     4
 74
     0
 42
0.0000000001
 43
0.0000000001
 40
0.0
 40
0.0
 40
0.0
 40
0.0
 40
1.0
 40
1.0
 40
1.0
 40
1.0
 10
-4.26605
 20
4.22585
 30
0.0
 10
-4.26605
 20
4.22585
 30
0.0
 10
-4.26605
 20
4.30918
 30
0.0
 10
-4.26605
 20
4.30918
 30
0.0
  0
SPLINE
  5
16D
330
1F
100
AcDbEntity
  8
0
370
    15
100
AcDbSpline
210
0.0
220
0.0
230
1.0
 70
     8
 71
     3
 72
    12
 73
     8
 74
     0
 42
0.0000000001
 43
0.0000000001
 40
0.0
 40
0.0
 40
0.0
 40
0.0
 40
0.3333333333333333
 40
0.3333333333333333
 40
0.3333333333333333
 40
0.3333333333333333
 40
1.0
 40
1.0
 40
1.0
 40
1.0
 10
-4.24938
 20
4.32585
 30
0.0
 10
-4.2538
 20
4.32585
 30
0.0
 10
-4.25804
 20
4.32409
 30
0.0
 10
-4.26117
 20
4.32097
 30
0.0
 10
-4.26117
 20
4.32097
 30
0.0
 10
-4.26429
 20
4.31784
 30
0.0
 10
-4.26605
 20
4.3136
 30
0.0
 10
-4.26605
 20
4.30918
 30
0.0
  0
SPLINE
  5
16E
330
1F
100
AcDbEntity
  8
0
370
    15
100
AcDbSpline
210
0.0
220
0.0
230
1.0
 70
    24
 71
     3
 72
     8
 73
     4
 74
     0
 42
0.0000000001
 43
0.0000000001
 40
0.0
 40
0.0
 40
0.0
 40
0.0
 40
1.0
 40
1.0
 40
1.0
 40
1.0
 10
-4.24938
 20
2.29251
 30
0.0
 10
-4.24938
 20
2.29251
 30
0.0
 10
-4.11946
 20
2.29251
 30
0.0
 10
-4.11946
 20
2.29251
 30
0.0
  0
SPLINE
  5
16F
330
1F
100
AcDbEntity
  8
0
370
    15
100
AcDbSpline
210
0.0
220
0.0
230
1.0
 70
    24
 71
     3
 72
     8
 73
     4
 74
     0
 42
0.0000000001
 43
0.0000000001
 40
0.0
 40
0.0
 40
0.0
 40
0.0
 40
1.0
 40
1.0
 40
1.0
 40
1.0
 10
-4.24938
 20
4.22585
 30
0.0
 10
-4.24938
 20
4.22585
 30
0.0
 10
-4.24938
 20
2.29251
 30
0.0
 10
-4.24938
 20
2.29251
 30
0.0
  0
SPLINE
  5
170
330
1F
100
AcDbEntity
  8
0
370
    15
100
AcDbSpline
210
0.0
220
0.0
230
1.0
 70
    24
 71
     3
 72
     8
 73
     4
 74
     0
 42
0.0000000001
 43
0.0000000001
 40
0.0
 40
0.0
 40
0.0
 40
0.0
 40
1.0
 40
1.0
 40
1.0
 40
1.0
 10
-4.24938
 20
2.29251
 30
0.0
 10
-4.24938
 20
2.29251
 30
0.0
 10
-4.26605
 20
2.29251
 30
0.0
 10
-4.26605
 20
2.29251
 30
0.0
  0
SPLINE
  5
171
330
1F
100
AcDbEntity
  8
0
370
    15
100
AcDbSpline
210
0.0
220
0.0
230
1.0
 70
    24
 71
     3
 72
     8
 73
     4
 74
     0
 42
0.0000000001
 43
0.0000000001
 40
0.0
 40
0.0
 40
0.0
 40
0.0
 40
1.0
 40
1.0
 40
1.0
 40
1.0
 10
-4.26605
 20
2.29251
 30
0.0
 10
-4.26605
 20
2.29251
 30
0.0
 10
-4.26605
 20
4.22585
 30
0.0
 10
-4.26605
 20
4.22585
 30
0.0
  0
SPLINE
  5
172
330
1F
100
AcDbEntity
  8
0
370
    15
100
AcDbSpline
210
0.0
220
0.0
230
1.0
 70
    24
 71
     3
 72
     8
 73
     4
 74
     0
 42
0.0000000001
 43
0.0000000001
 40
0.0
 40
0.0
 40
0.0
 40
0.0
 40
1.0
 40
1.0
 40
1.0
 40
1.0
 10
-4.18321
 20
2.19251
 30
0.0
 10
-4.18321
 20
2.19251
 30
0.0
 10
-4.24938
 20
2.19251
 30
0.0
 10
-4.24938
 20
2.19251
 30
0.0
  0
SPLINE
  5
173
330
1F
100
AcDbEntity
  8
0
370
    15
100
AcDbSpline
210
0.0
220
0.0
230
1.0
 70
    24
 71
     3
 72
     8
 73
     4
 74
     0
 42
0.0000000001
 43
0.0000000001
 40
0.0
 40
0.0
 40
0.0
 40
0.0
 40
1.0
 40
1.0
 40
1.0
 40
1.0
 10
-4.24938
 20
2.29251
 30
0.0
 10
-4.24938
 20
2.29251
 30
0.0
 10
-4.24938
 20
2.19251
 30
0.0
 10
-4.24938
 20
2.19251
 30
0.0
  0
SPLINE
  5
174
330
1F
100
AcDbEntity
  8
0
370
    15
100
AcDbSpline
210
0.0
220
0.0
230
1.0
 70
     8
 71
     3
 72
    12
 73
     8
 74
     0
 42
0.0000000001
 43
0.0000000001
 40
0.0
 40
0.0
 40
0.0
 40
0.0
 40
0.3333333333333333
 40
0.3333333333333333
 40
0.3333333333333333
 40
0.3333333333333333
 40
1.0
 40
1.0
 40
1.0
 40
1.0
 10
-4.26605
 20
2.20918
 30
0.0
 10
-4.26605
 20
2.20476
 30
0.0
 10
-4.26429
 20
2.20052
 30
0.0
 10
-4.26117
 20
2.1974
 30
0.0
 10
-4.26117
 20
2.1974
 30
0.0
 10
-4.25804
 20
2.19427
 30
0.0
 10
-4.2538
 20
2.19251
 30
0.0
 10
-4.24938
 20
2.19251
 30
0.0
  0
SPLINE
  5
175
330
1F
100
AcDbEntity
  8
0
370
    15
100
AcDbSpline
210
0.0
220
0.0
230
1.0
 70
    24
 71
     3
 72
     8
 73
     4
 74
     0
 42
0.0000000001
 43
0.0000000001
 40
0.0
 40
0.0
 40
0.0
 40
0.0
 40
1.0
 40
1.0
 40
1.0
 40
1.0
 10
-4.26605
 20
2.20918
 30
0.0
 10
-4.26605
 20
2.20918
 30
0.0
 10
-4.26605
 20
2.29251
 30
0.0
 10
-4.26605
 20
2.29251
 30
0.0
  0
SPLINE
  5
176
330
1F
100
AcDbEntity
  8
0
370
    15
100
AcDbSpline
210
0.0
220
0.0
230
1.0
 70
     8
 71
     3
 72
     8
 73
     4
 74
     0
 42
0.0000000001
 43
0.0000000001
 40
0.0
 40
0.0
 40
0.0
 40
0.0
 40
1.0
 40
1.0
 40
1.0
 40
1.0
 10
-4.20772
 20
4.32585
 30
0.0
 10
-4.20311
 20
4.32585
 30
0.0
 10
-4.19938
 20
4.32958
 30
0.0
 10
-4.19938
 20
4.33418
 30
0.0
  0
SPLINE
  5
177
330
1F
100
AcDbEntity
  8
0
370
    15
100
AcDbSpline
210
0.0
220
0.0
230
1.0
 70
     8
 71
     3
 72
    12
 73
     8
 74
     0
 42
0.0000000001
 43
0.0000000001
 40
0.0
 40
0.0
 40
0.0
 40
0.0
 40
0.3333333333333333
 40
0.3333333333333333
 40
0.3333333333333333
 40
0.3333333333333333
 40
1.0
 40
1.0
 40
1.0
 40
1.0
 10
-4.19938
 20
2.18418
 30
0.0
 10
-4.19938
 20
2.18639
 30
0.0
 10
-4.20026
 20
2.18851
 30
0.0
 10
-4.20182
 20
2.19007
 30
0.0
 10
-4.20182
 20
2.19007
 30
0.0
 10
-4.20339
 20
2.19164
 30
0.0
 10
-4.20551
 20
2.19251
 30
0.0
 10
-4.20772
 20
2.19251
 30
0.0
  0
SPLINE
  5
178
330
1F
100
AcDbEntity
  8
0
 62
     8
370
    15
100
AcDbSpline
210
0.0
220
0.0
230
1.0
 70
    24
 71
     3
 72
     8
 73
     4
 74
     0
 42
0.0000000001
 43
0.0000000001
 40
0.0
 40
0.0
 40
0.0
 40
0.0
 40
1.0
 40
1.0
 40
1.0
 40
1.0
 10
-3.83272
 20
4.36308
 30
0.0
 10
-3.83272
 20
4.36308
 30
0.0
 10
-3.83272
 20
4.38206
 30
0.0
 10
-3.83272
 20
4.38206
 30
0.0
  0
SPLINE
  5
179
330
1F
100
AcDbEntity
  8
0
 62
     8
370
    15
100
AcDbSpline
210
0.0
220
0.0
230
1.0
 70
    24
 71
     3
 72
     8
 73
     4
 74
     0
 42
0.0000000001
 43
0.0000000001
 40
0.0
 40
0.0
 40
0.0
 40
0.0
 40
1.0
 40
1.0
 40
1.0
 40
1.0
 10
-3.33272
 20
4.36308
 30
0.0
 10
-3.33272
 20
4.36308
 30
0.0
 10
-3.33272
 20
4.38206
 30
0.0
 10
-3.33272
 20
4.38206
 30
0.0
  0
SPLINE
  5
17A
330
1F
100
AcDbEntity
  8
0
 62
     8
370
    15
100
AcDbSpline
210
0.0
220
0.0
230
1.0
 70
    24
 71
     3
 72
     8
 73
     4
 74
     0
 42
0.0000000001
 43
0.0000000001
 40
0.0
 40
0.0
 40
0.0
 40
0.0
 40
1.0
 40
1.0
 40
1.0
 40
1.0
 10
-3.02881
 20
4.05918
 30
0.0
 10
-3.02881
 20
4.05918
 30
0.0
 10
-3.00984
 20
4.05918
 30
0.0
 10
-3.00984
 20
4.05918
 30
0.0
  0
SPLINE
  5
17B
330
1F
100
AcDbEntity
  8
0
 62
     8
370
    15
100
AcDbSpline
210
0.0
220
0.0
230
1.0
 70
    24
 71
     3
 72
     8
 73
     4
 74
     0
 42
0.0000000001
 43
0.0000000001
 40
0.0
 40
0.0
 40
0.0
 40
0.0
 40
1.0
 40
1.0
 40
1.0
 40
1.0
 10
-3.02881
 20
2.45918
 30
0.0
 10
-3.02881
 20
2.45918
 30
0.0
 10
-3.00984
 20
2.45918
 30
0.0
 10
-3.00984
 20
2.45918
 30
0.0
  0
SPLINE
  5
17C
330
1F
100
AcDbEntity
  8
0
 62
     8
370
    15
100
AcDbSpline
210
0.0
220
0.0
230
1.0
 70
    24
 71
     3
 72
     8
 73
     4
 74
     0
 42
0.0000000001
 43
0.0000000001
 40
0.0
 40
0.0
 40
0.0
 40
0.0
 40
1.0
 40
1.0
 40
1.0
 40
1.0
 10
-3.33272
 20
2.15528
 30
0.0
 10
-3.33272
 20
2.15528
 30
0.0
 10
-3.33272
 20
2.1363
 30
0.0
 10
-3.33272
 20
2.1363
 30
0.0
  0
SPLINE
  5
17D
330
1F
100
AcDbEntity
  8
0
 62
     8
370
    15
100
AcDbSpline
210
0.0
220
0.0
230
1.0
 70
    24
 71
     3
 72
     8
 73
     4
 74
     0
 42
0.0000000001
 43
0.0000000001
 40
0.0
 40
0.0
 40
0.0
 40
0.0
 40
1.0
 40
1.0
 40
1.0
 40
1.0
 10
-3.83272
 20
2.15528
 30
0.0
 10
-3.83272
 20
2.15528
 30
0.0
 10
-3.83272
 20
2.1363
 30
0.0
 10
-3.83272
 20
2.1363
 30
0.0
  0
SPLINE
  5
17E
330
1F
100
AcDbEntity
  8
0
100
AcDbSpline
210
0.0
220
0.0
230
1.0
 70
    27
 71
     3
 72
    12
 73
     8
 74
     0
 42
0.0000000001
 43
0.0000000001
 40
0.0
 40
0.0
 40
0.0
 40
0.0
 40
0.3333333333333333
 40
0.3333333333333333
 40
0.3333333333333333
 40
0.3333333333333333
 40
1.0
 40
1.0
 40
1.0
 40
1.0
 10
7.84775
 20
3.95918
 30
0.0
 10
7.84775
 20
3.95918
 30
0.0
 10
7.79695
 20
4.28938
 30
0.0
 10
7.79695
 20
4.28938
 30
0.0
 10
7.79695
 20
4.28938
 30
0.0
 10
7.79695
 20
4.28938
 30
0.0
 10
7.84775
 20
3.95918
 30
0.0
 10
7.84775
 20
3.95918
 30
0.0
  0
SPLINE
  5
17F
330
1F
100
AcDbEntity
  8
0
100
AcDbSpline
210
0.0
220
0.0
230
1.0
 70
     8
 71
     3
 72
    12
 73
     8
 74
     0
 42
0.0000000001
 43
0.0000000001
 40
0.0
 40
0.0
 40
0.0
 40
0.0
 40
0.3333333333333333
 40
0.3333333333333333
 40
0.3333333333333333
 40
0.3333333333333333
 40
1.0
 40
1.0
 40
1.0
 40
1.0
 10
7.79695
 20
4.28938
 30
0.0
 10
7.79695
 20
4.28938
 30
0.0
 10
7.89855
 20
4.28938
 30
0.0
 10
7.89855
 20
4.28938
 30
0.0
 10
7.89855
 20
4.28938
 30
0.0
 10
7.89855
 20
4.28938
 30
0.0
 10
7.84775
 20
3.95918
 30
0.0
 10
7.84775
 20
3.95918
 30
0.0
  0
SPLINE
  5
180
330
1F
100
AcDbEntity
  8
0
370
     9
100
AcDbSpline
210
0.0
220
0.0
230
1.0
 70
    24
 71
     3
 72
     8
 73
     4
 74
     0
 42
0.0000000001
 43
0.0000000001
 40
0.0
 40
0.0
 40
0.0
 40
0.0
 40
1.0
 40
1.0
 40
1.0
 40
1.0
 10
7.84775
 20
3.95918
 30
0.0
 10
7.84775
 20
3.95918
 30
0.0
 10
7.79695
 20
4.28938
 30
0.0
 10
7.79695
 20
4.28938
 30
0.0
  0
SPLINE
  5
181
330
1F
100
AcDbEntity
  8
0
370
     9
100
AcDbSpline
210
0.0
220
0.0
230
1.0
 70
     8
 71
     3
 72
    12
 73
     8
 74
     0
 42
0.0000000001
 43
0.0000000001
 40
0.0
 40
0.0
 40
0.0
 40
0.0
 40
0.3333333333333333
 40
0.3333333333333333
 40
0.3333333333333333
 40
0.3333333333333333
 40
1.0
 40
1.0
 40
1.0
 40
1.0
 10
7.79695
 20
4.28938
 30
0.0
 10
7.79695
 20
4.28938
 30
0.0
 10
7.89855
 20
4.28938
 30
0.0
 10
7.89855
 20
4.28938
 30
0.0
 10
7.89855
 20
4.28938
 30
0.0
 10
7.89855
 20
4.28938
 30
0.0
 10
7.84775
 20
3.95918
 30
0.0
 10
7.84775
 20
3.95918
 30
0.0
  0
SPLINE
  5
182
330
1F
100
AcDbEntity
  8
0
100
AcDbSpline
210
0.0
220
0.0
230
1.0
 70
    27
 71
     3
 72
    12
 73
     8
 74
     0
 42
0.0000000001
 43
0.0000000001
 40
0.0
 40
0.0
 40
0.0
 40
0.0
 40
0.3333333333333333
 40
0.3333333333333333
 40
0.3333333333333333
 40
0.3333333333333333
 40
1.0
 40
1.0
 40
1.0
 40
1.0
 10
7.84775
 20
2.55918
 30
0.0
 10
7.84775
 20
2.55918
 30
0.0
 10
7.89855
 20
2.22898
 30
0.0
 10
7.89855
 20
2.22898
 30
0.0
 10
7.89855
 20
2.22898
 30
0.0
 10
7.89855
 20
2.22898
 30
0.0
 10
7.84775
 20
2.55918
 30
0.0
 10
7.84775
 20
2.55918
 30
0.0
  0
SPLINE
  5
183
330
1F
100
AcDbEntity
  8
0
100
AcDbSpline
210
0.0
220
0.0
230
1.0
 70
     8
 71
     3
 72
    12
 73
     8
 74
     0
 42
0.0000000001
 43
0.0000000001
 40
0.0
 40
0.0
 40
0.0
 40
0.0
 40
0.3333333333333333
 40
0.3333333333333333
 40
0.3333333333333333
 40
0.3333333333333333
 40
1.0
 40
1.0
 40
1.0
 40
1.0
 10
7.89855
 20
2.22898
 30
0.0
 10
7.89855
 20
2.22898
 30
0.0
 10
7.79695
 20
2.22898
 30
0.0
 10
7.79695
 20
2.22898
 30
0.0
 10
7.79695
 20
2.22898
 30
0.0
 10
7.79695
 20
2.22898
 30
0.0
 10
7.84775
 20
2.55918
 30
0.0
 10
7.84775
 20
2.55918
 30
0.0
  0
SPLINE
  5
184
330
1F
100
AcDbEntity
  8
0
370
     9
100
AcDbSpline
210
0.0
220
0.0
230
1.0
 70
    24
 71
     3
 72
     8
 73
     4
 74
     0
 42
0.0000000001
 43
0.0000000001
 40
0.0
 40
0.0
 40
0.0
 40
0.0
 40
1.0
 40
1.0
 40
1.0
 40
1.0
 10
7.84775
 20
2.55918
 30
0.0
 10
7.84775
 20
2.55918
 30
0.0
 10
7.89855
 20
2.22898
 30
0.0
 10
7.89855
 20
2.22898
 30
0.0
  0
SPLINE
  5
185
330
1F
100
AcDbEntity
  8
0
370
     9
100
AcDbSpline
210
0.0
220
0.0
230
1.0
 70
     8
 71
     3
 72
    12
 73
     8
 74
     0
 42
0.0000000001
 43
0.0000000001
 40
0.0
 40
0.0
 40
0.0
 40
0.0
 40
0.3333333333333333
 40
0.3333333333333333
 40
0.3333333333333333
 40
0.3333333333333333
 40
1.0
 40
1.0
 40
1.0
 40
1.0
 10
7.89855
 20
2.22898
 30
0.0
 10
7.89855
 20
2.22898
 30
0.0
 10
7.79695
 20
2.22898
 30
0.0
 10
7.79695
 20
2.22898
 30
0.0
 10
7.79695
 20
2.22898
 30
0.0
 10
7.79695
 20
2.22898
 30
0.0
 10
7.84775
 20
2.55918
 30
0.0
 10
7.84775
 20
2.55918
 30
0.0
  0
SPLINE
  5
186
330
1F
100
AcDbEntity
  8
0
370
     9
100
AcDbSpline
210
0.0
220
0.0
230
1.0
 70
    24
 71
     3
 72
     8
 73
     4
 74
     0
 42
0.0000000001
 43
0.0000000001
 40
0.0
 40
0.0
 40
0.0
 40
0.0
 40
1.0
 40
1.0
 40
1.0
 40
1.0
 10
7.01728
 20
3.95918
 30
0.0
 10
7.01728
 20
3.95918
 30
0.0
 10
7.94775
 20
3.95918
 30
0.0
 10
7.94775
 20
3.95918
 30
0.0
  0
SPLINE
  5
187
330
1F
100
AcDbEntity
  8
0
370
     9
100
AcDbSpline
210
0.0
220
0.0
230
1.0
 70
    24
 71
     3
 72
     8
 73
     4
 74
     0
 42
0.0000000001
 43
0.0000000001
 40
0.0
 40
0.0
 40
0.0
 40
0.0
 40
1.0
 40
1.0
 40
1.0
 40
1.0
 10
7.01728
 20
2.55918
 30
0.0
 10
7.01728
 20
2.55918
 30
0.0
 10
7.94775
 20
2.55918
 30
0.0
 10
7.94775
 20
2.55918
 30
0.0
  0
SPLINE
  5
188
330
1F
100
AcDbEntity
  8
0
370
     9
100
AcDbSpline
210
0.0
220
0.0
230
1.0
 70
    24
 71
     3
 72
     8
 73
     4
 74
     0
 42
0.0000000001
 43
0.0000000001
 40
0.0
 40
0.0
 40
0.0
 40
0.0
 40
1.0
 40
1.0
 40
1.0
 40
1.0
 10
7.84775
 20
3.95918
 30
0.0
 10
7.84775
 20
3.95918
 30
0.0
 10
7.84775
 20
4.59418
 30
0.0
 10
7.84775
 20
4.59418
 30
0.0
  0
SPLINE
  5
189
330
1F
100
AcDbEntity
  8
0
370
     9
100
AcDbSpline
210
0.0
220
0.0
230
1.0
 70
    24
 71
     3
 72
     8
 73
     4
 74
     0
 42
0.0000000001
 43
0.0000000001
 40
0.0
 40
0.0
 40
0.0
 40
0.0
 40
1.0
 40
1.0
 40
1.0
 40
1.0
 10
7.84775
 20
3.95918
 30
0.0
 10
7.84775
 20
3.95918
 30
0.0
 10
7.84775
 20
2.55918
 30
0.0
 10
7.84775
 20
2.55918
 30
0.0
  0
SPLINE
  5
18A
330
1F
100
AcDbEntity
  8
0
370
     9
100
AcDbSpline
210
0.0
220
0.0
230
1.0
 70
    24
 71
     3
 72
     8
 73
     4
 74
     0
 42
0.0000000001
 43
0.0000000001
 40
0.0
 40
0.0
 40
0.0
 40
0.0
 40
1.0
 40
1.0
 40
1.0
 40
1.0
 10
7.84775
 20
2.55918
 30
0.0
 10
7.84775
 20
2.55918
 30
0.0
 10
7.84775
 20
1.92418
 30
0.0
 10
7.84775
 20
1.92418
 30
0.0
  0
SPLINE
  5
18B
330
1F
100
AcDbEntity
  8
0
100
AcDbSpline
210
0.0
220
0.0
230
1.0
 70
    11
 71
     3
 72
    48
 73
    44
 74
     0
 42
0.0000000001
 43
0.0000000001
 40
0.0
 40
0.0
 40
0.0
 40
0.0
 40
0.0833333333333333
 40
0.0833333333333333
 40
0.0833333333333333
 40
0.0833333333333333
 40
0.1666666666666667
 40
0.1666666666666667
 40
0.1666666666666667
 40
0.1666666666666667
 40
0.25
 40
0.25
 40
0.25
 40
0.25
 40
0.3333333333333333
 40
0.3333333333333333
 40
0.3333333333333333
 40
0.3333333333333333
 40
0.4166666666666667
 40
0.4166666666666667
 40
0.4166666666666667
 40
0.4166666666666667
 40
0.5
 40
0.5
 40
0.5
 40
0.5
 40
0.5833333333333334
 40
0.5833333333333334
 40
0.5833333333333334
 40
0.5833333333333334
 40
0.6666666666666666
 40
0.6666666666666666
 40
0.6666666666666666
 40
0.6666666666666666
 40
0.75
 40
0.75
 40
0.75
 40
0.75
 40
0.8333333333333334
 40
0.8333333333333334
 40
0.8333333333333334
 40
0.8333333333333334
 40
1.0
 40
1.0
 40
1.0
 40
1.0
 10
7.71345
 20
2.98472
 30
0.0
 10
7.71345
 20
2.98472
 30
0.0
 10
7.65348
 20
2.98472
 30
0.0
 10
7.65348
 20
2.98472
 30
0.0
 10
7.65348
 20
2.98472
 30
0.0
 10
7.65348
 20
2.98472
 30
0.0
 10
7.65348
 20
2.87604
 30
0.0
 10
7.65348
 20
2.87604
 30
0.0
 10
7.65348
 20
2.87604
 30
0.0
 10
7.65348
 20
2.87604
 30
0.0
 10
7.62525
 20
2.87604
 30
0.0
 10
7.62525
 20
2.87604
 30
0.0
 10
7.62525
 20
2.87604
 30
0.0
 10
7.62525
 20
2.87604
 30
0.0
 10
7.46291
 20
2.99038
 30
0.0
 10
7.46291
 20
2.99038
 30
0.0
 10
7.46291
 20
2.99038
 30
0.0
 10
7.46291
 20
2.99038
 30
0.0
 10
7.46291
 20
3.01552
 30
0.0
 10
7.46291
 20
3.01552
 30
0.0
 10
7.46291
 20
3.01552
 30
0.0
 10
7.46291
 20
3.01552
 30
0.0
 10
7.62525
 20
3.01552
 30
0.0
 10
7.62525
 20
3.01552
 30
0.0
 10
7.62525
 20
3.01552
 30
0.0
 10
7.62525
 20
3.01552
 30
0.0
 10
7.62525
 20
3.04935
 30
0.0
 10
7.62525
 20
3.04935
 30
0.0
 10
7.62525
 20
3.04935
 30
0.0
 10
7.62525
 20
3.04935
 30
0.0
 10
7.65348
 20
3.04935
 30
0.0
 10
7.65348
 20
3.04935
 30
0.0
 10
7.65348
 20
3.04935
 30
0.0
 10
7.65348
 20
3.04935
 30
0.0
 10
7.65348
 20
3.01552
 30
0.0
 10
7.65348
 20
3.01552
 30
0.0
 10
7.65348
 20
3.01552
 30
0.0
 10
7.65348
 20
3.01552
 30
0.0
 10
7.71345
 20
3.01552
 30
0.0
 10
7.71345
 20
3.01552
 30
0.0
 10
7.71345
 20
3.01552
 30
0.0
 10
7.71345
 20
3.01552
 30
0.0
 10
7.71345
 20
2.98472
 30
0.0
 10
7.71345
 20
2.98472
 30
0.0
  0
SPLINE
  5
18C
330
1F
100
AcDbEntity
  8
0
100
AcDbSpline
210
0.0
220
0.0
230
1.0
 70
    11
 71
     3
 72
    16
 73
    12
 74
     0
 42
0.0000000001
 43
0.0000000001
 40
0.0
 40
0.0
 40
0.0
 40
0.0
 40
0.25
 40
0.25
 40
0.25
 40
0.25
 40
0.5
 40
0.5
 40
0.5
 40
0.5
 40
1.0
 40
1.0
 40
1.0
 40
1.0
 10
7.62525
 20
2.98472
 30
0.0
 10
7.62525
 20
2.98472
 30
0.0
 10
7.51232
 20
2.98472
 30
0.0
 10
7.51232
 20
2.98472
 30
0.0
 10
7.51232
 20
2.98472
 30
0.0
 10
7.51232
 20
2.98472
 30
0.0
 10
7.62525
 20
2.90632
 30
0.0
 10
7.62525
 20
2.90632
 30
0.0
 10
7.62525
 20
2.90632
 30
0.0
 10
7.62525
 20
2.90632
 30
0.0
 10
7.62525
 20
2.98472
 30
0.0
 10
7.62525
 20
2.98472
 30
0.0
  0
SPLINE
  5
18D
330
1F
100
AcDbEntity
  8
0
100
AcDbSpline
210
0.0
220
0.0
230
1.0
 70
    11
 71
     3
 72
    92
 73
    88
 74
     0
 42
0.0000000001
 43
0.0000000001
 40
0.0
 40
0.0
 40
0.0
 40
0.0
 40
0.0434782608695652
 40
0.0434782608695652
 40
0.0434782608695652
 40
0.0434782608695652
 40
0.0869565217391304
 40
0.0869565217391304
 40
0.0869565217391304
 40
0.0869565217391304
 40
0.1304347826086956
 40
0.1304347826086956
 40
0.1304347826086956
 40
0.1304347826086956
 40
0.1739130434782609
 40
0.1739130434782609
 40
0.1739130434782609
 40
0.1739130434782609
 40
0.2173913043478261
 40
0.2173913043478261
 40
0.2173913043478261
 40
0.2173913043478261
 40
0.2608695652173913
 40
0.2608695652173913
 40
0.2608695652173913
 40
0.2608695652173913
 40
0.3043478260869565
 40
0.3043478260869565
 40
0.3043478260869565
 40
0.3043478260869565
 40
0.3478260869565217
 40
0.3478260869565217
 40
0.3478260869565217
 40
0.3478260869565217
 40
0.391304347826087
 40
0.391304347826087
 40
0.391304347826087
 40
0.391304347826087
 40
0.4347826086956522
 40
0.4347826086956522
 40
0.4347826086956522
 40
0.4347826086956522
 40
0.4782608695652174
 40
0.4782608695652174
 40
0.4782608695652174
 40
0.4782608695652174
 40
0.5217391304347826
 40
0.5217391304347826
 40
0.5217391304347826
 40
0.5217391304347826
 40
0.5652173913043478
 40
0.5652173913043478
 40
0.5652173913043478
 40
0.5652173913043478
 40
0.6086956521739131
 40
0.6086956521739131
 40
0.6086956521739131
 40
0.6086956521739131
 40
0.6521739130434783
 40
0.6521739130434783
 40
0.6521739130434783
 40
0.6521739130434783
 40
0.6956521739130435
 40
0.6956521739130435
 40
0.6956521739130435
 40
0.6956521739130435
 40
0.7391304347826086
 40
0.7391304347826086
 40
0.7391304347826086
 40
0.7391304347826086
 40
0.782608695652174
 40
0.782608695652174
 40
0.782608695652174
 40
0.782608695652174
 40
0.8260869565217391
 40
0.8260869565217391
 40
0.8260869565217391
 40
0.8260869565217391
 40
0.8695652173913043
 40
0.8695652173913043
 40
0.8695652173913043
 40
0.8695652173913043
 40
0.9130434782608695
 40
0.9130434782608695
 40
0.9130434782608695
 40
0.9130434782608695
 40
1.0
 40
1.0
 40
1.0
 40
1.0
 10
7.68388
 20
3.24249
 30
0.0
 10
7.68388
 20
3.24249
 30
0.0
 10
7.71345
 20
3.24249
 30
0.0
 10
7.71345
 20
3.24249
 30
0.0
 10
7.71345
 20
3.24249
 30
0.0
 10
7.71345
 20
3.24249
 30
0.0
 10
7.71345
 20
3.07689
 30
0.0
 10
7.71345
 20
3.07689
 30
0.0
 10
7.71345
 20
3.07689
 30
0.0
 10
7.70604
 20
3.07665
 30
0.0
 10
7.69893
 20
3.07782
 30
0.0
 10
7.6921
 20
3.08044
 30
0.0
 10
7.6921
 20
3.08044
 30
0.0
 10
7.68078
 20
3.08464
 30
0.0
 10
7.6697
 20
3.09141
 30
0.0
 10
7.65879
 20
3.10069
 30
0.0
 10
7.65879
 20
3.10069
 30
0.0
 10
7.64783
 20
3.11002
 30
0.0
 10
7.63517
 20
3.12344
 30
0.0
 10
7.62082
 20
3.14094
 30
0.0
 10
7.62082
 20
3.14094
 30
0.0
 10
7.59848
 20
3.16818
 30
0.0
 10
7.5808
 20
3.18661
 30
0.0
 10
7.56773
 20
3.19618
 30
0.0
 10
7.56773
 20
3.19618
 30
0.0
 10
7.55473
 20
3.20574
 30
0.0
 10
7.54236
 20
3.21053
 30
0.0
 10
7.53075
 20
3.21053
 30
0.0
 10
7.53075
 20
3.21053
 30
0.0
 10
7.51856
 20
3.21053
 30
0.0
 10
7.50829
 20
3.20615
 30
0.0
 10
7.49989
 20
3.19746
 30
0.0
 10
7.49989
 20
3.19746
 30
0.0
 10
7.49155
 20
3.18871
 30
0.0
 10
7.48735
 20
3.17734
 30
0.0
 10
7.48735
 20
3.16334
 30
0.0
 10
7.48735
 20
3.16334
 30
0.0
 10
7.48735
 20
3.14852
 30
0.0
 10
7.49178
 20
3.13668
 30
0.0
 10
7.50071
 20
3.12781
 30
0.0
 10
7.50071
 20
3.12781
 30
0.0
 10
7.50958
 20
3.11889
 30
0.0
 10
7.52188
 20
3.11439
 30
0.0
 10
7.53758
 20
3.11428
 30
0.0
 10
7.53758
 20
3.11428
 30
0.0
 10
7.53758
 20
3.11428
 30
0.0
 10
7.53437
 20
3.08266
 30
0.0
 10
7.53437
 20
3.08266
 30
0.0
 10
7.53437
 20
3.08266
 30
0.0
 10
7.51074
 20
3.08482
 30
0.0
 10
7.49278
 20
3.09299
 30
0.0
 10
7.48041
 20
3.1071
 30
0.0
 10
7.48041
 20
3.1071
 30
0.0
 10
7.46804
 20
3.12122
 30
0.0
 10
7.46192
 20
3.14024
 30
0.0
 10
7.46192
 20
3.16404
 30
0.0
 10
7.46192
 20
3.16404
 30
0.0
 10
7.46192
 20
3.18807
 30
0.0
 10
7.46857
 20
3.20709
 30
0.0
 10
7.48187
 20
3.22109
 30
0.0
 10
7.48187
 20
3.22109
 30
0.0
 10
7.49523
 20
3.23514
 30
0.0
 10
7.51173
 20
3.24214
 30
0.0
 10
7.53145
 20
3.24214
 30
0.0
 10
7.53145
 20
3.24214
 30
0.0
 10
7.54148
 20
3.24214
 30
0.0
 10
7.55134
 20
3.2401
 30
0.0
 10
7.56103
 20
3.23596
 30
0.0
 10
7.56103
 20
3.23596
 30
0.0
 10
7.57071
 20
3.23188
 30
0.0
 10
7.58092
 20
3.22505
 30
0.0
 10
7.59159
 20
3.21554
 30
0.0
 10
7.59159
 20
3.21554
 30
0.0
 10
7.60233
 20
3.20604
 30
0.0
 10
7.61703
 20
3.19023
 30
0.0
 10
7.63569
 20
3.16812
 30
0.0
 10
7.63569
 20
3.16812
 30
0.0
 10
7.65121
 20
3.14969
 30
0.0
 10
7.66171
 20
3.13784
 30
0.0
 10
7.66725
 20
3.13259
 30
0.0
 10
7.66725
 20
3.13259
 30
0.0
 10
7.67273
 20
3.12734
 30
0.0
 10
7.67828
 20
3.12303
 30
0.0
 10
7.68388
 20
3.11959
 30
0.0
 10
7.68388
 20
3.11959
 30
0.0
 10
7.68388
 20
3.11959
 30
0.0
 10
7.68388
 20
3.24249
 30
0.0
 10
7.68388
 20
3.24249
 30
0.0
  0
SPLINE
  5
18E
330
1F
100
AcDbEntity
  8
0
100
AcDbSpline
210
0.0
220
0.0
230
1.0
 70
    27
 71
     3
 72
    12
 73
     8
 74
     0
 42
0.0000000001
 43
0.0000000001
 40
0.0
 40
0.0
 40
0.0
 40
0.0
 40
0.3333333333333333
 40
0.3333333333333333
 40
0.3333333333333333
 40
0.3333333333333333
 40
1.0
 40
1.0
 40
1.0
 40
1.0
 10
5.3321
 20
4.15918
 30
0.0
 10
5.3321
 20
4.15918
 30
0.0
 10
5.2813
 20
4.48938
 30
0.0
 10
5.2813
 20
4.48938
 30
0.0
 10
5.2813
 20
4.48938
 30
0.0
 10
5.2813
 20
4.48938
 30
0.0
 10
5.3321
 20
4.15918
 30
0.0
 10
5.3321
 20
4.15918
 30
0.0
  0
SPLINE
  5
18F
330
1F
100
AcDbEntity
  8
0
100
AcDbSpline
210
0.0
220
0.0
230
1.0
 70
     8
 71
     3
 72
    12
 73
     8
 74
     0
 42
0.0000000001
 43
0.0000000001
 40
0.0
 40
0.0
 40
0.0
 40
0.0
 40
0.3333333333333333
 40
0.3333333333333333
 40
0.3333333333333333
 40
0.3333333333333333
 40
1.0
 40
1.0
 40
1.0
 40
1.0
 10
5.2813
 20
4.48938
 30
0.0
 10
5.2813
 20
4.48938
 30
0.0
 10
5.3829
 20
4.48938
 30
0.0
 10
5.3829
 20
4.48938
 30
0.0
 10
5.3829
 20
4.48938
 30
0.0
 10
5.3829
 20
4.48938
 30
0.0
 10
5.3321
 20
4.15918
 30
0.0
 10
5.3321
 20
4.15918
 30
0.0
  0
SPLINE
  5
190
330
1F
100
AcDbEntity
  8
0
370
     9
100
AcDbSpline
210
0.0
220
0.0
230
1.0
 70
    24
 71
     3
 72
     8
 73
     4
 74
     0
 42
0.0000000001
 43
0.0000000001
 40
0.0
 40
0.0
 40
0.0
 40
0.0
 40
1.0
 40
1.0
 40
1.0
 40
1.0
 10
5.3321
 20
4.15918
 30
0.0
 10
5.3321
 20
4.15918
 30
0.0
 10
5.2813
 20
4.48938
 30
0.0
 10
5.2813
 20
4.48938
 30
0.0
  0
SPLINE
  5
191
330
1F
100
AcDbEntity
  8
0
370
     9
100
AcDbSpline
210
0.0
220
0.0
230
1.0
 70
     8
 71
     3
 72
    12
 73
     8
 74
     0
 42
0.0000000001
 43
0.0000000001
 40
0.0
 40
0.0
 40
0.0
 40
0.0
 40
0.3333333333333333
 40
0.3333333333333333
 40
0.3333333333333333
 40
0.3333333333333333
 40
1.0
 40
1.0
 40
1.0
 40
1.0
 10
5.2813
 20
4.48938
 30
0.0
 10
5.2813
 20
4.48938
 30
0.0
 10
5.3829
 20
4.48938
 30
0.0
 10
5.3829
 20
4.48938
 30
0.0
 10
5.3829
 20
4.48938
 30
0.0
 10
5.3829
 20
4.48938
 30
0.0
 10
5.3321
 20
4.15918
 30
0.0
 10
5.3321
 20
4.15918
 30
0.0
  0
SPLINE
  5
192
330
1F
100
AcDbEntity
  8
0
100
AcDbSpline
210
0.0
220
0.0
230
1.0
 70
    27
 71
     3
 72
    12
 73
     8
 74
     0
 42
0.0000000001
 43
0.0000000001
 40
0.0
 40
0.0
 40
0.0
 40
0.0
 40
0.3333333333333333
 40
0.3333333333333333
 40
0.3333333333333333
 40
0.3333333333333333
 40
1.0
 40
1.0
 40
1.0
 40
1.0
 10
5.3321
 20
3.95918
 30
0.0
 10
5.3321
 20
3.95918
 30
0.0
 10
5.3829
 20
3.62898
 30
0.0
 10
5.3829
 20
3.62898
 30
0.0
 10
5.3829
 20
3.62898
 30
0.0
 10
5.3829
 20
3.62898
 30
0.0
 10
5.3321
 20
3.95918
 30
0.0
 10
5.3321
 20
3.95918
 30
0.0
  0
SPLINE
  5
193
330
1F
100
AcDbEntity
  8
0
100
AcDbSpline
210
0.0
220
0.0
230
1.0
 70
     8
 71
     3
 72
    12
 73
     8
 74
     0
 42
0.0000000001
 43
0.0000000001
 40
0.0
 40
0.0
 40
0.0
 40
0.0
 40
0.3333333333333333
 40
0.3333333333333333
 40
0.3333333333333333
 40
0.3333333333333333
 40
1.0
 40
1.0
 40
1.0
 40
1.0
 10
5.3829
 20
3.62898
 30
0.0
 10
5.3829
 20
3.62898
 30
0.0
 10
5.2813
 20
3.62898
 30
0.0
 10
5.2813
 20
3.62898
 30
0.0
 10
5.2813
 20
3.62898
 30
0.0
 10
5.2813
 20
3.62898
 30
0.0
 10
5.3321
 20
3.95918
 30
0.0
 10
5.3321
 20
3.95918
 30
0.0
  0
SPLINE
  5
194
330
1F
100
AcDbEntity
  8
0
370
     9
100
AcDbSpline
210
0.0
220
0.0
230
1.0
 70
    24
 71
     3
 72
     8
 73
     4
 74
     0
 42
0.0000000001
 43
0.0000000001
 40
0.0
 40
0.0
 40
0.0
 40
0.0
 40
1.0
 40
1.0
 40
1.0
 40
1.0
 10
5.3321
 20
3.95918
 30
0.0
 10
5.3321
 20
3.95918
 30
0.0
 10
5.3829
 20
3.62898
 30
0.0
 10
5.3829
 20
3.62898
 30
0.0
  0
SPLINE
  5
195
330
1F
100
AcDbEntity
  8
0
370
     9
100
AcDbSpline
210
0.0
220
0.0
230
1.0
 70
     8
 71
     3
 72
    12
 73
     8
 74
     0
 42
0.0000000001
 43
0.0000000001
 40
0.0
 40
0.0
 40
0.0
 40
0.0
 40
0.3333333333333333
 40
0.3333333333333333
 40
0.3333333333333333
 40
0.3333333333333333
 40
1.0
 40
1.0
 40
1.0
 40
1.0
 10
5.3829
 20
3.62898
 30
0.0
 10
5.3829
 20
3.62898
 30
0.0
 10
5.2813
 20
3.62898
 30
0.0
 10
5.2813
 20
3.62898
 30
0.0
 10
5.2813
 20
3.62898
 30
0.0
 10
5.2813
 20
3.62898
 30
0.0
 10
5.3321
 20
3.95918
 30
0.0
 10
5.3321
 20
3.95918
 30
0.0
  0
SPLINE
  5
196
330
1F
100
AcDbEntity
  8
0
370
     9
100
AcDbSpline
210
0.0
220
0.0
230
1.0
 70
    24
 71
     3
 72
     8
 73
     4
 74
     0
 42
0.0000000001
 43
0.0000000001
 40
0.0
 40
0.0
 40
0.0
 40
0.0
 40
1.0
 40
1.0
 40
1.0
 40
1.0
 10
5.3321
 20
4.15918
 30
0.0
 10
5.3321
 20
4.15918
 30
0.0
 10
5.3321
 20
5.03694
 30
0.0
 10
5.3321
 20
5.03694
 30
0.0
  0
SPLINE
  5
197
330
1F
100
AcDbEntity
  8
0
370
     9
100
AcDbSpline
210
0.0
220
0.0
230
1.0
 70
    24
 71
     3
 72
     8
 73
     4
 74
     0
 42
0.0000000001
 43
0.0000000001
 40
0.0
 40
0.0
 40
0.0
 40
0.0
 40
1.0
 40
1.0
 40
1.0
 40
1.0
 10
5.3321
 20
4.15918
 30
0.0
 10
5.3321
 20
4.15918
 30
0.0
 10
5.3321
 20
3.95918
 30
0.0
 10
5.3321
 20
3.95918
 30
0.0
  0
SPLINE
  5
198
330
1F
100
AcDbEntity
  8
0
370
     9
100
AcDbSpline
210
0.0
220
0.0
230
1.0
 70
    24
 71
     3
 72
     8
 73
     4
 74
     0
 42
0.0000000001
 43
0.0000000001
 40
0.0
 40
0.0
 40
0.0
 40
0.0
 40
1.0
 40
1.0
 40
1.0
 40
1.0
 10
5.3321
 20
3.95918
 30
0.0
 10
5.3321
 20
3.95918
 30
0.0
 10
5.3321
 20
3.32418
 30
0.0
 10
5.3321
 20
3.32418
 30
0.0
  0
SPLINE
  5
199
330
1F
100
AcDbEntity
  8
0
100
AcDbSpline
210
0.0
220
0.0
230
1.0
 70
    11
 71
     3
 72
    80
 73
    76
 74
     0
 42
0.0000000001
 43
0.0000000001
 40
0.0
 40
0.0
 40
0.0
 40
0.0
 40
0.05
 40
0.05
 40
0.05
 40
0.05
 40
0.1
 40
0.1
 40
0.1
 40
0.1
 40
0.15
 40
0.15
 40
0.15
 40
0.15
 40
0.2
 40
0.2
 40
0.2
 40
0.2
 40
0.25
 40
0.25
 40
0.25
 40
0.25
 40
0.3
 40
0.3
 40
0.3
 40
0.3
 40
0.35
 40
0.35
 40
0.35
 40
0.35
 40
0.4
 40
0.4
 40
0.4
 40
0.4
 40
0.45
 40
0.45
 40
0.45
 40
0.45
 40
0.5
 40
0.5
 40
0.5
 40
0.5
 40
0.55
 40
0.55
 40
0.55
 40
0.55
 40
0.6
 40
0.6
 40
0.6
 40
0.6
 40
0.65
 40
0.65
 40
0.65
 40
0.65
 40
0.7
 40
0.7
 40
0.7
 40
0.7
 40
0.75
 40
0.75
 40
0.75
 40
0.75
 40
0.8
 40
0.8
 40
0.8
 40
0.8
 40
0.85
 40
0.85
 40
0.85
 40
0.85
 40
0.9
 40
0.9
 40
0.9
 40
0.9
 40
1.0
 40
1.0
 40
1.0
 40
1.0
 10
5.00862
 20
4.66808
 30
0.0
 10
5.00862
 20
4.66808
 30
0.0
 10
5.01101
 20
4.63752
 30
0.0
 10
5.01101
 20
4.63752
 30
0.0
 10
5.01101
 20
4.63752
 30
0.0
 10
4.99893
 20
4.63478
 30
0.0
 10
4.99012
 20
4.63093
 30
0.0
 10
4.9847
 20
4.62591
 30
0.0
 10
4.9847
 20
4.62591
 30
0.0
 10
4.97589
 20
4.61757
 30
0.0
 10
4.97152
 20
4.6073
 30
0.0
 10
4.97152
 20
4.59511
 30
0.0
 10
4.97152
 20
4.59511
 30
0.0
 10
4.97152
 20
4.58531
 30
0.0
 10
4.97426
 20
4.57673
 30
0.0
 10
4.97974
 20
4.56933
 30
0.0
 10
4.97974
 20
4.56933
 30
0.0
 10
4.9868
 20
4.55964
 30
0.0
 10
4.99712
 20
4.552
 30
0.0
 10
5.01066
 20
4.5464
 30
0.0
 10
5.01066
 20
4.5464
 30
0.0
 10
5.02419
 20
4.54086
 30
0.0
 10
5.0435
 20
4.53794
 30
0.0
 10
5.06858
 20
4.53771
 30
0.0
 10
5.06858
 20
4.53771
 30
0.0
 10
5.05732
 20
4.54512
 30
0.0
 10
5.04892
 20
4.55416
 30
0.0
 10
5.04344
 20
4.56489
 30
0.0
 10
5.04344
 20
4.56489
 30
0.0
 10
5.03802
 20
4.57557
 30
0.0
 10
5.03527
 20
4.58683
 30
0.0
 10
5.03527
 20
4.59855
 30
0.0
 10
5.03527
 20
4.59855
 30
0.0
 10
5.03527
 20
4.61908
 30
0.0
 10
5.0428
 20
4.63653
 30
0.0
 10
5.05791
 20
4.65093
 30
0.0
 10
5.05791
 20
4.65093
 30
0.0
 10
5.07302
 20
4.66534
 30
0.0
 10
5.0925
 20
4.67258
 30
0.0
 10
5.11642
 20
4.67258
 30
0.0
 10
5.11642
 20
4.67258
 30
0.0
 10
5.13217
 20
4.67258
 30
0.0
 10
5.14675
 20
4.66913
 30
0.0
 10
5.16028
 20
4.66237
 30
0.0
 10
5.16028
 20
4.66237
 30
0.0
 10
5.17376
 20
4.6556
 30
0.0
 10
5.18414
 20
4.64627
 30
0.0
 10
5.19132
 20
4.63443
 30
0.0
 10
5.19132
 20
4.63443
 30
0.0
 10
5.19849
 20
4.62258
 30
0.0
 10
5.20205
 20
4.60917
 30
0.0
 10
5.20205
 20
4.59412
 30
0.0
 10
5.20205
 20
4.59412
 30
0.0
 10
5.20205
 20
4.56845
 30
0.0
 10
5.19266
 20
4.54757
 30
0.0
 10
5.17376
 20
4.53141
 30
0.0
 10
5.17376
 20
4.53141
 30
0.0
 10
5.15492
 20
4.51519
 30
0.0
 10
5.12382
 20
4.50714
 30
0.0
 10
5.08054
 20
4.50714
 30
0.0
 10
5.08054
 20
4.50714
 30
0.0
 10
5.03212
 20
4.50714
 30
0.0
 10
4.99695
 20
4.51607
 30
0.0
 10
4.97496
 20
4.53398
 30
0.0
 10
4.97496
 20
4.53398
 30
0.0
 10
4.95582
 20
4.54955
 30
0.0
 10
4.94626
 20
4.57055
 30
0.0
 10
4.94626
 20
4.59703
 30
0.0
 10
4.94626
 20
4.59703
 30
0.0
 10
4.94626
 20
4.61669
 30
0.0
 10
4.95174
 20
4.63285
 30
0.0
 10
4.96282
 20
4.64545
 30
0.0
 10
4.96282
 20
4.64545
 30
0.0
 10
4.97385
 20
4.65805
 30
0.0
 10
4.98913
 20
4.66558
 30
0.0
 10
5.00862
 20
4.66808
 30
0.0
  0
SPLINE
  5
19A
330
1F
100
AcDbEntity
  8
0
100
AcDbSpline
210
0.0
220
0.0
230
1.0
 70
    11
 71
     3
 72
    40
 73
    36
 74
     0
 42
0.0000000001
 43
0.0000000001
 40
0.0
 40
0.0
 40
0.0
 40
0.0
 40
0.1
 40
0.1
 40
0.1
 40
0.1
 40
0.2
 40
0.2
 40
0.2
 40
0.2
 40
0.3
 40
0.3
 40
0.3
 40
0.3
 40
0.4
 40
0.4
 40
0.4
 40
0.4
 40
0.5
 40
0.5
 40
0.5
 40
0.5
 40
0.6
 40
0.6
 40
0.6
 40
0.6
 40
0.7
 40
0.7
 40
0.7
 40
0.7
 40
0.8
 40
0.8
 40
0.8
 40
0.8
 40
1.0
 40
1.0
 40
1.0
 40
1.0
 10
5.11659
 20
4.54249
 30
0.0
 10
5.12721
 20
4.54249
 30
0.0
 10
5.13736
 20
4.54477
 30
0.0
 10
5.14704
 20
4.54926
 30
0.0
 10
5.14704
 20
4.54926
 30
0.0
 10
5.15672
 20
4.55375
 30
0.0
 10
5.16407
 20
4.56005
 30
0.0
 10
5.16915
 20
4.5681
 30
0.0
 10
5.16915
 20
4.5681
 30
0.0
 10
5.17422
 20
4.57621
 30
0.0
 10
5.17679
 20
4.58473
 30
0.0
 10
5.17679
 20
4.59359
 30
0.0
 10
5.17679
 20
4.59359
 30
0.0
 10
5.17679
 20
4.6066
 30
0.0
 10
5.17154
 20
4.61774
 30
0.0
 10
5.16104
 20
4.62708
 30
0.0
 10
5.16104
 20
4.62708
 30
0.0
 10
5.15054
 20
4.63641
 30
0.0
 10
5.13631
 20
4.64108
 30
0.0
 10
5.11834
 20
4.64108
 30
0.0
 10
5.11834
 20
4.64108
 30
0.0
 10
5.10102
 20
4.64108
 30
0.0
 10
5.08737
 20
4.63647
 30
0.0
 10
5.07739
 20
4.62725
 30
0.0
 10
5.07739
 20
4.62725
 30
0.0
 10
5.06742
 20
4.61803
 30
0.0
 10
5.06246
 20
4.60643
 30
0.0
 10
5.06246
 20
4.59243
 30
0.0
 10
5.06246
 20
4.59243
 30
0.0
 10
5.06246
 20
4.57848
 30
0.0
 10
5.06742
 20
4.5667
 30
0.0
 10
5.07739
 20
4.55702
 30
0.0
 10
5.07739
 20
4.55702
 30
0.0
 10
5.08737
 20
4.54733
 30
0.0
 10
5.10043
 20
4.54249
 30
0.0
 10
5.11659
 20
4.54249
 30
0.0
  0
ENDSEC
  0
SECTION
  2
OBJECTS
  0
DICTIONARY
  5
C
330
0
100
AcDbDictionary
281
     1
  3
ACAD_GROUP
350
D
  3
ACAD_LAYOUT
350
1A
  3
ACAD_MATERIAL
350
3B
  3
ACAD_MLEADERSTYLE
350
1BC
  3
ACAD_MLINESTYLE
350
17
  3
ACAD_PLOTSETTINGS
350
19
  3
ACAD_PLOTSTYLENAME
350
E
  3
ACAD_TABLESTYLE
350
1BB
  3
ACAD_VISUALSTYLE
350
2A
  0
DICTIONARY
  5
D
102
{ACAD_REACTORS
330
C
102
}
330
C
100
AcDbDictionary
281
     1
  0
DICTIONARY
  5
1A
102
{ACAD_REACTORS
330
C
102
}
330
C
100
AcDbDictionary
281
     1
  3
Layout1
350
1E
  3
Layout2
350
26
  3
Model
350
22
  0
DICTIONARY
  5
3B
102
{ACAD_REACTORS
330
C
102
}
330
C
100
AcDbDictionary
281
     1
  3
ByBlock
350
3D
  3
ByLayer
350
3C
  3
Global
350
3E
  0
DICTIONARY
  5
1BC
102
{ACAD_REACTORS
330
C
102
}
330
C
100
AcDbDictionary
281
     1
  0
DICTIONARY
  5
17
102
{ACAD_REACTORS
330
C
102
}
330
C
100
AcDbDictionary
281
     1
  3
Standard
350
18
  0
DICTIONARY
  5
19
102
{ACAD_REACTORS
330
C
102
}
330
C
100
AcDbDictionary
281
     1
  0
ACDBDICTIONARYWDFLT
  5
E
102
{ACAD_REACTORS
330
C
102
}
330
C
100
AcDbDictionary
281
     1
  3
Normal
350
F
100
AcDbDictionaryWithDefault
340
F
  0
DICTIONARY
  5
1BB
102
{ACAD_REACTORS
330
C
102
}
330
C
100
AcDbDictionary
281
     1
  0
DICTIONARY
  5
2A
102
{ACAD_REACTORS
330
C
102
}
330
C
100
AcDbDictionary
281
     1
  3
2dWireframe
350
2F
  3
3D Hidden
350
31
  3
3dWireframe
350
30
  3
Basic
350
32
  3
Brighten
350
36
  3
ColorChange
350
3A
  3
Conceptual
350
34
  3
Dim
350
35
  3
Facepattern
350
39
  3
Flat
350
2B
  3
FlatWithEdges
350
2C
  3
Gouraud
350
2D
  3
GouraudWithEdges
350
2E
  3
Linepattern
350
38
  3
Realistic
350
33
  3
Thicken
350
37
  0
LAYOUT
  5
1E
102
{ACAD_REACTORS
330
1A
102
}
330
1A
100
AcDbPlotSettings
  1

  2
none_device
  4

  6

 40
0.0
 41
0.0
 42
0.0
 43
0.0
 44
0.0
 45
0.0
 46
0.0
 47
0.0
 48
0.0
 49
0.0
140
0.0
141
0.0
142
1.0
143
1.0
 70
   688
 72
     0
 73
     0
 74
     5
  7

 75
    16
 76
     0
 77
     2
 78
   300
147
1.0
148
0.0
149
0.0
100
AcDbLayout
  1
Layout1
 70
     1
 71
     1
 10
0.0
 20
0.0
 11
12.0
 21
9.0
 12
0.0
 22
0.0
 32
0.0
 14
1.000000000000000E+20
 24
1.000000000000000E+20
 34
1.000000000000000E+20
 15
-1.000000000000000E+20
 25
-1.000000000000000E+20
 35
-1.000000000000000E+20
146
0.0
 13
0.0
 23
0.0
 33
0.0
 16
1.0
 26
0.0
 36
0.0
 17
0.0
 27
1.0
 37
0.0
 76
     0
330
1B
  0
LAYOUT
  5
26
102
{ACAD_REACTORS
330
1A
102
}
330
1A
100
AcDbPlotSettings
  1

  2
none_device
  4

  6

 40
0.0
 41
0.0
 42
0.0
 43
0.0
 44
0.0
 45
0.0
 46
0.0
 47
0.0
 48
0.0
 49
0.0
140
0.0
141
0.0
142
1.0
143
1.0
 70
   688
 72
     0
 73
     0
 74
     5
  7

 75
    16
 76
     0
 77
     2
 78
   300
147
1.0
148
0.0
149
0.0
100
AcDbLayout
  1
Layout2
 70
     1
 71
     2
 10
0.0
 20
0.0
 11
0.0
 21
0.0
 12
0.0
 22
0.0
 32
0.0
 14
0.0
 24
0.0
 34
0.0
 15
0.0
 25
0.0
 35
0.0
146
0.0
 13
0.0
 23
0.0
 33
0.0
 16
1.0
 26
0.0
 36
0.0
 17
0.0
 27
1.0
 37
0.0
 76
     0
330
23
  0
LAYOUT
  5
22
102
{ACAD_REACTORS
330
1A
102
}
330
1A
100
AcDbPlotSettings
  1

  2
none_device
  4

  6

 40
0.0
 41
0.0
 42
0.0
 43
0.0
 44
0.0
 45
0.0
 46
0.0
 47
0.0
 48
0.0
 49
0.0
140
0.0
141
0.0
142
1.0
143
1.0
 70
  1712
 72
     0
 73
     0
 74
     0
  7

 75
     0
 76
     0
 77
     2
 78
   300
147
1.0
148
0.0
149
0.0
100
AcDbLayout
  1
Model
 70
     1
 71
     0
 10
0.0
 20
0.0
 11
12.0
 21
9.0
 12
0.0
 22
0.0
 32
0.0
 14
-9.74612
 24
1.92418
 34
0.0
 15
8.01728
 25
11.10218
 35
0.0
146
0.0
 13
0.0
 23
0.0
 33
0.0
 16
1.0
 26
0.0
 36
0.0
 17
0.0
 27
1.0
 37
0.0
 76
     0
330
1F
331
29
  0
MATERIAL
  5
3D
102
{ACAD_REACTORS
330
3B
102
}
330
3B
100
AcDbMaterial
  1
ByBlock
 72
     1
 94
      127
  0
MATERIAL
  5
3C
102
{ACAD_REACTORS
330
3B
102
}
330
3B
100
AcDbMaterial
  1
ByLayer
 72
     1
 94
      127
  0
MATERIAL
  5
3E
102
{ACAD_REACTORS
330
3B
102
}
330
3B
100
AcDbMaterial
  1
Global
 72
     1
 94
      127
  0
MLINESTYLE
  5
18
102
{ACAD_REACTORS
330
17
102
}
330
17
100
AcDbMlineStyle
  2
Standard
 70
     0
  3

 62
   256
 51
90.0
 52
90.0
 71
     2
 49
0.5
 62
   256
  6
BYLAYER
 49
-0.5
 62
   256
  6
BYLAYER
  0
ACDBPLACEHOLDER
  5
F
102
{ACAD_REACTORS
330
E
102
}
330
E
  0
VISUALSTYLE
  5
2F
102
{ACAD_REACTORS
330
2A
102
}
102
{ACAD_XDICTIONARY
360
1A3
102
}
330
2A
100
AcDbVisualStyle
  2
2dWireframe
 70
     4
 71
     0
 72
     2
 73
     0
 90
        0
 40
-0.6
 41
-30.0
 62
     5
 63
     7
421
 16777215
 74
     1
 91
        4
 64
     7
 65
   257
 75
     1
175
     1
 42
1.0
 92
        0
 66
   257
 43
1.0
 76
     1
 77
     6
 78
     2
 67
     7
 79
     5
170
     0
171
     0
290
     0
174
     0
 93
        1
 44
0.0
173
     0
291
     0
 45
0.0
  0
VISUALSTYLE
  5
31
102
{ACAD_REACTORS
330
2A
102
}
102
{ACAD_XDICTIONARY
360
1A7
102
}
330
2A
100
AcDbVisualStyle
  2
3D Hidden
 70
     6
 71
     1
 72
     2
 73
     2
 90
        0
 40
-0.6
 41
-30.0
 62
     5
 63
     7
421
 16777215
 74
     2
 91
        2
 64
     7
 65
   257
 75
     2
175
     1
 42
40.0
 92
        0
 66
   257
 43
1.0
 76
     1
 77
     6
 78
     2
 67
     7
 79
     3
170
     0
171
     0
290
     0
174
     0
 93
        1
 44
0.0
173
     0
291
     0
 45
0.0
  0
VISUALSTYLE
  5
30
102
{ACAD_REACTORS
330
2A
102
}
102
{ACAD_XDICTIONARY
360
1A5
102
}
330
2A
100
AcDbVisualStyle
  2
3dWireframe
 70
     5
 71
     0
 72
     2
 73
     0
 90
        0
 40
-0.6
 41
-30.0
 62
     5
 63
     7
421
 16777215
 74
     1
 91
        4
 64
     7
 65
   257
 75
     1
175
     1
 42
1.0
 92
        0
 66
   257
 43
1.0
 76
     1
 77
     6
 78
     2
 67
     7
 79
     5
170
     0
171
     0
290
     0
174
     0
 93
        1
 44
0.0
173
     0
291
     0
 45
0.0
  0
VISUALSTYLE
  5
32
102
{ACAD_REACTORS
330
2A
102
}
102
{ACAD_XDICTIONARY
360
1A9
102
}
330
2A
100
AcDbVisualStyle
  2
Basic
 70
     7
 71
     1
 72
     0
 73
     1
 90
        0
 40
-0.6
 41
-30.0
 62
     5
 63
     7
421
 16777215
 74
     0
 91
        4
 64
     7
 65
   257
 75
     1
175
     1
 42
1.0
 92
        8
 66
     7
 43
1.0
 76
     1
 77
     6
 78
     2
 67
     7
 79
     5
170
     0
171
     0
290
     0
174
     0
 93
        1
 44
0.0
173
     0
291
     1
 45
0.0
  0
VISUALSTYLE
  5
36
102
{ACAD_REACTORS
330
2A
102
}
102
{ACAD_XDICTIONARY
360
1B1
102
}
330
2A
100
AcDbVisualStyle
  2
Brighten
 70
    12
 71
     2
 72
     2
 73
     0
 90
        0
 40
-0.6
 41
-30.0
 62
     5
 63
     7
421
 16777215
 74
     1
 91
        4
 64
     7
 65
   257
 75
     1
175
     1
 42
1.0
 92
        8
 66
     7
 43
1.0
 76
     1
 77
     6
 78
     2
 67
     7
 79
     5
170
     0
171
     0
290
     0
174
     0
 93
        1
 44
50.0
173
     0
291
     1
 45
0.0
  0
VISUALSTYLE
  5
3A
102
{ACAD_REACTORS
330
2A
102
}
102
{ACAD_XDICTIONARY
360
1B9
102
}
330
2A
100
AcDbVisualStyle
  2
ColorChange
 70
    16
 71
     2
 72
     2
 73
     3
 90
        0
 40
-0.6
 41
-30.0
 62
     5
 63
     8
421
  8421504
 74
     1
 91
        4
 64
     7
 65
   257
 75
     1
175
     1
 42
1.0
 92
        8
 66
     8
424
  8421504
 43
1.0
 76
     1
 77
     6
 78
     2
 67
     7
 79
     5
170
     0
171
     0
290
     0
174
     0
 93
        1
 44
0.0
173
     0
291
     1
 45
0.0
  0
VISUALSTYLE
  5
34
102
{ACAD_REACTORS
330
2A
102
}
102
{ACAD_XDICTIONARY
360
1AD
102
}
330
2A
100
AcDbVisualStyle
  2
Conceptual
 70
     9
 71
     3
 72
     2
 73
     0
 90
        0
 40
-0.6
 41
-30.0
 62
     5
 63
     7
421
 16777215
 74
     2
 91
        2
 64
     7
 65
   257
 75
     1
175
     1
 42
40.0
 92
        8
 66
     7
 43
1.0
 76
     1
 77
     6
 78
     2
 67
     7
 79
     3
170
     0
171
     0
290
     0
174
     0
 93
        1
 44
0.0
173
     0
291
     0
 45
0.0
  0
VISUALSTYLE
  5
35
102
{ACAD_REACTORS
330
2A
102
}
102
{ACAD_XDICTIONARY
360
1AF
102
}
330
2A
100
AcDbVisualStyle
  2
Dim
 70
    11
 71
     2
 72
     2
 73
     0
 90
        0
 40
-0.6
 41
-30.0
 62
     5
 63
     7
421
 16777215
 74
     1
 91
        4
 64
     7
 65
   257
 75
     1
175
     1
 42
1.0
 92
        8
 66
     7
 43
1.0
 76
     1
 77
     6
 78
     2
 67
     7
 79
     5
170
     0
171
     0
290
     0
174
     0
 93
        1
 44
-50.0
173
     0
291
     1
 45
0.0
  0
VISUALSTYLE
  5
39
102
{ACAD_REACTORS
330
2A
102
}
102
{ACAD_XDICTIONARY
360
1B7
102
}
330
2A
100
AcDbVisualStyle
  2
Facepattern
 70
    15
 71
     2
 72
     2
 73
     0
 90
        0
 40
-0.6
 41
-30.0
 62
     5
 63
     7
421
 16777215
 74
     1
 91
        4
 64
     7
 65
   257
 75
     1
175
     1
 42
1.0
 92
        8
 66
     7
 43
1.0
 76
     1
 77
     6
 78
     2
 67
     7
 79
     5
170
     0
171
     0
290
     0
174
     0
 93
        1
 44
0.0
173
     0
291
     1
 45
0.0
  0
VISUALSTYLE
  5
2B
102
{ACAD_REACTORS
330
2A
102
}
102
{ACAD_XDICTIONARY
360
19B
102
}
330
2A
100
AcDbVisualStyle
  2
Flat
 70
     0
 71
     2
 72
     1
 73
     1
 90
        2
 40
-0.6
 41
30.0
 62
     5
 63
     7
421
 16777215
 74
     0
 91
        4
 64
     7
 65
   257
 75
     1
175
     1
 42
1.0
 92
        8
 66
     7
 43
1.0
 76
     1
 77
     6
 78
     2
 67
     7
 79
     5
170
     0
171
     0
290
     0
174
     0
 93
       13
 44
0.0
173
     0
291
     1
 45
0.0
  0
VISUALSTYLE
  5
2C
102
{ACAD_REACTORS
330
2A
102
}
102
{ACAD_XDICTIONARY
360
19D
102
}
330
2A
100
AcDbVisualStyle
  2
FlatWithEdges
 70
     1
 71
     2
 72
     1
 73
     1
 90
        2
 40
-0.6
 41
30.0
 62
     5
 63
     7
421
 16777215
 74
     1
 91
        4
 64
     7
 65
   257
 75
     1
175
     1
 42
1.0
 92
        0
 66
   257
 43
1.0
 76
     1
 77
     6
 78
     2
 67
     7
 79
     5
170
     0
171
     0
290
     0
174
     0
 93
       13
 44
0.0
173
     0
291
     1
 45
0.0
  0
VISUALSTYLE
  5
2D
102
{ACAD_REACTORS
330
2A
102
}
102
{ACAD_XDICTIONARY
360
19F
102
}
330
2A
100
AcDbVisualStyle
  2
Gouraud
 70
     2
 71
     2
 72
     2
 73
     1
 90
        2
 40
-0.6
 41
30.0
 62
     5
 63
     7
421
 16777215
 74
     0
 91
        4
 64
     7
 65
   257
 75
     1
175
     1
 42
1.0
 92
        0
 66
     7
 43
1.0
 76
     1
 77
     6
 78
     2
 67
     7
 79
     5
170
     0
171
     0
290
     0
174
     0
 93
       13
 44
0.0
173
     0
291
     1
 45
0.0
  0
VISUALSTYLE
  5
2E
102
{ACAD_REACTORS
330
2A
102
}
102
{ACAD_XDICTIONARY
360
1A1
102
}
330
2A
100
AcDbVisualStyle
  2
GouraudWithEdges
 70
     3
 71
     2
 72
     2
 73
     1
 90
        2
 40
-0.6
 41
30.0
 62
     5
 63
     7
421
 16777215
 74
     1
 91
        4
 64
     7
 65
   257
 75
     1
175
     1
 42
1.0
 92
        0
 66
   257
 43
1.0
 76
     1
 77
     6
 78
     2
 67
     7
 79
     5
170
     0
171
     0
290
     0
174
     0
 93
       13
 44
0.0
173
     0
291
     1
 45
0.0
  0
VISUALSTYLE
  5
38
102
{ACAD_REACTORS
330
2A
102
}
102
{ACAD_XDICTIONARY
360
1B5
102
}
330
2A
100
AcDbVisualStyle
  2
Linepattern
 70
    14
 71
     2
 72
     2
 73
     0
 90
        0
 40
-0.6
 41
-30.0
 62
     5
 63
     7
421
 16777215
 74
     1
 91
        4
 64
     7
 65
   257
 75
     7
175
     7
 42
1.0
 92
        8
 66
     7
 43
1.0
 76
     1
 77
     6
 78
     2
 67
     7
 79
     5
170
     0
171
     0
290
     0
174
     0
 93
        1
 44
0.0
173
     0
291
     1
 45
0.0
  0
VISUALSTYLE
  5
33
102
{ACAD_REACTORS
330
2A
102
}
102
{ACAD_XDICTIONARY
360
1AB
102
}
330
2A
100
AcDbVisualStyle
  2
Realistic
 70
     8
 71
     2
 72
     2
 73
     0
 90
        0
 40
-0.6
 41
-30.0
 62
     5
 63
     7
421
 16777215
 74
     1
 91
        0
 64
     7
 65
   257
 75
     1
175
     1
 42
1.0
 92
        8
 66
     8
424
  7895160
 43
1.0
 76
     1
 77
     6
 78
     2
 67
     7
 79
     5
170
     0
171
     0
290
     0
174
     0
 93
       13
 44
0.0
173
     0
291
     0
 45
0.0
  0
VISUALSTYLE
  5
37
102
{ACAD_REACTORS
330
2A
102
}
102
{ACAD_XDICTIONARY
360
1B3
102
}
330
2A
100
AcDbVisualStyle
  2
Thicken
 70
    13
 71
     2
 72
     2
 73
     0
 90
        0
 40
-0.6
 41
-30.0
 62
     5
 63
     7
421
 16777215
 74
     1
 91
        4
 64
     7
 65
   257
 75
     1
175
     1
 42
1.0
 92
       12
 66
     7
 43
1.0
 76
     1
 77
     6
 78
     2
 67
     7
 79
     5
170
     0
171
     0
290
     0
174
     0
 93
        1
 44
0.0
173
     0
291
     1
 45
0.0
  0
DICTIONARY
  5
1A3
330
2F
100
AcDbDictionary
280
     1
281
     1
  3
ACAD_XREC_ROUNDTRIP
360
1A4
  0
DICTIONARY
  5
1A7
330
31
100
AcDbDictionary
280
     1
281
     1
  3
ACAD_XREC_ROUNDTRIP
360
1A8
  0
DICTIONARY
  5
1A5
330
30
100
AcDbDictionary
280
     1
281
     1
  3
ACAD_XREC_ROUNDTRIP
360
1A6
  0
DICTIONARY
  5
1A9
330
32
100
AcDbDictionary
280
     1
281
     1
  3
ACAD_XREC_ROUNDTRIP
360
1AA
  0
DICTIONARY
  5
1B1
330
36
100
AcDbDictionary
280
     1
281
     1
  3
ACAD_XREC_ROUNDTRIP
360
1B2
  0
DICTIONARY
  5
1B9
330
3A
100
AcDbDictionary
280
     1
281
     1
  3
ACAD_XREC_ROUNDTRIP
360
1BA
  0
DICTIONARY
  5
1AD
330
34
100
AcDbDictionary
280
     1
281
     1
  3
ACAD_XREC_ROUNDTRIP
360
1AE
  0
DICTIONARY
  5
1AF
330
35
100
AcDbDictionary
280
     1
281
     1
  3
ACAD_XREC_ROUNDTRIP
360
1B0
  0
DICTIONARY
  5
1B7
330
39
100
AcDbDictionary
280
     1
281
     1
  3
ACAD_XREC_ROUNDTRIP
360
1B8
  0
DICTIONARY
  5
19B
330
2B
100
AcDbDictionary
280
     1
281
     1
  3
ACAD_XREC_ROUNDTRIP
360
19C
  0
DICTIONARY
  5
19D
330
2C
100
AcDbDictionary
280
     1
281
     1
  3
ACAD_XREC_ROUNDTRIP
360
19E
  0
DICTIONARY
  5
19F
330
2D
100
AcDbDictionary
280
     1
281
     1
  3
ACAD_XREC_ROUNDTRIP
360
1A0
  0
DICTIONARY
  5
1A1
330
2E
100
AcDbDictionary
280
     1
281
     1
  3
ACAD_XREC_ROUNDTRIP
360
1A2
  0
DICTIONARY
  5
1B5
330
38
100
AcDbDictionary
280
     1
281
     1
  3
ACAD_XREC_ROUNDTRIP
360
1B6
  0
DICTIONARY
  5
1AB
330
33
100
AcDbDictionary
280
     1
281
     1
  3
ACAD_XREC_ROUNDTRIP
360
1AC
  0
DICTIONARY
  5
1B3
330
37
100
AcDbDictionary
280
     1
281
     1
  3
ACAD_XREC_ROUNDTRIP
360
1B4
  0
XRECORD
  5
1A4
102
{ACAD_REACTORS
330
1A3
102
}
330
1A3
100
AcDbXrecord
280
     1
102
RTVSPropertyOp0
 70
     1
102
RTVSPropertyOp1
 70
     1
102
RTVSPropertyOp2
 70
     1
102
RTVSPropertyOp3
 70
     1
102
RTVSPropertyOp4
 70
     1
102
RTVSPropertyOp5
 70
     1
102
RTVSPropertyOp6
 70
     1
102
RTVSPropertyOp7
 70
     1
102
RTVSPropertyOp8
 70
     1
102
RTVSPropertyOp9
 70
     1
102
RTVSPropertyOp10
 70
     1
102
RTVSPropertyOp11
 70
     1
102
RTVSPropertyOp12
 70
     1
102
RTVSPropertyOp13
 70
     1
102
RTVSPropertyOp14
 70
     1
102
RTVSPropertyOp15
 70
     1
102
RTVSPropertyOp16
 70
     1
102
RTVSPropertyOp17
 70
     1
102
RTVSPropertyOp18
 70
     1
102
RTVSPropertyOp19
 70
     1
102
RTVSPropertyOp20
 70
     1
102
RTVSPropertyOp21
 70
     1
102
RTVSPropertyOp22
 70
     1
102
RTVSPropertyOp23
 70
     1
102
RTVSPropertyOp24
 70
     1
102
RTVSPropertyOp25
 70
     1
102
RTVSPropertyOp26
 70
     1
102
RTVSPropertyOp27
 70
     1
  0
XRECORD
  5
1A8
102
{ACAD_REACTORS
330
1A7
102
}
330
1A7
100
AcDbXrecord
280
     1
102
RTVSPropertyOp0
 70
     1
102
RTVSPropertyOp1
 70
     1
102
RTVSPropertyOp2
 70
     1
102
RTVSPropertyOp3
 70
     1
102
RTVSPropertyOp4
 70
     1
102
RTVSPropertyOp5
 70
     1
102
RTVSPropertyOp6
 70
     1
102
RTVSPropertyOp7
 70
     1
102
RTVSPropertyOp8
 70
     1
102
RTVSPropertyOp9
 70
     1
102
RTVSPropertyOp10
 70
     1
102
RTVSPropertyOp11
 70
     1
102
RTVSPropertyOp12
 70
     1
102
RTVSPropertyOp13
 70
     1
102
RTVSPropertyOp14
 70
     1
102
RTVSPropertyOp15
 70
     1
102
RTVSPropertyOp16
 70
     1
102
RTVSPropertyOp17
 70
     1
102
RTVSPropertyOp18
 70
     1
102
RTVSPropertyOp19
 70
     1
102
RTVSPropertyOp20
 70
     1
102
RTVSPropertyOp21
 70
     1
102
RTVSPropertyOp22
 70
     1
102
RTVSPropertyOp23
 70
     1
102
RTVSPropertyOp24
 70
     1
102
RTVSPropertyOp25
 70
     1
102
RTVSPropertyOp26
 70
     1
102
RTVSPropertyOp27
 70
     1
  0
XRECORD
  5
1A6
102
{ACAD_REACTORS
330
1A5
102
}
330
1A5
100
AcDbXrecord
280
     1
102
RTVSPropertyOp0
 70
     1
102
RTVSPropertyOp1
 70
     1
102
RTVSPropertyOp2
 70
     1
102
RTVSPropertyOp3
 70
     1
102
RTVSPropertyOp4
 70
     1
102
RTVSPropertyOp5
 70
     1
102
RTVSPropertyOp6
 70
     1
102
RTVSPropertyOp7
 70
     1
102
RTVSPropertyOp8
 70
     1
102
RTVSPropertyOp9
 70
     1
102
RTVSPropertyOp10
 70
     1
102
RTVSPropertyOp11
 70
     1
102
RTVSPropertyOp12
 70
     1
102
RTVSPropertyOp13
 70
     1
102
RTVSPropertyOp14
 70
     1
102
RTVSPropertyOp15
 70
     1
102
RTVSPropertyOp16
 70
     1
102
RTVSPropertyOp17
 70
     1
102
RTVSPropertyOp18
 70
     1
102
RTVSPropertyOp19
 70
     1
102
RTVSPropertyOp20
 70
     1
102
RTVSPropertyOp21
 70
     1
102
RTVSPropertyOp22
 70
     1
102
RTVSPropertyOp23
 70
     1
102
RTVSPropertyOp24
 70
     1
102
RTVSPropertyOp25
 70
     1
102
RTVSPropertyOp26
 70
     1
102
RTVSPropertyOp27
 70
     1
  0
XRECORD
  5
1AA
102
{ACAD_REACTORS
330
1A9
102
}
330
1A9
100
AcDbXrecord
280
     1
102
RTVSPropertyOp0
 70
     1
102
RTVSPropertyOp1
 70
     1
102
RTVSPropertyOp2
 70
     1
102
RTVSPropertyOp3
 70
     1
102
RTVSPropertyOp4
 70
     1
102
RTVSPropertyOp5
 70
     1
102
RTVSPropertyOp6
 70
     1
102
RTVSPropertyOp7
 70
     1
102
RTVSPropertyOp8
 70
     1
102
RTVSPropertyOp9
 70
     1
102
RTVSPropertyOp10
 70
     1
102
RTVSPropertyOp11
 70
     1
102
RTVSPropertyOp12
 70
     1
102
RTVSPropertyOp13
 70
     1
102
RTVSPropertyOp14
 70
     1
102
RTVSPropertyOp15
 70
     1
102
RTVSPropertyOp16
 70
     1
102
RTVSPropertyOp17
 70
     1
102
RTVSPropertyOp18
 70
     1
102
RTVSPropertyOp19
 70
     1
102
RTVSPropertyOp20
 70
     1
102
RTVSPropertyOp21
 70
     1
102
RTVSPropertyOp22
 70
     1
102
RTVSPropertyOp23
 70
     1
102
RTVSPropertyOp24
 70
     1
102
RTVSPropertyOp25
 70
     1
102
RTVSPropertyOp26
 70
     1
102
RTVSPropertyOp27
 70
     1
  0
XRECORD
  5
1B2
102
{ACAD_REACTORS
330
1B1
102
}
330
1B1
100
AcDbXrecord
280
     1
102
RTVSPropertyOp0
 70
     1
102
RTVSPropertyOp1
 70
     1
102
RTVSPropertyOp2
 70
     1
102
RTVSPropertyOp3
 70
     1
102
RTVSPropertyOp4
 70
     1
102
RTVSPropertyOp5
 70
     1
102
RTVSPropertyOp6
 70
     1
102
RTVSPropertyOp7
 70
     1
102
RTVSPropertyOp8
 70
     1
102
RTVSPropertyOp9
 70
     1
102
RTVSPropertyOp10
 70
     1
102
RTVSPropertyOp11
 70
     1
102
RTVSPropertyOp12
 70
     1
102
RTVSPropertyOp13
 70
     1
102
RTVSPropertyOp14
 70
     1
102
RTVSPropertyOp15
 70
     1
102
RTVSPropertyOp16
 70
     1
102
RTVSPropertyOp17
 70
     1
102
RTVSPropertyOp18
 70
     1
102
RTVSPropertyOp19
 70
     1
102
RTVSPropertyOp20
 70
     1
102
RTVSPropertyOp21
 70
     1
102
RTVSPropertyOp22
 70
     1
102
RTVSPropertyOp23
 70
     1
102
RTVSPropertyOp24
 70
     1
102
RTVSPropertyOp25
 70
     1
102
RTVSPropertyOp26
 70
     1
102
RTVSPropertyOp27
 70
     1
  0
XRECORD
  5
1BA
102
{ACAD_REACTORS
330
1B9
102
}
330
1B9
100
AcDbXrecord
280
     1
102
RTVSPropertyOp0
 70
     1
102
RTVSPropertyOp1
 70
     1
102
RTVSPropertyOp2
 70
     1
102
RTVSPropertyOp3
 70
     1
102
RTVSPropertyOp4
 70
     1
102
RTVSPropertyOp5
 70
     1
102
RTVSPropertyOp6
 70
     1
102
RTVSPropertyOp7
 70
     1
102
RTVSPropertyOp8
 70
     1
102
RTVSPropertyOp9
 70
     1
102
RTVSPropertyOp10
 70
     1
102
RTVSPropertyOp11
 70
     1
102
RTVSPropertyOp12
 70
     1
102
RTVSPropertyOp13
 70
     1
102
RTVSPropertyOp14
 70
     1
102
RTVSPropertyOp15
 70
     1
102
RTVSPropertyOp16
 70
     1
102
RTVSPropertyOp17
 70
     1
102
RTVSPropertyOp18
 70
     1
102
RTVSPropertyOp19
 70
     1
102
RTVSPropertyOp20
 70
     1
102
RTVSPropertyOp21
 70
     1
102
RTVSPropertyOp22
 70
     1
102
RTVSPropertyOp23
 70
     1
102
RTVSPropertyOp24
 70
     1
102
RTVSPropertyOp25
 70
     1
102
RTVSPropertyOp26
 70
     1
102
RTVSPropertyOp27
 70
     1
  0
XRECORD
  5
1AE
102
{ACAD_REACTORS
330
1AD
102
}
330
1AD
100
AcDbXrecord
280
     1
102
RTVSPropertyOp0
 70
     1
102
RTVSPropertyOp1
 70
     1
102
RTVSPropertyOp2
 70
     1
102
RTVSPropertyOp3
 70
     1
102
RTVSPropertyOp4
 70
     1
102
RTVSPropertyOp5
 70
     1
102
RTVSPropertyOp6
 70
     1
102
RTVSPropertyOp7
 70
     1
102
RTVSPropertyOp8
 70
     1
102
RTVSPropertyOp9
 70
     1
102
RTVSPropertyOp10
 70
     1
102
RTVSPropertyOp11
 70
     1
102
RTVSPropertyOp12
 70
     1
102
RTVSPropertyOp13
 70
     1
102
RTVSPropertyOp14
 70
     1
102
RTVSPropertyOp15
 70
     1
102
RTVSPropertyOp16
 70
     1
102
RTVSPropertyOp17
 70
     1
102
RTVSPropertyOp18
 70
     1
102
RTVSPropertyOp19
 70
     1
102
RTVSPropertyOp20
 70
     1
102
RTVSPropertyOp21
 70
     1
102
RTVSPropertyOp22
 70
     1
102
RTVSPropertyOp23
 70
     1
102
RTVSPropertyOp24
 70
     1
102
RTVSPropertyOp25
 70
     1
102
RTVSPropertyOp26
 70
     1
102
RTVSPropertyOp27
 70
     1
  0
XRECORD
  5
1B0
102
{ACAD_REACTORS
330
1AF
102
}
330
1AF
100
AcDbXrecord
280
     1
102
RTVSPropertyOp0
 70
     1
102
RTVSPropertyOp1
 70
     1
102
RTVSPropertyOp2
 70
     1
102
RTVSPropertyOp3
 70
     1
102
RTVSPropertyOp4
 70
     1
102
RTVSPropertyOp5
 70
     1
102
RTVSPropertyOp6
 70
     1
102
RTVSPropertyOp7
 70
     1
102
RTVSPropertyOp8
 70
     1
102
RTVSPropertyOp9
 70
     1
102
RTVSPropertyOp10
 70
     1
102
RTVSPropertyOp11
 70
     1
102
RTVSPropertyOp12
 70
     1
102
RTVSPropertyOp13
 70
     1
102
RTVSPropertyOp14
 70
     1
102
RTVSPropertyOp15
 70
     1
102
RTVSPropertyOp16
 70
     1
102
RTVSPropertyOp17
 70
     1
102
RTVSPropertyOp18
 70
     1
102
RTVSPropertyOp19
 70
     1
102
RTVSPropertyOp20
 70
     1
102
RTVSPropertyOp21
 70
     1
102
RTVSPropertyOp22
 70
     1
102
RTVSPropertyOp23
 70
     1
102
RTVSPropertyOp24
 70
     1
102
RTVSPropertyOp25
 70
     1
102
RTVSPropertyOp26
 70
     1
102
RTVSPropertyOp27
 70
     1
  0
XRECORD
  5
1B8
102
{ACAD_REACTORS
330
1B7
102
}
330
1B7
100
AcDbXrecord
280
     1
102
RTVSPropertyOp0
 70
     1
102
RTVSPropertyOp1
 70
     1
102
RTVSPropertyOp2
 70
     1
102
RTVSPropertyOp3
 70
     1
102
RTVSPropertyOp4
 70
     1
102
RTVSPropertyOp5
 70
     1
102
RTVSPropertyOp6
 70
     1
102
RTVSPropertyOp7
 70
     1
102
RTVSPropertyOp8
 70
     1
102
RTVSPropertyOp9
 70
     1
102
RTVSPropertyOp10
 70
     1
102
RTVSPropertyOp11
 70
     1
102
RTVSPropertyOp12
 70
     1
102
RTVSPropertyOp13
 70
     1
102
RTVSPropertyOp14
 70
     1
102
RTVSPropertyOp15
 70
     1
102
RTVSPropertyOp16
 70
     1
102
RTVSPropertyOp17
 70
     1
102
RTVSPropertyOp18
 70
     1
102
RTVSPropertyOp19
 70
     1
102
RTVSPropertyOp20
 70
     1
102
RTVSPropertyOp21
 70
     1
102
RTVSPropertyOp22
 70
     1
102
RTVSPropertyOp23
 70
     1
102
RTVSPropertyOp24
 70
     1
102
RTVSPropertyOp25
 70
     1
102
RTVSPropertyOp26
 70
     1
102
RTVSPropertyOp27
 70
     1
  0
XRECORD
  5
19C
102
{ACAD_REACTORS
330
19B
102
}
330
19B
100
AcDbXrecord
280
     1
102
RTVSPropertyOp0
 70
     1
102
RTVSPropertyOp1
 70
     1
102
RTVSPropertyOp2
 70
     1
102
RTVSPropertyOp3
 70
     1
102
RTVSPropertyOp4
 70
     1
102
RTVSPropertyOp5
 70
     1
102
RTVSPropertyOp6
 70
     1
102
RTVSPropertyOp7
 70
     1
102
RTVSPropertyOp8
 70
     1
102
RTVSPropertyOp9
 70
     1
102
RTVSPropertyOp10
 70
     1
102
RTVSPropertyOp11
 70
     1
102
RTVSPropertyOp12
 70
     1
102
RTVSPropertyOp13
 70
     1
102
RTVSPropertyOp14
 70
     1
102
RTVSPropertyOp15
 70
     1
102
RTVSPropertyOp16
 70
     1
102
RTVSPropertyOp17
 70
     1
102
RTVSPropertyOp18
 70
     1
102
RTVSPropertyOp19
 70
     1
102
RTVSPropertyOp20
 70
     1
102
RTVSPropertyOp21
 70
     1
102
RTVSPropertyOp22
 70
     1
102
RTVSPropertyOp23
 70
     1
102
RTVSPropertyOp24
 70
     1
102
RTVSPropertyOp25
 70
     1
102
RTVSPropertyOp26
 70
     1
102
RTVSPropertyOp27
 70
     1
  0
XRECORD
  5
19E
102
{ACAD_REACTORS
330
19D
102
}
330
19D
100
AcDbXrecord
280
     1
102
RTVSPropertyOp0
 70
     1
102
RTVSPropertyOp1
 70
     1
102
RTVSPropertyOp2
 70
     1
102
RTVSPropertyOp3
 70
     1
102
RTVSPropertyOp4
 70
     1
102
RTVSPropertyOp5
 70
     1
102
RTVSPropertyOp6
 70
     1
102
RTVSPropertyOp7
 70
     1
102
RTVSPropertyOp8
 70
     1
102
RTVSPropertyOp9
 70
     1
102
RTVSPropertyOp10
 70
     1
102
RTVSPropertyOp11
 70
     1
102
RTVSPropertyOp12
 70
     1
102
RTVSPropertyOp13
 70
     1
102
RTVSPropertyOp14
 70
     1
102
RTVSPropertyOp15
 70
     1
102
RTVSPropertyOp16
 70
     1
102
RTVSPropertyOp17
 70
     1
102
RTVSPropertyOp18
 70
     1
102
RTVSPropertyOp19
 70
     1
102
RTVSPropertyOp20
 70
     1
102
RTVSPropertyOp21
 70
     1
102
RTVSPropertyOp22
 70
     1
102
RTVSPropertyOp23
 70
     1
102
RTVSPropertyOp24
 70
     1
102
RTVSPropertyOp25
 70
     1
102
RTVSPropertyOp26
 70
     1
102
RTVSPropertyOp27
 70
     1
  0
XRECORD
  5
1A0
102
{ACAD_REACTORS
330
19F
102
}
330
19F
100
AcDbXrecord
280
     1
102
RTVSPropertyOp0
 70
     1
102
RTVSPropertyOp1
 70
     1
102
RTVSPropertyOp2
 70
     1
102
RTVSPropertyOp3
 70
     1
102
RTVSPropertyOp4
 70
     1
102
RTVSPropertyOp5
 70
     1
102
RTVSPropertyOp6
 70
     1
102
RTVSPropertyOp7
 70
     1
102
RTVSPropertyOp8
 70
     1
102
RTVSPropertyOp9
 70
     1
102
RTVSPropertyOp10
 70
     1
102
RTVSPropertyOp11
 70
     1
102
RTVSPropertyOp12
 70
     1
102
RTVSPropertyOp13
 70
     1
102
RTVSPropertyOp14
 70
     1
102
RTVSPropertyOp15
 70
     1
102
RTVSPropertyOp16
 70
     1
102
RTVSPropertyOp17
 70
     1
102
RTVSPropertyOp18
 70
     1
102
RTVSPropertyOp19
 70
     1
102
RTVSPropertyOp20
 70
     1
102
RTVSPropertyOp21
 70
     1
102
RTVSPropertyOp22
 70
     1
102
RTVSPropertyOp23
 70
     1
102
RTVSPropertyOp24
 70
     1
102
RTVSPropertyOp25
 70
     1
102
RTVSPropertyOp26
 70
     1
102
RTVSPropertyOp27
 70
     1
  0
XRECORD
  5
1A2
102
{ACAD_REACTORS
330
1A1
102
}
330
1A1
100
AcDbXrecord
280
     1
102
RTVSPropertyOp0
 70
     1
102
RTVSPropertyOp1
 70
     1
102
RTVSPropertyOp2
 70
     1
102
RTVSPropertyOp3
 70
     1
102
RTVSPropertyOp4
 70
     1
102
RTVSPropertyOp5
 70
     1
102
RTVSPropertyOp6
 70
     1
102
RTVSPropertyOp7
 70
     1
102
RTVSPropertyOp8
 70
     1
102
RTVSPropertyOp9
 70
     1
102
RTVSPropertyOp10
 70
     1
102
RTVSPropertyOp11
 70
     1
102
RTVSPropertyOp12
 70
     1
102
RTVSPropertyOp13
 70
     1
102
RTVSPropertyOp14
 70
     1
102
RTVSPropertyOp15
 70
     1
102
RTVSPropertyOp16
 70
     1
102
RTVSPropertyOp17
 70
     1
102
RTVSPropertyOp18
 70
     1
102
RTVSPropertyOp19
 70
     1
102
RTVSPropertyOp20
 70
     1
102
RTVSPropertyOp21
 70
     1
102
RTVSPropertyOp22
 70
     1
102
RTVSPropertyOp23
 70
     1
102
RTVSPropertyOp24
 70
     1
102
RTVSPropertyOp25
 70
     1
102
RTVSPropertyOp26
 70
     1
102
RTVSPropertyOp27
 70
     1
  0
XRECORD
  5
1B6
102
{ACAD_REACTORS
330
1B5
102
}
330
1B5
100
AcDbXrecord
280
     1
102
RTVSPropertyOp0
 70
     1
102
RTVSPropertyOp1
 70
     1
102
RTVSPropertyOp2
 70
     1
102
RTVSPropertyOp3
 70
     1
102
RTVSPropertyOp4
 70
     1
102
RTVSPropertyOp5
 70
     1
102
RTVSPropertyOp6
 70
     1
102
RTVSPropertyOp7
 70
     1
102
RTVSPropertyOp8
 70
     1
102
RTVSPropertyOp9
 70
     1
102
RTVSPropertyOp10
 70
     1
102
RTVSPropertyOp11
 70
     1
102
RTVSPropertyOp12
 70
     1
102
RTVSPropertyOp13
 70
     1
102
RTVSPropertyOp14
 70
     1
102
RTVSPropertyOp15
 70
     1
102
RTVSPropertyOp16
 70
     1
102
RTVSPropertyOp17
 70
     1
102
RTVSPropertyOp18
 70
     1
102
RTVSPropertyOp19
 70
     1
102
RTVSPropertyOp20
 70
     1
102
RTVSPropertyOp21
 70
     1
102
RTVSPropertyOp22
 70
     1
102
RTVSPropertyOp23
 70
     1
102
RTVSPropertyOp24
 70
     1
102
RTVSPropertyOp25
 70
     1
102
RTVSPropertyOp26
 70
     1
102
RTVSPropertyOp27
 70
     1
  0
XRECORD
  5
1AC
102
{ACAD_REACTORS
330
1AB
102
}
330
1AB
100
AcDbXrecord
280
     1
102
RTVSPropertyOp0
 70
     1
102
RTVSPropertyOp1
 70
     1
102
RTVSPropertyOp2
 70
     1
102
RTVSPropertyOp3
 70
     1
102
RTVSPropertyOp4
 70
     1
102
RTVSPropertyOp5
 70
     1
102
RTVSPropertyOp6
 70
     1
102
RTVSPropertyOp7
 70
     1
102
RTVSPropertyOp8
 70
     1
102
RTVSPropertyOp9
 70
     1
102
RTVSPropertyOp10
 70
     1
102
RTVSPropertyOp11
 70
     1
102
RTVSPropertyOp12
 70
     1
102
RTVSPropertyOp13
 70
     1
102
RTVSPropertyOp14
 70
     1
102
RTVSPropertyOp15
 70
     1
102
RTVSPropertyOp16
 70
     1
102
RTVSPropertyOp17
 70
     1
102
RTVSPropertyOp18
 70
     1
102
RTVSPropertyOp19
 70
     1
102
RTVSPropertyOp20
 70
     1
102
RTVSPropertyOp21
 70
     1
102
RTVSPropertyOp22
 70
     1
102
RTVSPropertyOp23
 70
     1
102
RTVSPropertyOp24
 70
     1
102
RTVSPropertyOp25
 70
     1
102
RTVSPropertyOp26
 70
     1
102
RTVSPropertyOp27
 70
     1
  0
XRECORD
  5
1B4
102
{ACAD_REACTORS
330
1B3
102
}
330
1B3
100
AcDbXrecord
280
     1
102
RTVSPropertyOp0
 70
     1
102
RTVSPropertyOp1
 70
     1
102
RTVSPropertyOp2
 70
     1
102
RTVSPropertyOp3
 70
     1
102
RTVSPropertyOp4
 70
     1
102
RTVSPropertyOp5
 70
     1
102
RTVSPropertyOp6
 70
     1
102
RTVSPropertyOp7
 70
     1
102
RTVSPropertyOp8
 70
     1
102
RTVSPropertyOp9
 70
     1
102
RTVSPropertyOp10
 70
     1
102
RTVSPropertyOp11
 70
     1
102
RTVSPropertyOp12
 70
     1
102
RTVSPropertyOp13
 70
     1
102
RTVSPropertyOp14
 70
     1
102
RTVSPropertyOp15
 70
     1
102
RTVSPropertyOp16
 70
     1
102
RTVSPropertyOp17
 70
     1
102
RTVSPropertyOp18
 70
     1
102
RTVSPropertyOp19
 70
     1
102
RTVSPropertyOp20
 70
     1
102
RTVSPropertyOp21
 70
     1
102
RTVSPropertyOp22
 70
     1
102
RTVSPropertyOp23
 70
     1
102
RTVSPropertyOp24
 70
     1
102
RTVSPropertyOp25
 70
     1
102
RTVSPropertyOp26
 70
     1
102
RTVSPropertyOp27
 70
     1
  0
ENDSEC
  0
EOF
