  0
SECTION
  2
HEADER
  9
$ACADVER
  1
AC1021
  9
$ACADMAINTVER
 70
    25
  9
$DWGCODEPAGE
  3
ANSI_1252
  9
$INSBASE
 10
0.0
 20
0.0
 30
0.0
  9
$EXTMIN
 10
-18.01666
 20
-0.53403
 30
0.0
  9
$EXTMAX
 10
3.61972
 20
12.78378
 30
0.0
  9
$LIMMIN
 10
0.0
 20
0.0
  9
$LIMMAX
 10
12.0
 20
9.0
  9
$ORTHOMODE
 70
     0
  9
$REGENMODE
 70
     1
  9
$FILLMODE
 70
     1
  9
$QTEXTMODE
 70
     0
  9
$MIRRTEXT
 70
     1
  9
$LTSCALE
 40
1.0
  9
$ATTMODE
 70
     1
  9
$TEXTSIZE
 40
0.2
  9
$TRACEWID
 40
0.05
  9
$TEXTSTYLE
  7
Standard
  9
$CLAYER
  8
0
  9
$CELTYPE
  6
ByLayer
  9
$CECOLOR
 62
   256
  9
$CELTSCALE
 40
1.0
  9
$DISPSILH
 70
     0
  9
$DIMSCALE
 40
1.0
  9
$DIMASZ
 40
0.18
  9
$DIMEXO
 40
0.0625
  9
$DIMDLI
 40
0.38
  9
$DIMRND
 40
0.0
  9
$DIMDLE
 40
0.0
  9
$DIMEXE
 40
0.18
  9
$DIMTP
 40
0.0
  9
$DIMTM
 40
0.0
  9
$DIMTXT
 40
0.18
  9
$DIMCEN
 40
0.09
  9
$DIMTSZ
 40
0.0
  9
$DIMTOL
 70
     0
  9
$DIMLIM
 70
     0
  9
$DIMTIH
 70
     1
  9
$DIMTOH
 70
     1
  9
$DIMSE1
 70
     0
  9
$DIMSE2
 70
     0
  9
$DIMTAD
 70
     0
  9
$DIMZIN
 70
     0
  9
$DIMBLK
  1

  9
$DIMASO
 70
     1
  9
$DIMSHO
 70
     1
  9
$DIMPOST
  1

  9
$DIMAPOST
  1

  9
$DIMALT
 70
     0
  9
$DIMALTD
 70
     2
  9
$DIMALTF
 40
25.4
  9
$DIMLFAC
 40
1.0
  9
$DIMTOFL
 70
     0
  9
$DIMTVP
 40
0.0
  9
$DIMTIX
 70
     0
  9
$DIMSOXD
 70
     0
  9
$DIMSAH
 70
     0
  9
$DIMBLK1
  1

  9
$DIMBLK2
  1

  9
$DIMSTYLE
  2
Standard
  9
$DIMCLRD
 70
     0
  9
$DIMCLRE
 70
     0
  9
$DIMCLRT
 70
     0
  9
$DIMTFAC
 40
1.0
  9
$DIMGAP
 40
0.09
  9
$DIMJUST
 70
     0
  9
$DIMSD1
 70
     0
  9
$DIMSD2
 70
     0
  9
$DIMTOLJ
 70
     1
  9
$DIMTZIN
 70
     0
  9
$DIMALTZ
 70
     0
  9
$DIMALTTZ
 70
     0
  9
$DIMUPT
 70
     0
  9
$DIMDEC
 70
     4
  9
$DIMTDEC
 70
     4
  9
$DIMALTU
 70
     2
  9
$DIMALTTD
 70
     2
  9
$DIMTXSTY
  7
Standard
  9
$DIMAUNIT
 70
     0
  9
$DIMADEC
 70
     0
  9
$DIMALTRND
 40
0.0
  9
$DIMAZIN
 70
     0
  9
$DIMDSEP
 70
    46
  9
$DIMATFIT
 70
     3
  9
$DIMFRAC
 70
     0
  9
$DIMLDRBLK
  1

  9
$DIMLUNIT
 70
     2
  9
$DIMLWD
 70
    -2
  9
$DIMLWE
 70
    -2
  9
$DIMTMOVE
 70
     0
  9
$DIMFXL
 40
1.0
  9
$DIMFXLON
 70
     0
  9
$DIMJOGANG
 40
0.7853981633974483
  9
$DIMTFILL
 70
     0
  9
$DIMTFILLCLR
 70
     0
  9
$DIMARCSYM
 70
     0
  9
$DIMLTYPE
  6

  9
$DIMLTEX1
  6

  9
$DIMLTEX2
  6

  9
$LUNITS
 70
     2
  9
$LUPREC
 70
     4
  9
$SKETCHINC
 40
0.1
  9
$FILLETRAD
 40
0.5
  9
$AUNITS
 70
     0
  9
$AUPREC
 70
     0
  9
$MENU
  1
.
  9
$ELEVATION
 40
0.0
  9
$PELEVATION
 40
0.0
  9
$THICKNESS
 40
0.0
  9
$LIMCHECK
 70
     0
  9
$CHAMFERA
 40
0.5
  9
$CHAMFERB
 40
0.5
  9
$CHAMFERC
 40
1.0
  9
$CHAMFERD
 40
0.0
  9
$SKPOLY
 70
     0
  9
$TDCREATE
 40
2456615.379259549
  9
$TDUCREATE
 40
2456615.337592882
  9
$TDUPDATE
 40
2456615.37925956
  9
$TDUUPDATE
 40
2456615.337592894
  9
$TDINDWG
 40
0.0000000116
  9
$TDUSRTIMER
 40
0.0000000116
  9
$USRTIMER
 70
     1
  9
$ANGBASE
 50
0.0
  9
$ANGDIR
 70
     0
  9
$PDMODE
 70
     0
  9
$PDSIZE
 40
0.0
  9
$PLINEWID
 40
0.0
  9
$SPLFRAME
 70
     0
  9
$SPLINETYPE
 70
     6
  9
$SPLINESEGS
 70
     8
  9
$HANDSEED
  5
16E
  9
$SURFTAB1
 70
     6
  9
$SURFTAB2
 70
     6
  9
$SURFTYPE
 70
     6
  9
$SURFU
 70
     6
  9
$SURFV
 70
     6
  9
$UCSBASE
  2

  9
$UCSNAME
  2

  9
$UCSORG
 10
0.0
 20
0.0
 30
0.0
  9
$UCSXDIR
 10
1.0
 20
0.0
 30
0.0
  9
$UCSYDIR
 10
0.0
 20
1.0
 30
0.0
  9
$UCSORTHOREF
  2

  9
$UCSORTHOVIEW
 70
     0
  9
$UCSORGTOP
 10
0.0
 20
0.0
 30
0.0
  9
$UCSORGBOTTOM
 10
0.0
 20
0.0
 30
0.0
  9
$UCSORGLEFT
 10
0.0
 20
0.0
 30
0.0
  9
$UCSORGRIGHT
 10
0.0
 20
0.0
 30
0.0
  9
$UCSORGFRONT
 10
0.0
 20
0.0
 30
0.0
  9
$UCSORGBACK
 10
0.0
 20
0.0
 30
0.0
  9
$PUCSBASE
  2

  9
$PUCSNAME
  2

  9
$PUCSORG
 10
0.0
 20
0.0
 30
0.0
  9
$PUCSXDIR
 10
1.0
 20
0.0
 30
0.0
  9
$PUCSYDIR
 10
0.0
 20
1.0
 30
0.0
  9
$PUCSORTHOREF
  2

  9
$PUCSORTHOVIEW
 70
     0
  9
$PUCSORGTOP
 10
0.0
 20
0.0
 30
0.0
  9
$PUCSORGBOTTOM
 10
0.0
 20
0.0
 30
0.0
  9
$PUCSORGLEFT
 10
0.0
 20
0.0
 30
0.0
  9
$PUCSORGRIGHT
 10
0.0
 20
0.0
 30
0.0
  9
$PUCSORGFRONT
 10
0.0
 20
0.0
 30
0.0
  9
$PUCSORGBACK
 10
0.0
 20
0.0
 30
0.0
  9
$USERI1
 70
     0
  9
$USERI2
 70
     0
  9
$USERI3
 70
     0
  9
$USERI4
 70
     0
  9
$USERI5
 70
     0
  9
$USERR1
 40
0.0
  9
$USERR2
 40
0.0
  9
$USERR3
 40
0.0
  9
$USERR4
 40
0.0
  9
$USERR5
 40
0.0
  9
$WORLDVIEW
 70
     1
  9
$SHADEDGE
 70
     3
  9
$SHADEDIF
 70
    70
  9
$TILEMODE
 70
     1
  9
$MAXACTVP
 70
    64
  9
$PINSBASE
 10
0.0
 20
0.0
 30
0.0
  9
$PLIMCHECK
 70
     0
  9
$PEXTMIN
 10
1.000000000000000E+20
 20
1.000000000000000E+20
 30
1.000000000000000E+20
  9
$PEXTMAX
 10
-1.000000000000000E+20
 20
-1.000000000000000E+20
 30
-1.000000000000000E+20
  9
$PLIMMIN
 10
0.0
 20
0.0
  9
$PLIMMAX
 10
12.0
 20
9.0
  9
$UNITMODE
 70
     0
  9
$VISRETAIN
 70
     1
  9
$PLINEGEN
 70
     0
  9
$PSLTSCALE
 70
     1
  9
$TREEDEPTH
 70
  3020
  9
$CMLSTYLE
  2
Standard
  9
$CMLJUST
 70
     0
  9
$CMLSCALE
 40
1.0
  9
$PROXYGRAPHICS
 70
     1
  9
$MEASUREMENT
 70
     0
  9
$CELWEIGHT
370
    -1
  9
$ENDCAPS
280
     0
  9
$JOINSTYLE
280
     0
  9
$LWDISPLAY
290
     0
  9
$INSUNITS
 70
     5
  9
$HYPERLINKBASE
  1

  9
$STYLESHEET
  1

  9
$XEDIT
290
     1
  9
$CEPSNTYPE
380
     0
  9
$PSTYLEMODE
290
     1
  9
$FINGERPRINTGUID
  2
{1E4A899F-72B4-45DC-BAD2-AE83DB582453}
  9
$VERSIONGUID
  2
{FAEB1C32-E019-11D5-929B-00C0DF256EC4}
  9
$EXTNAMES
290
     1
  9
$PSVPSCALE
 40
0.0
  9
$OLESTARTUP
290
     0
  9
$SORTENTS
280
   127
  9
$INDEXCTL
280
     0
  9
$HIDETEXT
280
     1
  9
$XCLIPFRAME
290
     0
  9
$HALOGAP
280
     0
  9
$OBSCOLOR
 70
   257
  9
$OBSLTYPE
280
     0
  9
$INTERSECTIONDISPLAY
280
     0
  9
$INTERSECTIONCOLOR
 70
   257
  9
$DIMASSOC
280
     2
  9
$PROJECTNAME
  1

  9
$CAMERADISPLAY
290
     0
  9
$LENSLENGTH
 40
50.0
  9
$CAMERAHEIGHT
 40
0.0
  9
$STEPSPERSEC
 40
2.0
  9
$STEPSIZE
 40
6.0
  9
$3DDWFPREC
 40
2.0
  9
$PSOLWIDTH
 40
0.25
  9
$PSOLHEIGHT
 40
4.0
  9
$LOFTANG1
 40
1.570796326794897
  9
$LOFTANG2
 40
1.570796326794897
  9
$LOFTMAG1
 40
0.0
  9
$LOFTMAG2
 40
0.0
  9
$LOFTPARAM
 70
     7
  9
$LOFTNORMALS
280
     1
  9
$LATITUDE
 40
37.795
  9
$LONGITUDE
 40
-122.394
  9
$NORTHDIRECTION
 40
0.0
  9
$TIMEZONE
 70
 -8000
  9
$LIGHTGLYPHDISPLAY
280
     1
  9
$TILEMODELIGHTSYNCH
280
     1
  9
$SOLIDHIST
280
     1
  9
$SHOWHIST
280
     1
  9
$DWFFRAME
280
     2
  9
$DGNFRAME
280
     2
  9
$REALWORLDSCALE
290
     1
  9
$INTERFERECOLOR
 62
   256
  9
$CSHADOW
280
     0
  9
$SHADOWPLANELOCATION
 40
0.0
  0
ENDSEC
  0
SECTION
  2
CLASSES
  0
CLASS
  1
ACDBDICTIONARYWDFLT
  2
AcDbDictionaryWithDefault
  3
ObjectDBX Classes
 90
        0
 91
        4
280
     0
281
     0
  0
CLASS
  1
VISUALSTYLE
  2
AcDbVisualStyle
  3
ObjectDBX Classes
 90
     4095
 91
        4
280
     0
281
     0
  0
CLASS
  1
MATERIAL
  2
AcDbMaterial
  3
ObjectDBX Classes
 90
     1153
 91
        4
280
     0
281
     0
  0
ENDSEC
  0
SECTION
  2
TABLES
  0
TABLE
  2
VPORT
  5
8
330
0
100
AcDbSymbolTable
 70
     1
  0
VPORT
  5
29
330
8
100
AcDbSymbolTableRecord
100
AcDbViewportTableRecord
  2
*Active
 70
     0
 10
0.0
 20
0.0
 11
1.0
 21
1.0
 12
10.42990654205607
 22
4.5
 13
0.0
 23
0.0
 14
0.5
 24
0.5
 15
0.5
 25
0.5
 16
0.0
 26
0.0
 36
1.0
 17
0.0
 27
0.0
 37
0.0
 40
9.0
 41
1.972972972850329
 42
50.0
 43
0.0
 44
0.0
 50
0.0
 51
0.0
 71
     0
 72
   100
 73
     1
 74
     3
 75
     0
 76
     0
 77
     0
 78
     0
281
     0
 65
     1
110
0.0
120
0.0
130
0.0
111
1.0
121
0.0
131
0.0
112
0.0
122
1.0
132
0.0
 79
     0
146
0.0
 60
     3
 61
     5
292
     1
282
     1
141
0.0
142
0.0
 63
   250
  0
ENDTAB
  0
TABLE
  2
LTYPE
  5
5
330
0
100
AcDbSymbolTable
 70
     1
  0
LTYPE
  5
14
330
5
100
AcDbSymbolTableRecord
100
AcDbLinetypeTableRecord
  2
ByBlock
 70
     0
  3

 72
    65
 73
     0
 40
0.0
  0
LTYPE
  5
15
330
5
100
AcDbSymbolTableRecord
100
AcDbLinetypeTableRecord
  2
ByLayer
 70
     0
  3

 72
    65
 73
     0
 40
0.0
  0
LTYPE
  5
16
330
5
100
AcDbSymbolTableRecord
100
AcDbLinetypeTableRecord
  2
Continuous
 70
     0
  3
Solid line
 72
    65
 73
     0
 40
0.0
  0
ENDTAB
  0
TABLE
  2
LAYER
  5
2
330
0
100
AcDbSymbolTable
 70
     1
  0
LAYER
  5
10
330
2
100
AcDbSymbolTableRecord
100
AcDbLayerTableRecord
  2
0
 70
     0
 62
     7
  6
Continuous
370
    -3
390
F
347
3E
  0
ENDTAB
  0
TABLE
  2
STYLE
  5
3
330
0
100
AcDbSymbolTable
 70
     1
  0
STYLE
  5
11
330
3
100
AcDbSymbolTableRecord
100
AcDbTextStyleTableRecord
  2
Standard
 70
     0
 40
0.0
 41
1.0
 50
0.0
 71
     0
 42
0.2
  3
txt
  4

  0
ENDTAB
  0
TABLE
  2
VIEW
  5
6
330
0
100
AcDbSymbolTable
 70
     0
  0
ENDTAB
  0
TABLE
  2
UCS
  5
7
330
0
100
AcDbSymbolTable
 70
     0
  0
ENDTAB
  0
TABLE
  2
APPID
  5
9
330
0
100
AcDbSymbolTable
 70
     2
  0
APPID
  5
12
330
9
100
AcDbSymbolTableRecord
100
AcDbRegAppTableRecord
  2
ACAD
 70
     0
  0
APPID
  5
3F
330
9
100
AcDbSymbolTableRecord
100
AcDbRegAppTableRecord
  2
ODA
 70
     0
  0
ENDTAB
  0
TABLE
  2
DIMSTYLE
  5
A
330
0
100
AcDbSymbolTable
 70
     1
100
AcDbDimStyleTable
  0
DIMSTYLE
105
27
330
A
100
AcDbSymbolTableRecord
100
AcDbDimStyleTableRecord
  2
Standard
 70
     0
178
     0
340
11
  0
ENDTAB
  0
TABLE
  2
BLOCK_RECORD
  5
1
330
0
100
AcDbSymbolTable
 70
     1
  0
BLOCK_RECORD
  5
1F
330
1
100
AcDbSymbolTableRecord
100
AcDbBlockTableRecord
  2
*Model_Space
340
22
 70
     0
280
     1
281
     0
  0
BLOCK_RECORD
  5
1B
330
1
100
AcDbSymbolTableRecord
100
AcDbBlockTableRecord
  2
*Paper_Space
340
1E
 70
     0
280
     1
281
     0
  0
BLOCK_RECORD
  5
23
330
1
100
AcDbSymbolTableRecord
100
AcDbBlockTableRecord
  2
*Paper_Space0
340
26
 70
     0
280
     1
281
     0
  0
ENDTAB
  0
ENDSEC
  0
SECTION
  2
BLOCKS
  0
BLOCK
  5
20
330
1F
100
AcDbEntity
  8
0
100
AcDbBlockBegin
  2
*Model_Space
 70
     0
 10
0.0
 20
0.0
 30
0.0
  3
*Model_Space
  1

  0
ENDBLK
  5
21
330
1F
100
AcDbEntity
  8
0
100
AcDbBlockEnd
  0
BLOCK
  5
1C
330
1B
100
AcDbEntity
 67
     1
  8
0
100
AcDbBlockBegin
  2
*Paper_Space
 70
     0
 10
0.0
 20
0.0
 30
0.0
  3
*Paper_Space
  1

  0
ENDBLK
  5
1D
330
1B
100
AcDbEntity
 67
     1
  8
0
100
AcDbBlockEnd
  0
BLOCK
  5
24
330
23
100
AcDbEntity
  8
0
100
AcDbBlockBegin
  2
*Paper_Space0
 70
     0
 10
0.0
 20
0.0
 30
0.0
  3
*Paper_Space0
  1

  0
ENDBLK
  5
25
330
23
100
AcDbEntity
  8
0
100
AcDbBlockEnd
  0
ENDSEC
  0
SECTION
  2
ENTITIES
  0
SPLINE
  5
40
330
1F
100
AcDbEntity
  8
0
370
    15
100
AcDbSpline
210
0.0
220
0.0
230
1.0
 70
     8
 71
     3
 72
    28
 73
    24
 74
     0
 42
0.0000000001
 43
0.0000000001
 40
0.0
 40
0.0
 40
0.0
 40
0.0
 40
0.1428571428571428
 40
0.1428571428571428
 40
0.1428571428571428
 40
0.1428571428571428
 40
0.2857142857142857
 40
0.2857142857142857
 40
0.2857142857142857
 40
0.2857142857142857
 40
0.4285714285714285
 40
0.4285714285714285
 40
0.4285714285714285
 40
0.4285714285714285
 40
0.5714285714285714
 40
0.5714285714285714
 40
0.5714285714285714
 40
0.5714285714285714
 40
0.7142857142857143
 40
0.7142857142857143
 40
0.7142857142857143
 40
0.7142857142857143
 40
1.0
 40
1.0
 40
1.0
 40
1.0
 10
-13.25049
 20
10.52457
 30
0.0
 10
-13.25049
 20
10.49758
 30
0.0
 10
-13.25049
 20
10.4706
 30
0.0
 10
-13.25049
 20
10.44359
 30
0.0
 10
-13.25049
 20
10.44359
 30
0.0
 10
-13.25049
 20
10.39907
 30
0.0
 10
-13.25048
 20
10.3545
 30
0.0
 10
-13.25048
 20
10.30995
 30
0.0
 10
-13.25048
 20
10.30995
 30
0.0
 10
-13.25048
 20
10.26498
 30
0.0
 10
-13.25048
 20
10.22002
 30
0.0
 10
-13.25048
 20
10.17506
 30
0.0
 10
-13.25048
 20
10.17506
 30
0.0
 10
-13.25048
 20
10.13001
 30
0.0
 10
-13.25048
 20
10.08495
 30
0.0
 10
-13.25048
 20
10.0399
 30
0.0
 10
-13.25048
 20
10.0399
 30
0.0
 10
-13.25048
 20
9.99498
 30
0.0
 10
-13.25048
 20
9.95006
 30
0.0
 10
-13.25048
 20
9.90515
 30
0.0
 10
-13.25048
 20
9.90515
 30
0.0
 10
-13.25048
 20
9.69495
 30
0.0
 10
-13.25048
 20
9.48476
 30
0.0
 10
-13.25048
 20
9.27457
 30
0.0
  0
SPLINE
  5
41
330
1F
100
AcDbEntity
  8
0
370
    15
100
AcDbSpline
210
0.0
220
0.0
230
1.0
 70
     8
 71
     3
 72
    28
 73
    24
 74
     0
 42
0.0000000001
 43
0.0000000001
 40
0.0
 40
0.0
 40
0.0
 40
0.0
 40
0.1428571428571428
 40
0.1428571428571428
 40
0.1428571428571428
 40
0.1428571428571428
 40
0.2857142857142857
 40
0.2857142857142857
 40
0.2857142857142857
 40
0.2857142857142857
 40
0.4285714285714285
 40
0.4285714285714285
 40
0.4285714285714285
 40
0.4285714285714285
 40
0.5714285714285714
 40
0.5714285714285714
 40
0.5714285714285714
 40
0.5714285714285714
 40
0.7142857142857143
 40
0.7142857142857143
 40
0.7142857142857143
 40
0.7142857142857143
 40
1.0
 40
1.0
 40
1.0
 40
1.0
 10
-9.88117
 20
9.27457
 30
0.0
 10
-9.88116
 20
9.41029
 30
0.0
 10
-9.88115
 20
9.54602
 30
0.0
 10
-9.88114
 20
9.68175
 30
0.0
 10
-9.88114
 20
9.68175
 30
0.0
 10
-9.88113
 20
9.81323
 30
0.0
 10
-9.88111
 20
9.94471
 30
0.0
 10
-9.8811
 20
10.07619
 30
0.0
 10
-9.8811
 20
10.07619
 30
0.0
 10
-9.8811
 20
10.11623
 30
0.0
 10
-9.8811
 20
10.15627
 30
0.0
 10
-9.88109
 20
10.19631
 30
0.0
 10
-9.88109
 20
10.19631
 30
0.0
 10
-9.88109
 20
10.23643
 30
0.0
 10
-9.88109
 20
10.27655
 30
0.0
 10
-9.88108
 20
10.31667
 30
0.0
 10
-9.88108
 20
10.31667
 30
0.0
 10
-9.88108
 20
10.35768
 30
0.0
 10
-9.88108
 20
10.39869
 30
0.0
 10
-9.88107
 20
10.43967
 30
0.0
 10
-9.88107
 20
10.43967
 30
0.0
 10
-9.88107
 20
10.46798
 30
0.0
 10
-9.88107
 20
10.49627
 30
0.0
 10
-9.88106
 20
10.52457
 30
0.0
  0
SPLINE
  5
42
330
1F
100
AcDbEntity
  8
0
370
    15
100
AcDbSpline
210
0.0
220
0.0
230
1.0
 70
    24
 71
     3
 72
     8
 73
     4
 74
     0
 42
0.0000000001
 43
0.0000000001
 40
0.0
 40
0.0
 40
0.0
 40
0.0
 40
1.0
 40
1.0
 40
1.0
 40
1.0
 10
-16.56549
 20
11.32457
 30
0.0
 10
-16.56549
 20
11.32457
 30
0.0
 10
-16.56549
 20
10.52457
 30
0.0
 10
-16.56549
 20
10.52457
 30
0.0
  0
SPLINE
  5
43
330
1F
100
AcDbEntity
  8
0
370
    15
100
AcDbSpline
210
0.0
220
0.0
230
1.0
 70
    24
 71
     3
 72
     8
 73
     4
 74
     0
 42
0.0000000001
 43
0.0000000001
 40
0.0
 40
0.0
 40
0.0
 40
0.0
 40
1.0
 40
1.0
 40
1.0
 40
1.0
 10
-16.06549
 20
11.32457
 30
0.0
 10
-16.06549
 20
11.32457
 30
0.0
 10
-16.06549
 20
10.52457
 30
0.0
 10
-16.06549
 20
10.52457
 30
0.0
  0
SPLINE
  5
44
330
1F
100
AcDbEntity
  8
0
370
    15
100
AcDbSpline
210
0.0
220
0.0
230
1.0
 70
    24
 71
     3
 72
     8
 73
     4
 74
     0
 42
0.0000000001
 43
0.0000000001
 40
0.0
 40
0.0
 40
0.0
 40
0.0
 40
1.0
 40
1.0
 40
1.0
 40
1.0
 10
-16.56549
 20
10.52457
 30
0.0
 10
-16.56549
 20
10.52457
 30
0.0
 10
-16.06549
 20
10.52457
 30
0.0
 10
-16.06549
 20
10.52457
 30
0.0
  0
SPLINE
  5
45
330
1F
100
AcDbEntity
  8
0
370
    15
100
AcDbSpline
210
0.0
220
0.0
230
1.0
 70
    24
 71
     3
 72
     8
 73
     4
 74
     0
 42
0.0000000001
 43
0.0000000001
 40
0.0
 40
0.0
 40
0.0
 40
0.0
 40
1.0
 40
1.0
 40
1.0
 40
1.0
 10
-16.56549
 20
11.32457
 30
0.0
 10
-16.56549
 20
11.32457
 30
0.0
 10
-16.06549
 20
11.32457
 30
0.0
 10
-16.06549
 20
11.32457
 30
0.0
  0
SPLINE
  5
46
330
1F
100
AcDbEntity
  8
0
370
    15
100
AcDbSpline
210
0.0
220
0.0
230
1.0
 70
     8
 71
     3
 72
    12
 73
     8
 74
     0
 42
0.0000000001
 43
0.0000000001
 40
0.0
 40
0.0
 40
0.0
 40
0.0
 40
0.3333333333333333
 40
0.3333333333333333
 40
0.3333333333333333
 40
0.3333333333333333
 40
1.0
 40
1.0
 40
1.0
 40
1.0
 10
-4.56549
 20
11.17457
 30
0.0
 10
-4.56549
 20
11.21435
 30
0.0
 10
-4.58129
 20
11.2525
 30
0.0
 10
-4.60942
 20
11.28063
 30
0.0
 10
-4.60942
 20
11.28063
 30
0.0
 10
-4.63755
 20
11.30876
 30
0.0
 10
-4.6757
 20
11.32457
 30
0.0
 10
-4.71549
 20
11.32457
 30
0.0
  0
SPLINE
  5
47
330
1F
100
AcDbEntity
  8
0
370
    15
100
AcDbSpline
210
0.0
220
0.0
230
1.0
 70
    24
 71
     3
 72
     8
 73
     4
 74
     0
 42
0.0000000001
 43
0.0000000001
 40
0.0
 40
0.0
 40
0.0
 40
0.0
 40
1.0
 40
1.0
 40
1.0
 40
1.0
 10
-4.56549
 20
11.17457
 30
0.0
 10
-4.56549
 20
11.17457
 30
0.0
 10
-4.56549
 20
10.67457
 30
0.0
 10
-4.56549
 20
10.67457
 30
0.0
  0
SPLINE
  5
48
330
1F
100
AcDbEntity
  8
0
370
    15
100
AcDbSpline
210
0.0
220
0.0
230
1.0
 70
     8
 71
     3
 72
     8
 73
     4
 74
     0
 42
0.0000000001
 43
0.0000000001
 40
0.0
 40
0.0
 40
0.0
 40
0.0
 40
1.0
 40
1.0
 40
1.0
 40
1.0
 10
-4.71549
 20
10.52457
 30
0.0
 10
-4.63264
 20
10.52457
 30
0.0
 10
-4.56549
 20
10.59172
 30
0.0
 10
-4.56549
 20
10.67457
 30
0.0
  0
SPLINE
  5
49
330
1F
100
AcDbEntity
  8
0
370
    15
100
AcDbSpline
210
0.0
220
0.0
230
1.0
 70
    24
 71
     3
 72
     8
 73
     4
 74
     0
 42
0.0000000001
 43
0.0000000001
 40
0.0
 40
0.0
 40
0.0
 40
0.0
 40
1.0
 40
1.0
 40
1.0
 40
1.0
 10
-16.06549
 20
10.52457
 30
0.0
 10
-16.06549
 20
10.52457
 30
0.0
 10
-4.71549
 20
10.52457
 30
0.0
 10
-4.71549
 20
10.52457
 30
0.0
  0
SPLINE
  5
4A
330
1F
100
AcDbEntity
  8
0
370
    15
100
AcDbSpline
210
0.0
220
0.0
230
1.0
 70
    24
 71
     3
 72
     8
 73
     4
 74
     0
 42
0.0000000001
 43
0.0000000001
 40
0.0
 40
0.0
 40
0.0
 40
0.0
 40
1.0
 40
1.0
 40
1.0
 40
1.0
 10
-16.06549
 20
11.32457
 30
0.0
 10
-16.06549
 20
11.32457
 30
0.0
 10
-4.71549
 20
11.32457
 30
0.0
 10
-4.71549
 20
11.32457
 30
0.0
  0
SPLINE
  5
4B
330
1F
100
AcDbEntity
  8
0
370
    15
100
AcDbSpline
210
0.0
220
0.0
230
1.0
 70
     8
 71
     3
 72
    12
 73
     8
 74
     0
 42
0.0000000001
 43
0.0000000001
 40
0.0
 40
0.0
 40
0.0
 40
0.0
 40
0.3333333333333333
 40
0.3333333333333333
 40
0.3333333333333333
 40
0.3333333333333333
 40
1.0
 40
1.0
 40
1.0
 40
1.0
 10
-13.21874
 20
10.38486
 30
0.0
 10
-13.21869
 20
10.38665
 30
0.0
 10
-13.21864
 20
10.38844
 30
0.0
 10
-13.21857
 20
10.39022
 30
0.0
 10
-13.21857
 20
10.39022
 30
0.0
 10
-13.21857
 20
10.39022
 30
0.0
 10
-13.21857
 20
10.39022
 30
0.0
 10
-13.21857
 20
10.39022
 30
0.0
  0
SPLINE
  5
4C
330
1F
100
AcDbEntity
  8
0
370
    15
100
AcDbSpline
210
0.0
220
0.0
230
1.0
 70
     8
 71
     3
 72
    16
 73
    12
 74
     0
 42
0.0000000001
 43
0.0000000001
 40
0.0
 40
0.0
 40
0.0
 40
0.0
 40
0.25
 40
0.25
 40
0.25
 40
0.25
 40
0.5
 40
0.5
 40
0.5
 40
0.5
 40
1.0
 40
1.0
 40
1.0
 40
1.0
 10
-13.21833
 20
9.27457
 30
0.0
 10
-13.21833
 20
9.45962
 30
0.0
 10
-13.21832
 20
9.64466
 30
0.0
 10
-13.21832
 20
9.82971
 30
0.0
 10
-13.21832
 20
9.82971
 30
0.0
 10
-13.21831
 20
9.92224
 30
0.0
 10
-13.21831
 20
10.01476
 30
0.0
 10
-13.21831
 20
10.10729
 30
0.0
 10
-13.21831
 20
10.10729
 30
0.0
 10
-13.2183
 20
10.19981
 30
0.0
 10
-13.21832
 20
10.29234
 30
0.0
 10
-13.21874
 20
10.38486
 30
0.0
  0
SPLINE
  5
4D
330
1F
100
AcDbEntity
  8
0
370
    15
100
AcDbSpline
210
0.0
220
0.0
230
1.0
 70
    24
 71
     3
 72
     8
 73
     4
 74
     0
 42
0.0000000001
 43
0.0000000001
 40
0.0
 40
0.0
 40
0.0
 40
0.0
 40
1.0
 40
1.0
 40
1.0
 40
1.0
 10
-13.21833
 20
9.27457
 30
0.0
 10
-13.21833
 20
9.27457
 30
0.0
 10
-13.25049
 20
9.27457
 30
0.0
 10
-13.25049
 20
9.27457
 30
0.0
  0
SPLINE
  5
4E
330
1F
100
AcDbEntity
  8
0
370
    15
100
AcDbSpline
210
0.0
220
0.0
230
1.0
 70
    24
 71
     3
 72
    12
 73
     8
 74
     0
 42
0.0000000001
 43
0.0000000001
 40
0.0
 40
0.0
 40
0.0
 40
0.0
 40
0.3333333333333333
 40
0.3333333333333333
 40
0.3333333333333333
 40
0.3333333333333333
 40
1.0
 40
1.0
 40
1.0
 40
1.0
 10
-9.8813
 20
9.27457
 30
0.0
 10
-9.88264
 20
9.27457
 30
0.0
 10
-9.88398
 20
9.27457
 30
0.0
 10
-9.88943
 20
9.27457
 30
0.0
 10
-9.88943
 20
9.27457
 30
0.0
 10
-9.89466
 20
9.27457
 30
0.0
 10
-9.90367
 20
9.27457
 30
0.0
 10
-9.91267
 20
9.27457
 30
0.0
  0
SPLINE
  5
4F
330
1F
100
AcDbEntity
  8
0
370
    15
100
AcDbSpline
210
0.0
220
0.0
230
1.0
 70
     8
 71
     3
 72
    16
 73
    12
 74
     0
 42
0.0000000001
 43
0.0000000001
 40
0.0
 40
0.0
 40
0.0
 40
0.0
 40
0.25
 40
0.25
 40
0.25
 40
0.25
 40
0.5
 40
0.5
 40
0.5
 40
0.5
 40
1.0
 40
1.0
 40
1.0
 40
1.0
 10
-9.91226
 20
10.38489
 30
0.0
 10
-9.91268
 20
10.29237
 30
0.0
 10
-9.9127
 20
10.19984
 30
0.0
 10
-9.91269
 20
10.10731
 30
0.0
 10
-9.91269
 20
10.10731
 30
0.0
 10
-9.91269
 20
10.01479
 30
0.0
 10
-9.91269
 20
9.92226
 30
0.0
 10
-9.91269
 20
9.82973
 30
0.0
 10
-9.91269
 20
9.82973
 30
0.0
 10
-9.91268
 20
9.64468
 30
0.0
 10
-9.91268
 20
9.45962
 30
0.0
 10
-9.91267
 20
9.27457
 30
0.0
  0
SPLINE
  5
50
330
1F
100
AcDbEntity
  8
0
370
    15
100
AcDbSpline
210
0.0
220
0.0
230
1.0
 70
     8
 71
     3
 72
    12
 73
     8
 74
     0
 42
0.0000000001
 43
0.0000000001
 40
0.0
 40
0.0
 40
0.0
 40
0.0
 40
0.3333333333333333
 40
0.3333333333333333
 40
0.3333333333333333
 40
0.3333333333333333
 40
1.0
 40
1.0
 40
1.0
 40
1.0
 10
-9.91243
 20
10.39035
 30
0.0
 10
-9.91243
 20
10.39035
 30
0.0
 10
-9.91243
 20
10.39035
 30
0.0
 10
-9.91243
 20
10.39035
 30
0.0
 10
-9.91243
 20
10.39035
 30
0.0
 10
-9.91236
 20
10.38853
 30
0.0
 10
-9.9123
 20
10.38672
 30
0.0
 10
-9.91226
 20
10.38489
 30
0.0
  0
SPLINE
  5
51
330
1F
100
AcDbEntity
  8
0
370
    15
100
AcDbSpline
210
0.0
220
0.0
230
1.0
 70
     8
 71
     3
 72
    12
 73
     8
 74
     0
 42
0.0000000001
 43
0.0000000001
 40
0.0
 40
0.0
 40
0.0
 40
0.0
 40
0.3333333333333333
 40
0.3333333333333333
 40
0.3333333333333333
 40
0.3333333333333333
 40
1.0
 40
1.0
 40
1.0
 40
1.0
 10
-13.20767
 20
10.38455
 30
0.0
 10
-13.21007
 20
10.38456
 30
0.0
 10
-13.2124
 20
10.3846
 30
0.0
 10
-13.21434
 20
10.38466
 30
0.0
 10
-13.21434
 20
10.38466
 30
0.0
 10
-13.21628
 20
10.38471
 30
0.0
 10
-13.21784
 20
10.38479
 30
0.0
 10
-13.21874
 20
10.38486
 30
0.0
  0
SPLINE
  5
52
330
1F
100
AcDbEntity
  8
0
370
    15
100
AcDbSpline
210
0.0
220
0.0
230
1.0
 70
     8
 71
     3
 72
    36
 73
    32
 74
     0
 42
0.0000000001
 43
0.0000000001
 40
0.0
 40
0.0
 40
0.0
 40
0.0
 40
0.1111111111111111
 40
0.1111111111111111
 40
0.1111111111111111
 40
0.1111111111111111
 40
0.2222222222222222
 40
0.2222222222222222
 40
0.2222222222222222
 40
0.2222222222222222
 40
0.3333333333333333
 40
0.3333333333333333
 40
0.3333333333333333
 40
0.3333333333333333
 40
0.4444444444444444
 40
0.4444444444444444
 40
0.4444444444444444
 40
0.4444444444444444
 40
0.5555555555555556
 40
0.5555555555555556
 40
0.5555555555555556
 40
0.5555555555555556
 40
0.6666666666666666
 40
0.6666666666666666
 40
0.6666666666666666
 40
0.6666666666666666
 40
0.7777777777777778
 40
0.7777777777777778
 40
0.7777777777777778
 40
0.7777777777777778
 40
1.0
 40
1.0
 40
1.0
 40
1.0
 10
-13.20502
 20
10.52457
 30
0.0
 10
-13.20503
 20
10.52457
 30
0.0
 10
-13.205
 20
10.52368
 30
0.0
 10
-13.20501
 20
10.52193
 30
0.0
 10
-13.20501
 20
10.52193
 30
0.0
 10
-13.20501
 20
10.52019
 30
0.0
 10
-13.20502
 20
10.51756
 30
0.0
 10
-13.20504
 20
10.5141
 30
0.0
 10
-13.20504
 20
10.5141
 30
0.0
 10
-13.20506
 20
10.51064
 30
0.0
 10
-13.20509
 20
10.50641
 30
0.0
 10
-13.20513
 20
10.50141
 30
0.0
 10
-13.20513
 20
10.50141
 30
0.0
 10
-13.20517
 20
10.49642
 30
0.0
 10
-13.20522
 20
10.49059
 30
0.0
 10
-13.20528
 20
10.48418
 30
0.0
 10
-13.20528
 20
10.48418
 30
0.0
 10
-13.20534
 20
10.47777
 30
0.0
 10
-13.20541
 20
10.47079
 30
0.0
 10
-13.2055
 20
10.46322
 30
0.0
 10
-13.2055
 20
10.46322
 30
0.0
 10
-13.20558
 20
10.45564
 30
0.0
 10
-13.20569
 20
10.44745
 30
0.0
 10
-13.20582
 20
10.439
 30
0.0
 10
-13.20582
 20
10.439
 30
0.0
 10
-13.20596
 20
10.43055
 30
0.0
 10
-13.20612
 20
10.42177
 30
0.0
 10
-13.20634
 20
10.41266
 30
0.0
 10
-13.20634
 20
10.41266
 30
0.0
 10
-13.20656
 20
10.40354
 30
0.0
 10
-13.20695
 20
10.39416
 30
0.0
 10
-13.20715
 20
10.38471
 30
0.0
  0
SPLINE
  5
53
330
1F
100
AcDbEntity
  8
0
370
    15
100
AcDbSpline
210
0.0
220
0.0
230
1.0
 70
     8
 71
     3
 72
    12
 73
     8
 74
     0
 42
0.0000000001
 43
0.0000000001
 40
0.0
 40
0.0
 40
0.0
 40
0.0
 40
0.3333333333333333
 40
0.3333333333333333
 40
0.3333333333333333
 40
0.3333333333333333
 40
1.0
 40
1.0
 40
1.0
 40
1.0
 10
-13.20715
 20
10.38471
 30
0.0
 10
-13.20725
 20
10.38465
 30
0.0
 10
-13.20735
 20
10.3846
 30
0.0
 10
-13.20746
 20
10.38457
 30
0.0
 10
-13.20746
 20
10.38457
 30
0.0
 10
-13.20753
 20
10.38456
 30
0.0
 10
-13.2076
 20
10.38455
 30
0.0
 10
-13.20767
 20
10.38455
 30
0.0
  0
SPLINE
  5
54
330
1F
100
AcDbEntity
  8
0
370
    15
100
AcDbSpline
210
0.0
220
0.0
230
1.0
 70
     8
 71
     3
 72
    12
 73
     8
 74
     0
 42
0.0000000001
 43
0.0000000001
 40
0.0
 40
0.0
 40
0.0
 40
0.0
 40
0.3333333333333333
 40
0.3333333333333333
 40
0.3333333333333333
 40
0.3333333333333333
 40
1.0
 40
1.0
 40
1.0
 40
1.0
 10
-9.92335
 20
10.38458
 30
0.0
 10
-9.92094
 20
10.3846
 30
0.0
 10
-9.9186
 20
10.38464
 30
0.0
 10
-9.91665
 20
10.38469
 30
0.0
 10
-9.91665
 20
10.38469
 30
0.0
 10
-9.91471
 20
10.38475
 30
0.0
 10
-9.91315
 20
10.38482
 30
0.0
 10
-9.91226
 20
10.38489
 30
0.0
  0
SPLINE
  5
55
330
1F
100
AcDbEntity
  8
0
370
    15
100
AcDbSpline
210
0.0
220
0.0
230
1.0
 70
     8
 71
     3
 72
    12
 73
     8
 74
     0
 42
0.0000000001
 43
0.0000000001
 40
0.0
 40
0.0
 40
0.0
 40
0.0
 40
0.3333333333333333
 40
0.3333333333333333
 40
0.3333333333333333
 40
0.3333333333333333
 40
1.0
 40
1.0
 40
1.0
 40
1.0
 10
-9.92335
 20
10.38458
 30
0.0
 10
-9.92346
 20
10.38458
 30
0.0
 10
-9.92358
 20
10.3846
 30
0.0
 10
-9.92368
 20
10.38464
 30
0.0
 10
-9.92368
 20
10.38464
 30
0.0
 10
-9.92375
 20
10.38467
 30
0.0
 10
-9.92381
 20
10.3847
 30
0.0
 10
-9.92387
 20
10.38474
 30
0.0
  0
SPLINE
  5
56
330
1F
100
AcDbEntity
  8
0
370
    15
100
AcDbSpline
210
0.0
220
0.0
230
1.0
 70
     8
 71
     3
 72
    36
 73
    32
 74
     0
 42
0.0000000001
 43
0.0000000001
 40
0.0
 40
0.0
 40
0.0
 40
0.0
 40
0.1111111111111111
 40
0.1111111111111111
 40
0.1111111111111111
 40
0.1111111111111111
 40
0.2222222222222222
 40
0.2222222222222222
 40
0.2222222222222222
 40
0.2222222222222222
 40
0.3333333333333333
 40
0.3333333333333333
 40
0.3333333333333333
 40
0.3333333333333333
 40
0.4444444444444444
 40
0.4444444444444444
 40
0.4444444444444444
 40
0.4444444444444444
 40
0.5555555555555556
 40
0.5555555555555556
 40
0.5555555555555556
 40
0.5555555555555556
 40
0.6666666666666666
 40
0.6666666666666666
 40
0.6666666666666666
 40
0.6666666666666666
 40
0.7777777777777778
 40
0.7777777777777778
 40
0.7777777777777778
 40
0.7777777777777778
 40
1.0
 40
1.0
 40
1.0
 40
1.0
 10
-9.92387
 20
10.38474
 30
0.0
 10
-9.92407
 20
10.39419
 30
0.0
 10
-9.92446
 20
10.40357
 30
0.0
 10
-9.92468
 20
10.41268
 30
0.0
 10
-9.92468
 20
10.41268
 30
0.0
 10
-9.92489
 20
10.4218
 30
0.0
 10
-9.92505
 20
10.43057
 30
0.0
 10
-9.92519
 20
10.43902
 30
0.0
 10
-9.92519
 20
10.43902
 30
0.0
 10
-9.92532
 20
10.44747
 30
0.0
 10
-9.92543
 20
10.45566
 30
0.0
 10
-9.92551
 20
10.46323
 30
0.0
 10
-9.92551
 20
10.46323
 30
0.0
 10
-9.9256
 20
10.4708
 30
0.0
 10
-9.92567
 20
10.47779
 30
0.0
 10
-9.92573
 20
10.48419
 30
0.0
 10
-9.92573
 20
10.48419
 30
0.0
 10
-9.92579
 20
10.4906
 30
0.0
 10
-9.92584
 20
10.49642
 30
0.0
 10
-9.92587
 20
10.50142
 30
0.0
 10
-9.92587
 20
10.50142
 30
0.0
 10
-9.92591
 20
10.50641
 30
0.0
 10
-9.92594
 20
10.51064
 30
0.0
 10
-9.92596
 20
10.5141
 30
0.0
 10
-9.92596
 20
10.5141
 30
0.0
 10
-9.92598
 20
10.51756
 30
0.0
 10
-9.92599
 20
10.52019
 30
0.0
 10
-9.92599
 20
10.52193
 30
0.0
 10
-9.92599
 20
10.52193
 30
0.0
 10
-9.926
 20
10.52368
 30
0.0
 10
-9.92597
 20
10.52457
 30
0.0
 10
-9.92598
 20
10.52457
 30
0.0
  0
SPLINE
  5
57
330
1F
100
AcDbEntity
  8
0
370
    15
100
AcDbSpline
210
0.0
220
0.0
230
1.0
 70
     8
 71
     3
 72
    84
 73
    80
 74
     0
 42
0.0000000001
 43
0.0000000001
 40
0.0
 40
0.0
 40
0.0
 40
0.0
 40
0.0476190476190476
 40
0.0476190476190476
 40
0.0476190476190476
 40
0.0476190476190476
 40
0.0952380952380952
 40
0.0952380952380952
 40
0.0952380952380952
 40
0.0952380952380952
 40
0.1428571428571428
 40
0.1428571428571428
 40
0.1428571428571428
 40
0.1428571428571428
 40
0.1904761904761905
 40
0.1904761904761905
 40
0.1904761904761905
 40
0.1904761904761905
 40
0.2380952380952381
 40
0.2380952380952381
 40
0.2380952380952381
 40
0.2380952380952381
 40
0.2857142857142857
 40
0.2857142857142857
 40
0.2857142857142857
 40
0.2857142857142857
 40
0.3333333333333333
 40
0.3333333333333333
 40
0.3333333333333333
 40
0.3333333333333333
 40
0.3809523809523809
 40
0.3809523809523809
 40
0.3809523809523809
 40
0.3809523809523809
 40
0.4285714285714285
 40
0.4285714285714285
 40
0.4285714285714285
 40
0.4285714285714285
 40
0.4761904761904762
 40
0.4761904761904762
 40
0.4761904761904762
 40
0.4761904761904762
 40
0.5238095238095238
 40
0.5238095238095238
 40
0.5238095238095238
 40
0.5238095238095238
 40
0.5714285714285714
 40
0.5714285714285714
 40
0.5714285714285714
 40
0.5714285714285714
 40
0.6190476190476191
 40
0.6190476190476191
 40
0.6190476190476191
 40
0.6190476190476191
 40
0.6666666666666666
 40
0.6666666666666666
 40
0.6666666666666666
 40
0.6666666666666666
 40
0.7142857142857143
 40
0.7142857142857143
 40
0.7142857142857143
 40
0.7142857142857143
 40
0.7619047619047619
 40
0.7619047619047619
 40
0.7619047619047619
 40
0.7619047619047619
 40
0.8095238095238095
 40
0.8095238095238095
 40
0.8095238095238095
 40
0.8095238095238095
 40
0.8571428571428571
 40
0.8571428571428571
 40
0.8571428571428571
 40
0.8571428571428571
 40
0.9047619047619048
 40
0.9047619047619048
 40
0.9047619047619048
 40
0.9047619047619048
 40
1.0
 40
1.0
 40
1.0
 40
1.0
 10
-9.92387
 20
10.38474
 30
0.0
 10
-9.92758
 20
10.38698
 30
0.0
 10
-9.93151
 20
10.38869
 30
0.0
 10
-9.93552
 20
10.39025
 30
0.0
 10
-9.93552
 20
10.39025
 30
0.0
 10
-9.93952
 20
10.3918
 30
0.0
 10
-9.94362
 20
10.39316
 30
0.0
 10
-9.94774
 20
10.39441
 30
0.0
 10
-9.94774
 20
10.39441
 30
0.0
 10
-9.95599
 20
10.39691
 30
0.0
 10
-9.96432
 20
10.39898
 30
0.0
 10
-9.97269
 20
10.40085
 30
0.0
 10
-9.97269
 20
10.40085
 30
0.0
 10
-9.98944
 20
10.4046
 30
0.0
 10
-10.00634
 20
10.40757
 30
0.0
 10
-10.0233
 20
10.41025
 30
0.0
 10
-10.0233
 20
10.41025
 30
0.0
 10
-10.05722
 20
10.41559
 30
0.0
 10
-10.09135
 20
10.41966
 30
0.0
 10
-10.12547
 20
10.42324
 30
0.0
 10
-10.12547
 20
10.42324
 30
0.0
 10
-10.19373
 20
10.43041
 30
0.0
 10
-10.26216
 20
10.43554
 30
0.0
 10
-10.33066
 20
10.43991
 30
0.0
 10
-10.33066
 20
10.43991
 30
0.0
 10
-10.39915
 20
10.44428
 30
0.0
 10
-10.46774
 20
10.44779
 30
0.0
 10
-10.53632
 20
10.45078
 30
0.0
 10
-10.53632
 20
10.45078
 30
0.0
 10
-10.60491
 20
10.45377
 30
0.0
 10
-10.67349
 20
10.45624
 30
0.0
 10
-10.74209
 20
10.45833
 30
0.0
 10
-10.74209
 20
10.45833
 30
0.0
 10
-10.87928
 20
10.46253
 30
0.0
 10
-11.0165
 20
10.46528
 30
0.0
 10
-11.15373
 20
10.46708
 30
0.0
 10
-11.15373
 20
10.46708
 30
0.0
 10
-11.29096
 20
10.46888
 30
0.0
 10
-11.42821
 20
10.46972
 30
0.0
 10
-11.56548
 20
10.46972
 30
0.0
 10
-11.56548
 20
10.46972
 30
0.0
 10
-11.70274
 20
10.46972
 30
0.0
 10
-11.84003
 20
10.46888
 30
0.0
 10
-11.97733
 20
10.46708
 30
0.0
 10
-11.97733
 20
10.46708
 30
0.0
 10
-12.11463
 20
10.46527
 30
0.0
 10
-12.25192
 20
10.46253
 30
0.0
 10
-12.38916
 20
10.45833
 30
0.0
 10
-12.38916
 20
10.45833
 30
0.0
 10
-12.45778
 20
10.45623
 30
0.0
 10
-12.52638
 20
10.45376
 30
0.0
 10
-12.59496
 20
10.45076
 30
0.0
 10
-12.59496
 20
10.45076
 30
0.0
 10
-12.66353
 20
10.44777
 30
0.0
 10
-12.73209
 20
10.44427
 30
0.0
 10
-12.80058
 20
10.43989
 30
0.0
 10
-12.80058
 20
10.43989
 30
0.0
 10
-12.86907
 20
10.43552
 30
0.0
 10
-12.93753
 20
10.43038
 30
0.0
 10
-13.00577
 20
10.42321
 30
0.0
 10
-13.00577
 20
10.42321
 30
0.0
 10
-13.0399
 20
10.41963
 30
0.0
 10
-13.07398
 20
10.41556
 30
0.0
 10
-13.10787
 20
10.41022
 30
0.0
 10
-13.10787
 20
10.41022
 30
0.0
 10
-13.12481
 20
10.40754
 30
0.0
 10
-13.14172
 20
10.40456
 30
0.0
 10
-13.15846
 20
10.40081
 30
0.0
 10
-13.15846
 20
10.40081
 30
0.0
 10
-13.16683
 20
10.39893
 30
0.0
 10
-13.17516
 20
10.39686
 30
0.0
 10
-13.18337
 20
10.39437
 30
0.0
 10
-13.18337
 20
10.39437
 30
0.0
 10
-13.18747
 20
10.39312
 30
0.0
 10
-13.19154
 20
10.39177
 30
0.0
 10
-13.19554
 20
10.39021
 30
0.0
 10
-13.19554
 20
10.39021
 30
0.0
 10
-13.19954
 20
10.38866
 30
0.0
 10
-13.20349
 20
10.38692
 30
0.0
 10
-13.20715
 20
10.38471
 30
0.0
  0
SPLINE
  5
58
330
1F
100
AcDbEntity
  8
0
370
    15
100
AcDbSpline
210
0.0
220
0.0
230
1.0
 70
     8
 71
     3
 72
    16
 73
    12
 74
     0
 42
0.0000000001
 43
0.0000000001
 40
0.0
 40
0.0
 40
0.0
 40
0.0
 40
0.25
 40
0.25
 40
0.25
 40
0.25
 40
0.5
 40
0.5
 40
0.5
 40
0.5
 40
1.0
 40
1.0
 40
1.0
 40
1.0
 10
-13.20767
 20
10.38455
 30
0.0
 10
-13.20694
 20
10.29205
 30
0.0
 10
-13.20698
 20
10.19955
 30
0.0
 10
-13.20699
 20
10.10705
 30
0.0
 10
-13.20699
 20
10.10705
 30
0.0
 10
-13.20699
 20
10.01455
 30
0.0
 10
-13.207
 20
9.92206
 30
0.0
 10
-13.207
 20
9.82956
 30
0.0
 10
-13.207
 20
9.82956
 30
0.0
 10
-13.20701
 20
9.64456
 30
0.0
 10
-13.20702
 20
9.45956
 30
0.0
 10
-13.20703
 20
9.27457
 30
0.0
  0
SPLINE
  5
59
330
1F
100
AcDbEntity
  8
0
370
    15
100
AcDbSpline
210
0.0
220
0.0
230
1.0
 70
     8
 71
     3
 72
    16
 73
    12
 74
     0
 42
0.0000000001
 43
0.0000000001
 40
0.0
 40
0.0
 40
0.0
 40
0.0
 40
0.25
 40
0.25
 40
0.25
 40
0.25
 40
0.5
 40
0.5
 40
0.5
 40
0.5
 40
1.0
 40
1.0
 40
1.0
 40
1.0
 10
-9.924
 20
9.27457
 30
0.0
 10
-9.92401
 20
9.45957
 30
0.0
 10
-9.92402
 20
9.64457
 30
0.0
 10
-9.92403
 20
9.82957
 30
0.0
 10
-9.92403
 20
9.82957
 30
0.0
 10
-9.92403
 20
9.92208
 30
0.0
 10
-9.92403
 20
10.01458
 30
0.0
 10
-9.92404
 20
10.10708
 30
0.0
 10
-9.92404
 20
10.10708
 30
0.0
 10
-9.92404
 20
10.19958
 30
0.0
 10
-9.92408
 20
10.29208
 30
0.0
 10
-9.92335
 20
10.38458
 30
0.0
  0
SPLINE
  5
5A
330
1F
100
AcDbEntity
  8
0
370
    15
100
AcDbSpline
210
0.0
220
0.0
230
1.0
 70
    24
 71
     3
 72
     8
 73
     4
 74
     0
 42
0.0000000001
 43
0.0000000001
 40
0.0
 40
0.0
 40
0.0
 40
0.0
 40
1.0
 40
1.0
 40
1.0
 40
1.0
 10
-9.924
 20
9.27457
 30
0.0
 10
-9.924
 20
9.27457
 30
0.0
 10
-13.20703
 20
9.27457
 30
0.0
 10
-13.20703
 20
9.27457
 30
0.0
  0
SPLINE
  5
5B
330
1F
100
AcDbEntity
  8
0
370
    15
100
AcDbSpline
210
0.0
220
0.0
230
1.0
 70
    24
 71
     3
 72
     8
 73
     4
 74
     0
 42
0.0000000001
 43
0.0000000001
 40
0.0
 40
0.0
 40
0.0
 40
0.0
 40
1.0
 40
1.0
 40
1.0
 40
1.0
 10
-9.91267
 20
9.27457
 30
0.0
 10
-9.91267
 20
9.27457
 30
0.0
 10
-9.924
 20
9.27457
 30
0.0
 10
-9.924
 20
9.27457
 30
0.0
  0
SPLINE
  5
5C
330
1F
100
AcDbEntity
  8
0
370
    15
100
AcDbSpline
210
0.0
220
0.0
230
1.0
 70
    24
 71
     3
 72
     8
 73
     4
 74
     0
 42
0.0000000001
 43
0.0000000001
 40
0.0
 40
0.0
 40
0.0
 40
0.0
 40
1.0
 40
1.0
 40
1.0
 40
1.0
 10
-13.20703
 20
9.27457
 30
0.0
 10
-13.21206
 20
9.27457
 30
0.0
 10
-13.21669
 20
9.27457
 30
0.0
 10
-13.21833
 20
9.27457
 30
0.0
  0
SPLINE
  5
5D
330
1F
100
AcDbEntity
  8
0
 62
     8
370
    15
100
AcDbSpline
210
0.0
220
0.0
230
1.0
 70
     8
 71
     3
 72
    24
 73
    20
 74
     0
 42
0.0000000001
 43
0.0000000001
 40
0.0
 40
0.0
 40
0.0
 40
0.0
 40
0.1666666666666667
 40
0.1666666666666667
 40
0.1666666666666667
 40
0.1666666666666667
 40
0.3333333333333333
 40
0.3333333333333333
 40
0.3333333333333333
 40
0.3333333333333333
 40
0.5
 40
0.5
 40
0.5
 40
0.5
 40
0.6666666666666666
 40
0.6666666666666666
 40
0.6666666666666666
 40
0.6666666666666666
 40
1.0
 40
1.0
 40
1.0
 40
1.0
 10
-13.21857
 20
10.39022
 30
0.0
 10
-13.21857
 20
10.39022
 30
0.0
 10
-13.21857
 20
10.39023
 30
0.0
 10
-13.21857
 20
10.39023
 30
0.0
 10
-13.21857
 20
10.39023
 30
0.0
 10
-13.21857
 20
10.39674
 30
0.0
 10
-13.21842
 20
10.40323
 30
0.0
 10
-13.2183
 20
10.40964
 30
0.0
 10
-13.2183
 20
10.40964
 30
0.0
 10
-13.21798
 20
10.42709
 30
0.0
 10
-13.21788
 20
10.44389
 30
0.0
 10
-13.21777
 20
10.45929
 30
0.0
 10
-13.21777
 20
10.45929
 30
0.0
 10
-13.21766
 20
10.47478
 30
0.0
 10
-13.21755
 20
10.48884
 30
0.0
 10
-13.21748
 20
10.49963
 30
0.0
 10
-13.21748
 20
10.49963
 30
0.0
 10
-13.21741
 20
10.50992
 30
0.0
 10
-13.21738
 20
10.51724
 30
0.0
 10
-13.21734
 20
10.52457
 30
0.0
  0
SPLINE
  5
5E
330
1F
100
AcDbEntity
  8
0
 62
     8
370
    15
100
AcDbSpline
210
0.0
220
0.0
230
1.0
 70
     8
 71
     3
 72
    28
 73
    24
 74
     0
 42
0.0000000001
 43
0.0000000001
 40
0.0
 40
0.0
 40
0.0
 40
0.0
 40
0.1428571428571428
 40
0.1428571428571428
 40
0.1428571428571428
 40
0.1428571428571428
 40
0.2857142857142857
 40
0.2857142857142857
 40
0.2857142857142857
 40
0.2857142857142857
 40
0.4285714285714285
 40
0.4285714285714285
 40
0.4285714285714285
 40
0.4285714285714285
 40
0.5714285714285714
 40
0.5714285714285714
 40
0.5714285714285714
 40
0.5714285714285714
 40
0.7142857142857143
 40
0.7142857142857143
 40
0.7142857142857143
 40
0.7142857142857143
 40
1.0
 40
1.0
 40
1.0
 40
1.0
 10
-9.91365
 20
10.52457
 30
0.0
 10
-9.91365
 20
10.52457
 30
0.0
 10
-9.91352
 20
10.49966
 30
0.0
 10
-9.91352
 20
10.49966
 30
0.0
 10
-9.91352
 20
10.49966
 30
0.0
 10
-9.91352
 20
10.49966
 30
0.0
 10
-9.91323
 20
10.45931
 30
0.0
 10
-9.91323
 20
10.45931
 30
0.0
 10
-9.91323
 20
10.45931
 30
0.0
 10
-9.91323
 20
10.45931
 30
0.0
 10
-9.9127
 20
10.40965
 30
0.0
 10
-9.9127
 20
10.40965
 30
0.0
 10
-9.9127
 20
10.40965
 30
0.0
 10
-9.9127
 20
10.40965
 30
0.0
 10
-9.91243
 20
10.39035
 30
0.0
 10
-9.91243
 20
10.39035
 30
0.0
 10
-9.91243
 20
10.39035
 30
0.0
 10
-9.91243
 20
10.39035
 30
0.0
 10
-9.91243
 20
10.39035
 30
0.0
 10
-9.91243
 20
10.39035
 30
0.0
 10
-9.91243
 20
10.39035
 30
0.0
 10
-9.91243
 20
10.39035
 30
0.0
 10
-9.91243
 20
10.39035
 30
0.0
 10
-9.91243
 20
10.39035
 30
0.0
  0
SPLINE
  5
5F
330
1F
100
AcDbEntity
  8
0
100
AcDbSpline
210
0.0
220
0.0
230
1.0
 70
    27
 71
     3
 72
    12
 73
     8
 74
     0
 42
0.0000000001
 43
0.0000000001
 40
0.0
 40
0.0
 40
0.0
 40
0.0
 40
0.3333333333333333
 40
0.3333333333333333
 40
0.3333333333333333
 40
0.3333333333333333
 40
1.0
 40
1.0
 40
1.0
 40
1.0
 10
-16.56549
 20
12.33259
 30
0.0
 10
-16.56549
 20
12.33259
 30
0.0
 10
-16.23529
 20
12.38339
 30
0.0
 10
-16.23529
 20
12.38339
 30
0.0
 10
-16.23529
 20
12.38339
 30
0.0
 10
-16.23529
 20
12.38339
 30
0.0
 10
-16.56549
 20
12.33259
 30
0.0
 10
-16.56549
 20
12.33259
 30
0.0
  0
SPLINE
  5
60
330
1F
100
AcDbEntity
  8
0
100
AcDbSpline
210
0.0
220
0.0
230
1.0
 70
     8
 71
     3
 72
    12
 73
     8
 74
     0
 42
0.0000000001
 43
0.0000000001
 40
0.0
 40
0.0
 40
0.0
 40
0.0
 40
0.3333333333333333
 40
0.3333333333333333
 40
0.3333333333333333
 40
0.3333333333333333
 40
1.0
 40
1.0
 40
1.0
 40
1.0
 10
-16.23529
 20
12.38339
 30
0.0
 10
-16.23529
 20
12.38339
 30
0.0
 10
-16.23529
 20
12.28179
 30
0.0
 10
-16.23529
 20
12.28179
 30
0.0
 10
-16.23529
 20
12.28179
 30
0.0
 10
-16.23529
 20
12.28179
 30
0.0
 10
-16.56549
 20
12.33259
 30
0.0
 10
-16.56549
 20
12.33259
 30
0.0
  0
SPLINE
  5
61
330
1F
100
AcDbEntity
  8
0
370
     9
100
AcDbSpline
210
0.0
220
0.0
230
1.0
 70
    24
 71
     3
 72
     8
 73
     4
 74
     0
 42
0.0000000001
 43
0.0000000001
 40
0.0
 40
0.0
 40
0.0
 40
0.0
 40
1.0
 40
1.0
 40
1.0
 40
1.0
 10
-16.56549
 20
12.33259
 30
0.0
 10
-16.56549
 20
12.33259
 30
0.0
 10
-16.23529
 20
12.38339
 30
0.0
 10
-16.23529
 20
12.38339
 30
0.0
  0
SPLINE
  5
62
330
1F
100
AcDbEntity
  8
0
370
     9
100
AcDbSpline
210
0.0
220
0.0
230
1.0
 70
     8
 71
     3
 72
    12
 73
     8
 74
     0
 42
0.0000000001
 43
0.0000000001
 40
0.0
 40
0.0
 40
0.0
 40
0.0
 40
0.3333333333333333
 40
0.3333333333333333
 40
0.3333333333333333
 40
0.3333333333333333
 40
1.0
 40
1.0
 40
1.0
 40
1.0
 10
-16.23529
 20
12.38339
 30
0.0
 10
-16.23529
 20
12.38339
 30
0.0
 10
-16.23529
 20
12.28179
 30
0.0
 10
-16.23529
 20
12.28179
 30
0.0
 10
-16.23529
 20
12.28179
 30
0.0
 10
-16.23529
 20
12.28179
 30
0.0
 10
-16.56549
 20
12.33259
 30
0.0
 10
-16.56549
 20
12.33259
 30
0.0
  0
SPLINE
  5
63
330
1F
100
AcDbEntity
  8
0
100
AcDbSpline
210
0.0
220
0.0
230
1.0
 70
    27
 71
     3
 72
    12
 73
     8
 74
     0
 42
0.0000000001
 43
0.0000000001
 40
0.0
 40
0.0
 40
0.0
 40
0.0
 40
0.3333333333333333
 40
0.3333333333333333
 40
0.3333333333333333
 40
0.3333333333333333
 40
1.0
 40
1.0
 40
1.0
 40
1.0
 10
-4.56549
 20
12.33259
 30
0.0
 10
-4.56549
 20
12.33259
 30
0.0
 10
-4.89569
 20
12.28179
 30
0.0
 10
-4.89569
 20
12.28179
 30
0.0
 10
-4.89569
 20
12.28179
 30
0.0
 10
-4.89569
 20
12.28179
 30
0.0
 10
-4.56549
 20
12.33259
 30
0.0
 10
-4.56549
 20
12.33259
 30
0.0
  0
SPLINE
  5
64
330
1F
100
AcDbEntity
  8
0
100
AcDbSpline
210
0.0
220
0.0
230
1.0
 70
     8
 71
     3
 72
    12
 73
     8
 74
     0
 42
0.0000000001
 43
0.0000000001
 40
0.0
 40
0.0
 40
0.0
 40
0.0
 40
0.3333333333333333
 40
0.3333333333333333
 40
0.3333333333333333
 40
0.3333333333333333
 40
1.0
 40
1.0
 40
1.0
 40
1.0
 10
-4.89569
 20
12.28179
 30
0.0
 10
-4.89569
 20
12.28179
 30
0.0
 10
-4.89569
 20
12.38339
 30
0.0
 10
-4.89569
 20
12.38339
 30
0.0
 10
-4.89569
 20
12.38339
 30
0.0
 10
-4.89569
 20
12.38339
 30
0.0
 10
-4.56549
 20
12.33259
 30
0.0
 10
-4.56549
 20
12.33259
 30
0.0
  0
SPLINE
  5
65
330
1F
100
AcDbEntity
  8
0
370
     9
100
AcDbSpline
210
0.0
220
0.0
230
1.0
 70
    24
 71
     3
 72
     8
 73
     4
 74
     0
 42
0.0000000001
 43
0.0000000001
 40
0.0
 40
0.0
 40
0.0
 40
0.0
 40
1.0
 40
1.0
 40
1.0
 40
1.0
 10
-4.56549
 20
12.33259
 30
0.0
 10
-4.56549
 20
12.33259
 30
0.0
 10
-4.89569
 20
12.28179
 30
0.0
 10
-4.89569
 20
12.28179
 30
0.0
  0
SPLINE
  5
66
330
1F
100
AcDbEntity
  8
0
370
     9
100
AcDbSpline
210
0.0
220
0.0
230
1.0
 70
     8
 71
     3
 72
    12
 73
     8
 74
     0
 42
0.0000000001
 43
0.0000000001
 40
0.0
 40
0.0
 40
0.0
 40
0.0
 40
0.3333333333333333
 40
0.3333333333333333
 40
0.3333333333333333
 40
0.3333333333333333
 40
1.0
 40
1.0
 40
1.0
 40
1.0
 10
-4.89569
 20
12.28179
 30
0.0
 10
-4.89569
 20
12.28179
 30
0.0
 10
-4.89569
 20
12.38339
 30
0.0
 10
-4.89569
 20
12.38339
 30
0.0
 10
-4.89569
 20
12.38339
 30
0.0
 10
-4.89569
 20
12.38339
 30
0.0
 10
-4.56549
 20
12.33259
 30
0.0
 10
-4.56549
 20
12.33259
 30
0.0
  0
SPLINE
  5
67
330
1F
100
AcDbEntity
  8
0
370
     9
100
AcDbSpline
210
0.0
220
0.0
230
1.0
 70
    24
 71
     3
 72
     8
 73
     4
 74
     0
 42
0.0000000001
 43
0.0000000001
 40
0.0
 40
0.0
 40
0.0
 40
0.0
 40
1.0
 40
1.0
 40
1.0
 40
1.0
 10
-16.56549
 20
11.42457
 30
0.0
 10
-16.56549
 20
11.42457
 30
0.0
 10
-16.56549
 20
12.43259
 30
0.0
 10
-16.56549
 20
12.43259
 30
0.0
  0
SPLINE
  5
68
330
1F
100
AcDbEntity
  8
0
370
     9
100
AcDbSpline
210
0.0
220
0.0
230
1.0
 70
    24
 71
     3
 72
     8
 73
     4
 74
     0
 42
0.0000000001
 43
0.0000000001
 40
0.0
 40
0.0
 40
0.0
 40
0.0
 40
1.0
 40
1.0
 40
1.0
 40
1.0
 10
-4.56549
 20
11.27457
 30
0.0
 10
-4.56549
 20
11.27457
 30
0.0
 10
-4.56549
 20
12.43259
 30
0.0
 10
-4.56549
 20
12.43259
 30
0.0
  0
SPLINE
  5
69
330
1F
100
AcDbEntity
  8
0
370
     9
100
AcDbSpline
210
0.0
220
0.0
230
1.0
 70
    24
 71
     3
 72
     8
 73
     4
 74
     0
 42
0.0000000001
 43
0.0000000001
 40
0.0
 40
0.0
 40
0.0
 40
0.0
 40
1.0
 40
1.0
 40
1.0
 40
1.0
 10
-16.56549
 20
12.33259
 30
0.0
 10
-16.56549
 20
12.33259
 30
0.0
 10
-4.56549
 20
12.33259
 30
0.0
 10
-4.56549
 20
12.33259
 30
0.0
  0
SPLINE
  5
6A
330
1F
100
AcDbEntity
  8
0
100
AcDbSpline
210
0.0
220
0.0
230
1.0
 70
    11
 71
     3
 72
    92
 73
    88
 74
     0
 42
0.0000000001
 43
0.0000000001
 40
0.0
 40
0.0
 40
0.0
 40
0.0
 40
0.0434782608695652
 40
0.0434782608695652
 40
0.0434782608695652
 40
0.0434782608695652
 40
0.0869565217391304
 40
0.0869565217391304
 40
0.0869565217391304
 40
0.0869565217391304
 40
0.1304347826086956
 40
0.1304347826086956
 40
0.1304347826086956
 40
0.1304347826086956
 40
0.1739130434782609
 40
0.1739130434782609
 40
0.1739130434782609
 40
0.1739130434782609
 40
0.2173913043478261
 40
0.2173913043478261
 40
0.2173913043478261
 40
0.2173913043478261
 40
0.2608695652173913
 40
0.2608695652173913
 40
0.2608695652173913
 40
0.2608695652173913
 40
0.3043478260869565
 40
0.3043478260869565
 40
0.3043478260869565
 40
0.3043478260869565
 40
0.3478260869565217
 40
0.3478260869565217
 40
0.3478260869565217
 40
0.3478260869565217
 40
0.391304347826087
 40
0.391304347826087
 40
0.391304347826087
 40
0.391304347826087
 40
0.4347826086956522
 40
0.4347826086956522
 40
0.4347826086956522
 40
0.4347826086956522
 40
0.4782608695652174
 40
0.4782608695652174
 40
0.4782608695652174
 40
0.4782608695652174
 40
0.5217391304347826
 40
0.5217391304347826
 40
0.5217391304347826
 40
0.5217391304347826
 40
0.5652173913043478
 40
0.5652173913043478
 40
0.5652173913043478
 40
0.5652173913043478
 40
0.6086956521739131
 40
0.6086956521739131
 40
0.6086956521739131
 40
0.6086956521739131
 40
0.6521739130434783
 40
0.6521739130434783
 40
0.6521739130434783
 40
0.6521739130434783
 40
0.6956521739130435
 40
0.6956521739130435
 40
0.6956521739130435
 40
0.6956521739130435
 40
0.7391304347826086
 40
0.7391304347826086
 40
0.7391304347826086
 40
0.7391304347826086
 40
0.782608695652174
 40
0.782608695652174
 40
0.782608695652174
 40
0.782608695652174
 40
0.8260869565217391
 40
0.8260869565217391
 40
0.8260869565217391
 40
0.8260869565217391
 40
0.8695652173913043
 40
0.8695652173913043
 40
0.8695652173913043
 40
0.8695652173913043
 40
0.9130434782608695
 40
0.9130434782608695
 40
0.9130434782608695
 40
0.9130434782608695
 40
1.0
 40
1.0
 40
1.0
 40
1.0
 10
-10.9916
 20
12.49648
 30
0.0
 10
-10.9916
 20
12.49648
 30
0.0
 10
-10.9916
 20
12.46691
 30
0.0
 10
-10.9916
 20
12.46691
 30
0.0
 10
-10.9916
 20
12.46691
 30
0.0
 10
-10.9916
 20
12.46691
 30
0.0
 10
-11.1572
 20
12.46691
 30
0.0
 10
-11.1572
 20
12.46691
 30
0.0
 10
-11.1572
 20
12.46691
 30
0.0
 10
-11.15744
 20
12.47432
 30
0.0
 10
-11.15627
 20
12.48143
 30
0.0
 10
-11.15365
 20
12.48826
 30
0.0
 10
-11.15365
 20
12.48826
 30
0.0
 10
-11.14945
 20
12.49958
 30
0.0
 10
-11.14268
 20
12.51066
 30
0.0
 10
-11.1334
 20
12.52163
 30
0.0
 10
-11.1334
 20
12.52163
 30
0.0
 10
-11.12407
 20
12.53253
 30
0.0
 10
-11.11065
 20
12.54519
 30
0.0
 10
-11.09315
 20
12.55954
 30
0.0
 10
-11.09315
 20
12.55954
 30
0.0
 10
-11.06591
 20
12.58188
 30
0.0
 10
-11.04748
 20
12.59956
 30
0.0
 10
-11.03791
 20
12.61263
 30
0.0
 10
-11.03791
 20
12.61263
 30
0.0
 10
-11.02835
 20
12.62563
 30
0.0
 10
-11.02356
 20
12.638
 30
0.0
 10
-11.02356
 20
12.64961
 30
0.0
 10
-11.02356
 20
12.64961
 30
0.0
 10
-11.02356
 20
12.6618
 30
0.0
 10
-11.02794
 20
12.67207
 30
0.0
 10
-11.03663
 20
12.68047
 30
0.0
 10
-11.03663
 20
12.68047
 30
0.0
 10
-11.04538
 20
12.68881
 30
0.0
 10
-11.05675
 20
12.69301
 30
0.0
 10
-11.07075
 20
12.69301
 30
0.0
 10
-11.07075
 20
12.69301
 30
0.0
 10
-11.08557
 20
12.69301
 30
0.0
 10
-11.09741
 20
12.68858
 30
0.0
 10
-11.10628
 20
12.67965
 30
0.0
 10
-11.10628
 20
12.67965
 30
0.0
 10
-11.1152
 20
12.67078
 30
0.0
 10
-11.1197
 20
12.65848
 30
0.0
 10
-11.11981
 20
12.64278
 30
0.0
 10
-11.11981
 20
12.64278
 30
0.0
 10
-11.11981
 20
12.64278
 30
0.0
 10
-11.15143
 20
12.64599
 30
0.0
 10
-11.15143
 20
12.64599
 30
0.0
 10
-11.15143
 20
12.64599
 30
0.0
 10
-11.14927
 20
12.66962
 30
0.0
 10
-11.1411
 20
12.68758
 30
0.0
 10
-11.12699
 20
12.69995
 30
0.0
 10
-11.12699
 20
12.69995
 30
0.0
 10
-11.11287
 20
12.71232
 30
0.0
 10
-11.09385
 20
12.7185
 30
0.0
 10
-11.07005
 20
12.7185
 30
0.0
 10
-11.07005
 20
12.7185
 30
0.0
 10
-11.04602
 20
12.7185
 30
0.0
 10
-11.027
 20
12.71179
 30
0.0
 10
-11.013
 20
12.69849
 30
0.0
 10
-11.013
 20
12.69849
 30
0.0
 10
-10.99895
 20
12.68513
 30
0.0
 10
-10.99195
 20
12.66863
 30
0.0
 10
-10.99195
 20
12.64891
 30
0.0
 10
-10.99195
 20
12.64891
 30
0.0
 10
-10.99195
 20
12.63888
 30
0.0
 10
-10.99399
 20
12.62902
 30
0.0
 10
-10.99813
 20
12.61933
 30
0.0
 10
-10.99813
 20
12.61933
 30
0.0
 10
-11.00221
 20
12.60965
 30
0.0
 10
-11.00904
 20
12.59944
 30
0.0
 10
-11.01855
 20
12.58877
 30
0.0
 10
-11.01855
 20
12.58877
 30
0.0
 10
-11.02805
 20
12.57803
 30
0.0
 10
-11.04386
 20
12.56333
 30
0.0
 10
-11.06597
 20
12.54467
 30
0.0
 10
-11.06597
 20
12.54467
 30
0.0
 10
-11.0844
 20
12.52915
 30
0.0
 10
-11.09625
 20
12.51865
 30
0.0
 10
-11.1015
 20
12.51311
 30
0.0
 10
-11.1015
 20
12.51311
 30
0.0
 10
-11.10675
 20
12.50763
 30
0.0
 10
-11.11106
 20
12.50208
 30
0.0
 10
-11.1145
 20
12.49648
 30
0.0
 10
-11.1145
 20
12.49648
 30
0.0
 10
-11.1145
 20
12.49648
 30
0.0
 10
-10.9916
 20
12.49648
 30
0.0
 10
-10.9916
 20
12.49648
 30
0.0
  0
SPLINE
  5
6B
330
1F
100
AcDbEntity
  8
0
100
AcDbSpline
210
0.0
220
0.0
230
1.0
 70
    11
 71
     3
 72
    48
 73
    44
 74
     0
 42
0.0000000001
 43
0.0000000001
 40
0.0
 40
0.0
 40
0.0
 40
0.0
 40
0.0833333333333333
 40
0.0833333333333333
 40
0.0833333333333333
 40
0.0833333333333333
 40
0.1666666666666667
 40
0.1666666666666667
 40
0.1666666666666667
 40
0.1666666666666667
 40
0.25
 40
0.25
 40
0.25
 40
0.25
 40
0.3333333333333333
 40
0.3333333333333333
 40
0.3333333333333333
 40
0.3333333333333333
 40
0.4166666666666667
 40
0.4166666666666667
 40
0.4166666666666667
 40
0.4166666666666667
 40
0.5
 40
0.5
 40
0.5
 40
0.5
 40
0.5833333333333334
 40
0.5833333333333334
 40
0.5833333333333334
 40
0.5833333333333334
 40
0.6666666666666666
 40
0.6666666666666666
 40
0.6666666666666666
 40
0.6666666666666666
 40
0.75
 40
0.75
 40
0.75
 40
0.75
 40
0.8333333333333334
 40
0.8333333333333334
 40
0.8333333333333334
 40
0.8333333333333334
 40
1.0
 40
1.0
 40
1.0
 40
1.0
 10
-10.86005
 20
12.46691
 30
0.0
 10
-10.86005
 20
12.46691
 30
0.0
 10
-10.86005
 20
12.52688
 30
0.0
 10
-10.86005
 20
12.52688
 30
0.0
 10
-10.86005
 20
12.52688
 30
0.0
 10
-10.86005
 20
12.52688
 30
0.0
 10
-10.96873
 20
12.52688
 30
0.0
 10
-10.96873
 20
12.52688
 30
0.0
 10
-10.96873
 20
12.52688
 30
0.0
 10
-10.96873
 20
12.52688
 30
0.0
 10
-10.96873
 20
12.55511
 30
0.0
 10
-10.96873
 20
12.55511
 30
0.0
 10
-10.96873
 20
12.55511
 30
0.0
 10
-10.96873
 20
12.55511
 30
0.0
 10
-10.85439
 20
12.71745
 30
0.0
 10
-10.85439
 20
12.71745
 30
0.0
 10
-10.85439
 20
12.71745
 30
0.0
 10
-10.85439
 20
12.71745
 30
0.0
 10
-10.82925
 20
12.71745
 30
0.0
 10
-10.82925
 20
12.71745
 30
0.0
 10
-10.82925
 20
12.71745
 30
0.0
 10
-10.82925
 20
12.71745
 30
0.0
 10
-10.82925
 20
12.55511
 30
0.0
 10
-10.82925
 20
12.55511
 30
0.0
 10
-10.82925
 20
12.55511
 30
0.0
 10
-10.82925
 20
12.55511
 30
0.0
 10
-10.79542
 20
12.55511
 30
0.0
 10
-10.79542
 20
12.55511
 30
0.0
 10
-10.79542
 20
12.55511
 30
0.0
 10
-10.79542
 20
12.55511
 30
0.0
 10
-10.79542
 20
12.52688
 30
0.0
 10
-10.79542
 20
12.52688
 30
0.0
 10
-10.79542
 20
12.52688
 30
0.0
 10
-10.79542
 20
12.52688
 30
0.0
 10
-10.82925
 20
12.52688
 30
0.0
 10
-10.82925
 20
12.52688
 30
0.0
 10
-10.82925
 20
12.52688
 30
0.0
 10
-10.82925
 20
12.52688
 30
0.0
 10
-10.82925
 20
12.46691
 30
0.0
 10
-10.82925
 20
12.46691
 30
0.0
 10
-10.82925
 20
12.46691
 30
0.0
 10
-10.82925
 20
12.46691
 30
0.0
 10
-10.86005
 20
12.46691
 30
0.0
 10
-10.86005
 20
12.46691
 30
0.0
  0
SPLINE
  5
6C
330
1F
100
AcDbEntity
  8
0
100
AcDbSpline
210
0.0
220
0.0
230
1.0
 70
    11
 71
     3
 72
    16
 73
    12
 74
     0
 42
0.0000000001
 43
0.0000000001
 40
0.0
 40
0.0
 40
0.0
 40
0.0
 40
0.25
 40
0.25
 40
0.25
 40
0.25
 40
0.5
 40
0.5
 40
0.5
 40
0.5
 40
1.0
 40
1.0
 40
1.0
 40
1.0
 10
-10.86005
 20
12.55511
 30
0.0
 10
-10.86005
 20
12.55511
 30
0.0
 10
-10.86005
 20
12.66804
 30
0.0
 10
-10.86005
 20
12.66804
 30
0.0
 10
-10.86005
 20
12.66804
 30
0.0
 10
-10.86005
 20
12.66804
 30
0.0
 10
-10.93845
 20
12.55511
 30
0.0
 10
-10.93845
 20
12.55511
 30
0.0
 10
-10.93845
 20
12.55511
 30
0.0
 10
-10.93845
 20
12.55511
 30
0.0
 10
-10.86005
 20
12.55511
 30
0.0
 10
-10.86005
 20
12.55511
 30
0.0
  0
SPLINE
  5
6D
330
1F
100
AcDbEntity
  8
0
100
AcDbSpline
210
0.0
220
0.0
230
1.0
 70
    11
 71
     3
 72
    52
 73
    48
 74
     0
 42
0.0000000001
 43
0.0000000001
 40
0.0
 40
0.0
 40
0.0
 40
0.0
 40
0.0769230769230769
 40
0.0769230769230769
 40
0.0769230769230769
 40
0.0769230769230769
 40
0.1538461538461539
 40
0.1538461538461539
 40
0.1538461538461539
 40
0.1538461538461539
 40
0.2307692307692308
 40
0.2307692307692308
 40
0.2307692307692308
 40
0.2307692307692308
 40
0.3076923076923077
 40
0.3076923076923077
 40
0.3076923076923077
 40
0.3076923076923077
 40
0.3846153846153846
 40
0.3846153846153846
 40
0.3846153846153846
 40
0.3846153846153846
 40
0.4615384615384616
 40
0.4615384615384616
 40
0.4615384615384616
 40
0.4615384615384616
 40
0.5384615384615384
 40
0.5384615384615384
 40
0.5384615384615384
 40
0.5384615384615384
 40
0.6153846153846154
 40
0.6153846153846154
 40
0.6153846153846154
 40
0.6153846153846154
 40
0.6923076923076923
 40
0.6923076923076923
 40
0.6923076923076923
 40
0.6923076923076923
 40
0.7692307692307693
 40
0.7692307692307693
 40
0.7692307692307693
 40
0.7692307692307693
 40
0.8461538461538461
 40
0.8461538461538461
 40
0.8461538461538461
 40
0.8461538461538461
 40
1.0
 40
1.0
 40
1.0
 40
1.0
 10
-10.76398
 20
12.59046
 30
0.0
 10
-10.76398
 20
12.62009
 30
0.0
 10
-10.76094
 20
12.64395
 30
0.0
 10
-10.75482
 20
12.66198
 30
0.0
 10
-10.75482
 20
12.66198
 30
0.0
 10
-10.74875
 20
12.68006
 30
0.0
 10
-10.73965
 20
12.694
 30
0.0
 10
-10.72763
 20
12.7038
 30
0.0
 10
-10.72763
 20
12.7038
 30
0.0
 10
-10.71562
 20
12.7136
 30
0.0
 10
-10.70051
 20
12.7185
 30
0.0
 10
-10.68231
 20
12.7185
 30
0.0
 10
-10.68231
 20
12.7185
 30
0.0
 10
-10.66883
 20
12.7185
 30
0.0
 10
-10.65705
 20
12.71576
 30
0.0
 10
-10.6469
 20
12.71033
 30
0.0
 10
-10.6469
 20
12.71033
 30
0.0
 10
-10.63675
 20
12.70497
 30
0.0
 10
-10.62841
 20
12.69715
 30
0.0
 10
-10.62176
 20
12.68694
 30
0.0
 10
-10.62176
 20
12.68694
 30
0.0
 10
-10.61517
 20
12.67673
 30
0.0
 10
-10.60998
 20
12.66431
 30
0.0
 10
-10.60624
 20
12.64967
 30
0.0
 10
-10.60624
 20
12.64967
 30
0.0
 10
-10.60245
 20
12.63503
 30
0.0
 10
-10.60058
 20
12.61531
 30
0.0
 10
-10.60058
 20
12.59046
 30
0.0
 10
-10.60058
 20
12.59046
 30
0.0
 10
-10.60058
 20
12.56106
 30
0.0
 10
-10.60362
 20
12.53738
 30
0.0
 10
-10.60963
 20
12.51929
 30
0.0
 10
-10.60963
 20
12.51929
 30
0.0
 10
-10.61569
 20
12.50121
 30
0.0
 10
-10.62473
 20
12.48727
 30
0.0
 10
-10.63675
 20
12.47741
 30
0.0
 10
-10.63675
 20
12.47741
 30
0.0
 10
-10.64877
 20
12.46755
 30
0.0
 10
-10.66393
 20
12.46265
 30
0.0
 10
-10.68231
 20
12.46265
 30
0.0
 10
-10.68231
 20
12.46265
 30
0.0
 10
-10.70646
 20
12.46265
 30
0.0
 10
-10.72542
 20
12.47128
 30
0.0
 10
-10.73918
 20
12.48861
 30
0.0
 10
-10.73918
 20
12.48861
 30
0.0
 10
-10.75569
 20
12.50943
 30
0.0
 10
-10.76398
 20
12.54344
 30
0.0
 10
-10.76398
 20
12.59046
 30
0.0
  0
SPLINE
  5
6E
330
1F
100
AcDbEntity
  8
0
100
AcDbSpline
210
0.0
220
0.0
230
1.0
 70
    11
 71
     3
 72
    36
 73
    32
 74
     0
 42
0.0000000001
 43
0.0000000001
 40
0.0
 40
0.0
 40
0.0
 40
0.0
 40
0.1111111111111111
 40
0.1111111111111111
 40
0.1111111111111111
 40
0.1111111111111111
 40
0.2222222222222222
 40
0.2222222222222222
 40
0.2222222222222222
 40
0.2222222222222222
 40
0.3333333333333333
 40
0.3333333333333333
 40
0.3333333333333333
 40
0.3333333333333333
 40
0.4444444444444444
 40
0.4444444444444444
 40
0.4444444444444444
 40
0.4444444444444444
 40
0.5555555555555556
 40
0.5555555555555556
 40
0.5555555555555556
 40
0.5555555555555556
 40
0.6666666666666666
 40
0.6666666666666666
 40
0.6666666666666666
 40
0.6666666666666666
 40
0.7777777777777778
 40
0.7777777777777778
 40
0.7777777777777778
 40
0.7777777777777778
 40
1.0
 40
1.0
 40
1.0
 40
1.0
 10
-10.73236
 20
12.59046
 30
0.0
 10
-10.73236
 20
12.54933
 30
0.0
 10
-10.72752
 20
12.52198
 30
0.0
 10
-10.71789
 20
12.50833
 30
0.0
 10
-10.71789
 20
12.50833
 30
0.0
 10
-10.70827
 20
12.49473
 30
0.0
 10
-10.69643
 20
12.48791
 30
0.0
 10
-10.68231
 20
12.48791
 30
0.0
 10
-10.68231
 20
12.48791
 30
0.0
 10
-10.66813
 20
12.48791
 30
0.0
 10
-10.65629
 20
12.49479
 30
0.0
 10
-10.64667
 20
12.50844
 30
0.0
 10
-10.64667
 20
12.50844
 30
0.0
 10
-10.63704
 20
12.52209
 30
0.0
 10
-10.6322
 20
12.54945
 30
0.0
 10
-10.6322
 20
12.59046
 30
0.0
 10
-10.6322
 20
12.59046
 30
0.0
 10
-10.6322
 20
12.6317
 30
0.0
 10
-10.63704
 20
12.65912
 30
0.0
 10
-10.64667
 20
12.67265
 30
0.0
 10
-10.64667
 20
12.67265
 30
0.0
 10
-10.65629
 20
12.68624
 30
0.0
 10
-10.66825
 20
12.69301
 30
0.0
 10
-10.6826
 20
12.69301
 30
0.0
 10
-10.6826
 20
12.69301
 30
0.0
 10
-10.69678
 20
12.69301
 30
0.0
 10
-10.70803
 20
12.687
 30
0.0
 10
-10.71649
 20
12.67504
 30
0.0
 10
-10.71649
 20
12.67504
 30
0.0
 10
-10.72705
 20
12.65982
 30
0.0
 10
-10.73236
 20
12.63158
 30
0.0
 10
-10.73236
 20
12.59046
 30
0.0
  0
SPLINE
  5
6F
330
1F
100
AcDbEntity
  8
0
370
    15
100
AcDbSpline
210
0.0
220
0.0
230
1.0
 70
    24
 71
     3
 72
     8
 73
     4
 74
     0
 42
0.0000000001
 43
0.0000000001
 40
0.0
 40
0.0
 40
0.0
 40
0.0
 40
1.0
 40
1.0
 40
1.0
 40
1.0
 10
-1.6348
 20
9.27457
 30
0.0
 10
-1.6348
 20
9.27457
 30
0.0
 10
-1.6348
 20
10.47023
 30
0.0
 10
-1.6348
 20
10.47023
 30
0.0
  0
SPLINE
  5
70
330
1F
100
AcDbEntity
  8
0
370
    15
100
AcDbSpline
210
0.0
220
0.0
230
1.0
 70
    24
 71
     3
 72
     8
 73
     4
 74
     0
 42
0.0000000001
 43
0.0000000001
 40
0.0
 40
0.0
 40
0.0
 40
0.0
 40
1.0
 40
1.0
 40
1.0
 40
1.0
 10
-2.17385
 20
10.82569
 30
0.0
 10
-2.17385
 20
10.82569
 30
0.0
 10
-2.16885
 20
10.82565
 30
0.0
 10
-2.16885
 20
10.82565
 30
0.0
  0
SPLINE
  5
71
330
1F
100
AcDbEntity
  8
0
370
    15
100
AcDbSpline
210
0.0
220
0.0
230
1.0
 70
    24
 71
     3
 72
     8
 73
     4
 74
     0
 42
0.0000000001
 43
0.0000000001
 40
0.0
 40
0.0
 40
0.0
 40
0.0
 40
1.0
 40
1.0
 40
1.0
 40
1.0
 10
-2.17385
 20
10.82569
 30
0.0
 10
-2.17385
 20
10.82569
 30
0.0
 10
-2.17385
 20
9.27457
 30
0.0
 10
-2.17385
 20
9.27457
 30
0.0
  0
SPLINE
  5
72
330
1F
100
AcDbEntity
  8
0
370
    15
100
AcDbSpline
210
0.0
220
0.0
230
1.0
 70
    24
 71
     3
 72
     8
 73
     4
 74
     0
 42
0.0000000001
 43
0.0000000001
 40
0.0
 40
0.0
 40
0.0
 40
0.0
 40
1.0
 40
1.0
 40
1.0
 40
1.0
 10
-2.17385
 20
9.27457
 30
0.0
 10
-2.17385
 20
9.27457
 30
0.0
 10
-2.16885
 20
9.27457
 30
0.0
 10
-2.16885
 20
9.27457
 30
0.0
  0
SPLINE
  5
73
330
1F
100
AcDbEntity
  8
0
370
    15
100
AcDbSpline
210
0.0
220
0.0
230
1.0
 70
    24
 71
     3
 72
     8
 73
     4
 74
     0
 42
0.0000000001
 43
0.0000000001
 40
0.0
 40
0.0
 40
0.0
 40
0.0
 40
1.0
 40
1.0
 40
1.0
 40
1.0
 10
-1.26885
 20
11.32457
 30
0.0
 10
-1.26885
 20
11.32457
 30
0.0
 10
-1.26885
 20
10.52457
 30
0.0
 10
-1.26885
 20
10.52457
 30
0.0
  0
SPLINE
  5
74
330
1F
100
AcDbEntity
  8
0
370
    15
100
AcDbSpline
210
0.0
220
0.0
230
1.0
 70
    24
 71
     3
 72
     8
 73
     4
 74
     0
 42
0.0000000001
 43
0.0000000001
 40
0.0
 40
0.0
 40
0.0
 40
0.0
 40
1.0
 40
1.0
 40
1.0
 40
1.0
 10
-1.26885
 20
11.32457
 30
0.0
 10
-1.26885
 20
11.32457
 30
0.0
 10
-0.76885
 20
11.32457
 30
0.0
 10
-0.76885
 20
11.32457
 30
0.0
  0
SPLINE
  5
75
330
1F
100
AcDbEntity
  8
0
370
    15
100
AcDbSpline
210
0.0
220
0.0
230
1.0
 70
    24
 71
     3
 72
     8
 73
     4
 74
     0
 42
0.0000000001
 43
0.0000000001
 40
0.0
 40
0.0
 40
0.0
 40
0.0
 40
1.0
 40
1.0
 40
1.0
 40
1.0
 10
-0.76885
 20
11.32457
 30
0.0
 10
-0.76885
 20
11.32457
 30
0.0
 10
-0.76885
 20
10.52457
 30
0.0
 10
-0.76885
 20
10.52457
 30
0.0
  0
SPLINE
  5
76
330
1F
100
AcDbEntity
  8
0
370
    15
100
AcDbSpline
210
0.0
220
0.0
230
1.0
 70
    24
 71
     3
 72
     8
 73
     4
 74
     0
 42
0.0000000001
 43
0.0000000001
 40
0.0
 40
0.0
 40
0.0
 40
0.0
 40
1.0
 40
1.0
 40
1.0
 40
1.0
 10
-1.26885
 20
10.52457
 30
0.0
 10
-1.26885
 20
10.52457
 30
0.0
 10
-0.76885
 20
10.52457
 30
0.0
 10
-0.76885
 20
10.52457
 30
0.0
  0
SPLINE
  5
77
330
1F
100
AcDbEntity
  8
0
370
    15
100
AcDbSpline
210
0.0
220
0.0
230
1.0
 70
    24
 71
     3
 72
     8
 73
     4
 74
     0
 42
0.0000000001
 43
0.0000000001
 40
0.0
 40
0.0
 40
0.0
 40
0.0
 40
1.0
 40
1.0
 40
1.0
 40
1.0
 10
2.13115
 20
11.32457
 30
0.0
 10
2.13115
 20
11.32457
 30
0.0
 10
2.13115
 20
10.52457
 30
0.0
 10
2.13115
 20
10.52457
 30
0.0
  0
SPLINE
  5
78
330
1F
100
AcDbEntity
  8
0
370
    15
100
AcDbSpline
210
0.0
220
0.0
230
1.0
 70
    24
 71
     3
 72
     8
 73
     4
 74
     0
 42
0.0000000001
 43
0.0000000001
 40
0.0
 40
0.0
 40
0.0
 40
0.0
 40
1.0
 40
1.0
 40
1.0
 40
1.0
 10
-0.76885
 20
11.32457
 30
0.0
 10
-0.76885
 20
11.32457
 30
0.0
 10
2.13115
 20
11.32457
 30
0.0
 10
2.13115
 20
11.32457
 30
0.0
  0
SPLINE
  5
79
330
1F
100
AcDbEntity
  8
0
370
    15
100
AcDbSpline
210
0.0
220
0.0
230
1.0
 70
    24
 71
     3
 72
     8
 73
     4
 74
     0
 42
0.0000000001
 43
0.0000000001
 40
0.0
 40
0.0
 40
0.0
 40
0.0
 40
1.0
 40
1.0
 40
1.0
 40
1.0
 10
-0.76885
 20
10.52457
 30
0.0
 10
-0.76885
 20
10.52457
 30
0.0
 10
2.13115
 20
10.52457
 30
0.0
 10
2.13115
 20
10.52457
 30
0.0
  0
SPLINE
  5
7A
330
1F
100
AcDbEntity
  8
0
370
    15
100
AcDbSpline
210
0.0
220
0.0
230
1.0
 70
    24
 71
     3
 72
     8
 73
     4
 74
     0
 42
0.0000000001
 43
0.0000000001
 40
0.0
 40
0.0
 40
0.0
 40
0.0
 40
1.0
 40
1.0
 40
1.0
 40
1.0
 10
2.63115
 20
11.32457
 30
0.0
 10
2.63115
 20
11.32457
 30
0.0
 10
2.63115
 20
10.52457
 30
0.0
 10
2.63115
 20
10.52457
 30
0.0
  0
SPLINE
  5
7B
330
1F
100
AcDbEntity
  8
0
370
    15
100
AcDbSpline
210
0.0
220
0.0
230
1.0
 70
    24
 71
     3
 72
     8
 73
     4
 74
     0
 42
0.0000000001
 43
0.0000000001
 40
0.0
 40
0.0
 40
0.0
 40
0.0
 40
1.0
 40
1.0
 40
1.0
 40
1.0
 10
2.13115
 20
11.32457
 30
0.0
 10
2.13115
 20
11.32457
 30
0.0
 10
2.63115
 20
11.32457
 30
0.0
 10
2.63115
 20
11.32457
 30
0.0
  0
SPLINE
  5
7C
330
1F
100
AcDbEntity
  8
0
370
    15
100
AcDbSpline
210
0.0
220
0.0
230
1.0
 70
    24
 71
     3
 72
     8
 73
     4
 74
     0
 42
0.0000000001
 43
0.0000000001
 40
0.0
 40
0.0
 40
0.0
 40
0.0
 40
1.0
 40
1.0
 40
1.0
 40
1.0
 10
2.13115
 20
10.52457
 30
0.0
 10
2.13115
 20
10.52457
 30
0.0
 10
2.63115
 20
10.52457
 30
0.0
 10
2.63115
 20
10.52457
 30
0.0
  0
SPLINE
  5
7D
330
1F
100
AcDbEntity
  8
0
370
    15
100
AcDbSpline
210
0.0
220
0.0
230
1.0
 70
     8
 71
     3
 72
    12
 73
     8
 74
     0
 42
0.0000000001
 43
0.0000000001
 40
0.0
 40
0.0
 40
0.0
 40
0.0
 40
0.3333333333333333
 40
0.3333333333333333
 40
0.3333333333333333
 40
0.3333333333333333
 40
1.0
 40
1.0
 40
1.0
 40
1.0
 10
-1.67629
 20
10.38486
 30
0.0
 10
-1.67616
 20
10.38665
 30
0.0
 10
-1.67598
 20
10.38844
 30
0.0
 10
-1.67578
 20
10.39022
 30
0.0
 10
-1.67578
 20
10.39022
 30
0.0
 10
-1.67578
 20
10.39022
 30
0.0
 10
-1.67578
 20
10.39022
 30
0.0
 10
-1.67578
 20
10.39022
 30
0.0
  0
SPLINE
  5
7E
330
1F
100
AcDbEntity
  8
0
370
    15
100
AcDbSpline
210
0.0
220
0.0
230
1.0
 70
     8
 71
     3
 72
    16
 73
    12
 74
     0
 42
0.0000000001
 43
0.0000000001
 40
0.0
 40
0.0
 40
0.0
 40
0.0
 40
0.25
 40
0.25
 40
0.25
 40
0.25
 40
0.5
 40
0.5
 40
0.5
 40
0.5
 40
1.0
 40
1.0
 40
1.0
 40
1.0
 10
-1.67692
 20
9.27457
 30
0.0
 10
-1.67693
 20
9.45962
 30
0.0
 10
-1.67694
 20
9.64466
 30
0.0
 10
-1.67695
 20
9.82971
 30
0.0
 10
-1.67695
 20
9.82971
 30
0.0
 10
-1.67695
 20
9.92224
 30
0.0
 10
-1.67696
 20
10.01476
 30
0.0
 10
-1.67696
 20
10.10729
 30
0.0
 10
-1.67696
 20
10.10729
 30
0.0
 10
-1.67697
 20
10.19981
 30
0.0
 10
-1.67705
 20
10.29234
 30
0.0
 10
-1.67629
 20
10.38486
 30
0.0
  0
SPLINE
  5
7F
330
1F
100
AcDbEntity
  8
0
370
    15
100
AcDbSpline
210
0.0
220
0.0
230
1.0
 70
    24
 71
     3
 72
     8
 73
     4
 74
     0
 42
0.0000000001
 43
0.0000000001
 40
0.0
 40
0.0
 40
0.0
 40
0.0
 40
1.0
 40
1.0
 40
1.0
 40
1.0
 10
-1.67692
 20
9.27457
 30
0.0
 10
-1.67692
 20
9.27457
 30
0.0
 10
-2.06042
 20
9.27457
 30
0.0
 10
-2.06042
 20
9.27457
 30
0.0
  0
SPLINE
  5
80
330
1F
100
AcDbEntity
  8
0
370
    15
100
AcDbSpline
210
0.0
220
0.0
230
1.0
 70
     8
 71
     3
 72
    28
 73
    24
 74
     0
 42
0.0000000001
 43
0.0000000001
 40
0.0
 40
0.0
 40
0.0
 40
0.0
 40
0.1428571428571428
 40
0.1428571428571428
 40
0.1428571428571428
 40
0.1428571428571428
 40
0.2857142857142857
 40
0.2857142857142857
 40
0.2857142857142857
 40
0.2857142857142857
 40
0.4285714285714285
 40
0.4285714285714285
 40
0.4285714285714285
 40
0.4285714285714285
 40
0.5714285714285714
 40
0.5714285714285714
 40
0.5714285714285714
 40
0.5714285714285714
 40
0.7142857142857143
 40
0.7142857142857143
 40
0.7142857142857143
 40
0.7142857142857143
 40
1.0
 40
1.0
 40
1.0
 40
1.0
 10
-2.06024
 20
10.77466
 30
0.0
 10
-2.06038
 20
10.75903
 30
0.0
 10
-2.06036
 20
10.7434
 30
0.0
 10
-2.06036
 20
10.72778
 30
0.0
 10
-2.06036
 20
10.72778
 30
0.0
 10
-2.06036
 20
10.71215
 30
0.0
 10
-2.06036
 20
10.69653
 30
0.0
 10
-2.06036
 20
10.6809
 30
0.0
 10
-2.06036
 20
10.6809
 30
0.0
 10
-2.06037
 20
10.64965
 30
0.0
 10
-2.06037
 20
10.6184
 30
0.0
 10
-2.06037
 20
10.58714
 30
0.0
 10
-2.06037
 20
10.58714
 30
0.0
 10
-2.06037
 20
10.52464
 30
0.0
 10
-2.06037
 20
10.46214
 30
0.0
 10
-2.06038
 20
10.39963
 30
0.0
 10
-2.06038
 20
10.39963
 30
0.0
 10
-2.06038
 20
10.27463
 30
0.0
 10
-2.06038
 20
10.14962
 30
0.0
 10
-2.06039
 20
10.02461
 30
0.0
 10
-2.06039
 20
10.02461
 30
0.0
 10
-2.0604
 20
9.7746
 30
0.0
 10
-2.06041
 20
9.52458
 30
0.0
 10
-2.06042
 20
9.27457
 30
0.0
  0
SPLINE
  5
81
330
1F
100
AcDbEntity
  8
0
370
    15
100
AcDbSpline
210
0.0
220
0.0
230
1.0
 70
     8
 71
     3
 72
    52
 73
    48
 74
     0
 42
0.0000000001
 43
0.0000000001
 40
0.0
 40
0.0
 40
0.0
 40
0.0
 40
0.0769230769230769
 40
0.0769230769230769
 40
0.0769230769230769
 40
0.0769230769230769
 40
0.1538461538461539
 40
0.1538461538461539
 40
0.1538461538461539
 40
0.1538461538461539
 40
0.2307692307692308
 40
0.2307692307692308
 40
0.2307692307692308
 40
0.2307692307692308
 40
0.3076923076923077
 40
0.3076923076923077
 40
0.3076923076923077
 40
0.3076923076923077
 40
0.3846153846153846
 40
0.3846153846153846
 40
0.3846153846153846
 40
0.3846153846153846
 40
0.4615384615384616
 40
0.4615384615384616
 40
0.4615384615384616
 40
0.4615384615384616
 40
0.5384615384615384
 40
0.5384615384615384
 40
0.5384615384615384
 40
0.5384615384615384
 40
0.6153846153846154
 40
0.6153846153846154
 40
0.6153846153846154
 40
0.6153846153846154
 40
0.6923076923076923
 40
0.6923076923076923
 40
0.6923076923076923
 40
0.6923076923076923
 40
0.7692307692307693
 40
0.7692307692307693
 40
0.7692307692307693
 40
0.7692307692307693
 40
0.8461538461538461
 40
0.8461538461538461
 40
0.8461538461538461
 40
0.8461538461538461
 40
1.0
 40
1.0
 40
1.0
 40
1.0
 10
-1.51886
 20
11.31418
 30
0.0
 10
-1.55451
 20
11.31416
 30
0.0
 10
-1.58977
 20
11.31066
 30
0.0
 10
-1.62465
 20
11.3037
 30
0.0
 10
-1.62465
 20
11.3037
 30
0.0
 10
-1.64209
 20
11.30022
 30
0.0
 10
-1.65939
 20
11.29587
 30
0.0
 10
-1.67627
 20
11.29073
 30
0.0
 10
-1.67627
 20
11.29073
 30
0.0
 10
-1.69316
 20
11.2856
 30
0.0
 10
-1.70972
 20
11.27966
 30
0.0
 10
-1.72596
 20
11.27293
 30
0.0
 10
-1.72596
 20
11.27293
 30
0.0
 10
-1.74219
 20
11.2662
 30
0.0
 10
-1.7581
 20
11.25868
 30
0.0
 10
-1.77369
 20
11.25035
 30
0.0
 10
-1.77369
 20
11.25035
 30
0.0
 10
-1.78927
 20
11.24203
 30
0.0
 10
-1.8046
 20
11.23284
 30
0.0
 10
-1.81935
 20
11.22299
 30
0.0
 10
-1.81935
 20
11.22299
 30
0.0
 10
-1.84885
 20
11.20327
 30
0.0
 10
-1.87602
 20
11.18094
 30
0.0
 10
-1.90094
 20
11.15606
 30
0.0
 10
-1.90094
 20
11.15606
 30
0.0
 10
-1.91339
 20
11.14362
 30
0.0
 10
-1.92528
 20
11.13053
 30
0.0
 10
-1.93657
 20
11.11679
 30
0.0
 10
-1.93657
 20
11.11679
 30
0.0
 10
-1.94787
 20
11.10304
 30
0.0
 10
-1.95847
 20
11.08876
 30
0.0
 10
-1.96827
 20
11.0741
 30
0.0
 10
-1.96827
 20
11.0741
 30
0.0
 10
-1.98787
 20
11.04478
 30
0.0
 10
-2.00449
 20
11.0138
 30
0.0
 10
-2.0181
 20
10.98115
 30
0.0
 10
-2.0181
 20
10.98115
 30
0.0
 10
-2.02491
 20
10.96482
 30
0.0
 10
-2.03098
 20
10.94799
 30
0.0
 10
-2.03617
 20
10.93106
 30
0.0
 10
-2.03617
 20
10.93106
 30
0.0
 10
-2.04136
 20
10.91412
 30
0.0
 10
-2.0457
 20
10.89704
 30
0.0
 10
-2.04921
 20
10.8798
 30
0.0
 10
-2.04921
 20
10.8798
 30
0.0
 10
-2.05622
 20
10.84534
 30
0.0
 10
-2.05993
 20
10.8103
 30
0.0
 10
-2.06024
 20
10.77466
 30
0.0
  0
SPLINE
  5
82
330
1F
100
AcDbEntity
  8
0
370
    15
100
AcDbSpline
210
0.0
220
0.0
230
1.0
 70
    24
 71
     3
 72
    16
 73
    12
 74
     0
 42
0.0000000001
 43
0.0000000001
 40
0.0
 40
0.0
 40
0.0
 40
0.0
 40
0.25
 40
0.25
 40
0.25
 40
0.25
 40
0.5
 40
0.5
 40
0.5
 40
0.5
 40
1.0
 40
1.0
 40
1.0
 40
1.0
 10
-1.26885
 20
11.31418
 30
0.0
 10
-1.26885
 20
11.31418
 30
0.0
 10
-1.29385
 20
11.31418
 30
0.0
 10
-1.29385
 20
11.31418
 30
0.0
 10
-1.29385
 20
11.31418
 30
0.0
 10
-1.29385
 20
11.31418
 30
0.0
 10
-1.39385
 20
11.31418
 30
0.0
 10
-1.39385
 20
11.31418
 30
0.0
 10
-1.39385
 20
11.31418
 30
0.0
 10
-1.39385
 20
11.31418
 30
0.0
 10
-1.51886
 20
11.31418
 30
0.0
 10
-1.51886
 20
11.31418
 30
0.0
  0
SPLINE
  5
83
330
1F
100
AcDbEntity
  8
0
370
    15
100
AcDbSpline
210
0.0
220
0.0
230
1.0
 70
     8
 71
     3
 72
    16
 73
    12
 74
     0
 42
0.0000000001
 43
0.0000000001
 40
0.0
 40
0.0
 40
0.0
 40
0.0
 40
0.25
 40
0.25
 40
0.25
 40
0.25
 40
0.5
 40
0.5
 40
0.5
 40
0.5
 40
1.0
 40
1.0
 40
1.0
 40
1.0
 10
-1.51884
 20
10.5349
 30
0.0
 10
-1.5105
 20
10.53491
 30
0.0
 10
-1.50217
 20
10.53492
 30
0.0
 10
-1.49384
 20
10.53492
 30
0.0
 10
-1.49384
 20
10.53492
 30
0.0
 10
-1.4605
 20
10.53495
 30
0.0
 10
-1.42717
 20
10.53495
 30
0.0
 10
-1.39384
 20
10.53495
 30
0.0
 10
-1.39384
 20
10.53495
 30
0.0
 10
-1.35217
 20
10.53495
 30
0.0
 10
-1.31051
 20
10.53495
 30
0.0
 10
-1.26885
 20
10.53495
 30
0.0
  0
SPLINE
  5
84
330
1F
100
AcDbEntity
  8
0
370
    15
100
AcDbSpline
210
0.0
220
0.0
230
1.0
 70
     8
 71
     3
 72
    48
 73
    44
 74
     0
 42
0.0000000001
 43
0.0000000001
 40
0.0
 40
0.0
 40
0.0
 40
0.0
 40
0.0833333333333333
 40
0.0833333333333333
 40
0.0833333333333333
 40
0.0833333333333333
 40
0.1666666666666667
 40
0.1666666666666667
 40
0.1666666666666667
 40
0.1666666666666667
 40
0.25
 40
0.25
 40
0.25
 40
0.25
 40
0.3333333333333333
 40
0.3333333333333333
 40
0.3333333333333333
 40
0.3333333333333333
 40
0.4166666666666667
 40
0.4166666666666667
 40
0.4166666666666667
 40
0.4166666666666667
 40
0.5
 40
0.5
 40
0.5
 40
0.5
 40
0.5833333333333334
 40
0.5833333333333334
 40
0.5833333333333334
 40
0.5833333333333334
 40
0.6666666666666666
 40
0.6666666666666666
 40
0.6666666666666666
 40
0.6666666666666666
 40
0.75
 40
0.75
 40
0.75
 40
0.75
 40
0.8333333333333334
 40
0.8333333333333334
 40
0.8333333333333334
 40
0.8333333333333334
 40
1.0
 40
1.0
 40
1.0
 40
1.0
 10
-1.67578
 20
10.39022
 30
0.0
 10
-1.67564
 20
10.39145
 30
0.0
 10
-1.67563
 20
10.39269
 30
0.0
 10
-1.67554
 20
10.39392
 30
0.0
 10
-1.67554
 20
10.39392
 30
0.0
 10
-1.67544
 20
10.39515
 30
0.0
 10
-1.67533
 20
10.39638
 30
0.0
 10
-1.6752
 20
10.39761
 30
0.0
 10
-1.6752
 20
10.39761
 30
0.0
 10
-1.67494
 20
10.40006
 30
0.0
 10
-1.67461
 20
10.40251
 30
0.0
 10
-1.67423
 20
10.40495
 30
0.0
 10
-1.67423
 20
10.40495
 30
0.0
 10
-1.67345
 20
10.40983
 30
0.0
 10
-1.67242
 20
10.41467
 30
0.0
 10
-1.67117
 20
10.4194
 30
0.0
 10
-1.67117
 20
10.4194
 30
0.0
 10
-1.66866
 20
10.42887
 30
0.0
 10
-1.66524
 20
10.43799
 30
0.0
 10
-1.66097
 20
10.44677
 30
0.0
 10
-1.66097
 20
10.44677
 30
0.0
 10
-1.65669
 20
10.45555
 30
0.0
 10
-1.65148
 20
10.46405
 30
0.0
 10
-1.64562
 20
10.47186
 30
0.0
 10
-1.64562
 20
10.47186
 30
0.0
 10
-1.63975
 20
10.47967
 30
0.0
 10
-1.6332
 20
10.48688
 30
0.0
 10
-1.62596
 20
10.49349
 30
0.0
 10
-1.62596
 20
10.49349
 30
0.0
 10
-1.61872
 20
10.5001
 30
0.0
 10
-1.61079
 20
10.50609
 30
0.0
 10
-1.6025
 20
10.51121
 30
0.0
 10
-1.6025
 20
10.51121
 30
0.0
 10
-1.5942
 20
10.51634
 30
0.0
 10
-1.58547
 20
10.52068
 30
0.0
 10
-1.57629
 20
10.52423
 30
0.0
 10
-1.57629
 20
10.52423
 30
0.0
 10
-1.56711
 20
10.52778
 30
0.0
 10
-1.55761
 20
10.53046
 30
0.0
 10
-1.54803
 20
10.53223
 30
0.0
 10
-1.54803
 20
10.53223
 30
0.0
 10
-1.53845
 20
10.53401
 30
0.0
 10
-1.52872
 20
10.53489
 30
0.0
 10
-1.51884
 20
10.5349
 30
0.0
  0
SPLINE
  5
85
330
1F
100
AcDbEntity
  8
0
370
    15
100
AcDbSpline
210
0.0
220
0.0
230
1.0
 70
     8
 71
     3
 72
     8
 73
     4
 74
     0
 42
0.0000000001
 43
0.0000000001
 40
0.0
 40
0.0
 40
0.0
 40
0.0
 40
1.0
 40
1.0
 40
1.0
 40
1.0
 10
-2.06024
 20
10.77466
 30
0.0
 10
-2.06311
 20
10.77468
 30
0.0
 10
-2.06598
 20
10.77465
 30
0.0
 10
-2.06885
 20
10.77457
 30
0.0
  0
SPLINE
  5
86
330
1F
100
AcDbEntity
  8
0
370
    15
100
AcDbSpline
210
0.0
220
0.0
230
1.0
 70
     8
 71
     3
 72
    52
 73
    48
 74
     0
 42
0.0000000001
 43
0.0000000001
 40
0.0
 40
0.0
 40
0.0
 40
0.0
 40
0.0769230769230769
 40
0.0769230769230769
 40
0.0769230769230769
 40
0.0769230769230769
 40
0.1538461538461539
 40
0.1538461538461539
 40
0.1538461538461539
 40
0.1538461538461539
 40
0.2307692307692308
 40
0.2307692307692308
 40
0.2307692307692308
 40
0.2307692307692308
 40
0.3076923076923077
 40
0.3076923076923077
 40
0.3076923076923077
 40
0.3076923076923077
 40
0.3846153846153846
 40
0.3846153846153846
 40
0.3846153846153846
 40
0.3846153846153846
 40
0.4615384615384616
 40
0.4615384615384616
 40
0.4615384615384616
 40
0.4615384615384616
 40
0.5384615384615384
 40
0.5384615384615384
 40
0.5384615384615384
 40
0.5384615384615384
 40
0.6153846153846154
 40
0.6153846153846154
 40
0.6153846153846154
 40
0.6153846153846154
 40
0.6923076923076923
 40
0.6923076923076923
 40
0.6923076923076923
 40
0.6923076923076923
 40
0.7692307692307693
 40
0.7692307692307693
 40
0.7692307692307693
 40
0.7692307692307693
 40
0.8461538461538461
 40
0.8461538461538461
 40
0.8461538461538461
 40
0.8461538461538461
 40
1.0
 40
1.0
 40
1.0
 40
1.0
 10
-2.06885
 20
10.77457
 30
0.0
 10
-2.06885
 20
10.81088
 30
0.0
 10
-2.06529
 20
10.84659
 30
0.0
 10
-2.05831
 20
10.88171
 30
0.0
 10
-2.05831
 20
10.88171
 30
0.0
 10
-2.05482
 20
10.89928
 30
0.0
 10
-2.05047
 20
10.91669
 30
0.0
 10
-2.04525
 20
10.93396
 30
0.0
 10
-2.04525
 20
10.93396
 30
0.0
 10
-2.04002
 20
10.95123
 30
0.0
 10
-2.03388
 20
10.96839
 30
0.0
 10
-2.02699
 20
10.98504
 30
0.0
 10
-2.02699
 20
10.98504
 30
0.0
 10
-2.0132
 20
11.01833
 30
0.0
 10
-1.99632
 20
11.0499
 30
0.0
 10
-1.97639
 20
11.07979
 30
0.0
 10
-1.97639
 20
11.07979
 30
0.0
 10
-1.96642
 20
11.09473
 30
0.0
 10
-1.95564
 20
11.10929
 30
0.0
 10
-1.94415
 20
11.1233
 30
0.0
 10
-1.94415
 20
11.1233
 30
0.0
 10
-1.93266
 20
11.13731
 30
0.0
 10
-1.92057
 20
11.15065
 30
0.0
 10
-1.9079
 20
11.16333
 30
0.0
 10
-1.9079
 20
11.16333
 30
0.0
 10
-1.88255
 20
11.1887
 30
0.0
 10
-1.85489
 20
11.21147
 30
0.0
 10
-1.82486
 20
11.23158
 30
0.0
 10
-1.82486
 20
11.23158
 30
0.0
 10
-1.80984
 20
11.24163
 30
0.0
 10
-1.79423
 20
11.251
 30
0.0
 10
-1.77837
 20
11.25949
 30
0.0
 10
-1.77837
 20
11.25949
 30
0.0
 10
-1.76251
 20
11.26798
 30
0.0
 10
-1.74631
 20
11.27565
 30
0.0
 10
-1.72978
 20
11.28251
 30
0.0
 10
-1.72978
 20
11.28251
 30
0.0
 10
-1.71325
 20
11.28938
 30
0.0
 10
-1.69638
 20
11.29544
 30
0.0
 10
-1.67918
 20
11.30068
 30
0.0
 10
-1.67918
 20
11.30068
 30
0.0
 10
-1.66199
 20
11.30592
 30
0.0
 10
-1.64437
 20
11.31036
 30
0.0
 10
-1.62661
 20
11.31391
 30
0.0
 10
-1.62661
 20
11.31391
 30
0.0
 10
-1.59108
 20
11.321
 30
0.0
 10
-1.55517
 20
11.32457
 30
0.0
 10
-1.51885
 20
11.32457
 30
0.0
  0
SPLINE
  5
87
330
1F
100
AcDbEntity
  8
0
370
    15
100
AcDbSpline
210
0.0
220
0.0
230
1.0
 70
     8
 71
     3
 72
     8
 73
     4
 74
     0
 42
0.0000000001
 43
0.0000000001
 40
0.0
 40
0.0
 40
0.0
 40
0.0
 40
1.0
 40
1.0
 40
1.0
 40
1.0
 10
-1.51885
 20
11.32457
 30
0.0
 10
-1.51885
 20
11.3211
 30
0.0
 10
-1.51886
 20
11.31764
 30
0.0
 10
-1.51886
 20
11.31418
 30
0.0
  0
SPLINE
  5
88
330
1F
100
AcDbEntity
  8
0
370
    15
100
AcDbSpline
210
0.0
220
0.0
230
1.0
 70
     8
 71
     3
 72
    12
 73
     8
 74
     0
 42
0.0000000001
 43
0.0000000001
 40
0.0
 40
0.0
 40
0.0
 40
0.0
 40
0.3333333333333333
 40
0.3333333333333333
 40
0.3333333333333333
 40
0.3333333333333333
 40
1.0
 40
1.0
 40
1.0
 40
1.0
 10
-1.66853
 20
10.38455
 30
0.0
 10
-1.66863
 20
10.38456
 30
0.0
 10
-1.66942
 20
10.3846
 30
0.0
 10
-1.67078
 20
10.38466
 30
0.0
 10
-1.67078
 20
10.38466
 30
0.0
 10
-1.67215
 20
10.38471
 30
0.0
 10
-1.6741
 20
10.38479
 30
0.0
 10
-1.67629
 20
10.38486
 30
0.0
  0
SPLINE
  5
89
330
1F
100
AcDbEntity
  8
0
370
    15
100
AcDbSpline
210
0.0
220
0.0
230
1.0
 70
     8
 71
     3
 72
     8
 73
     4
 74
     0
 42
0.0000000001
 43
0.0000000001
 40
0.0
 40
0.0
 40
0.0
 40
0.0
 40
1.0
 40
1.0
 40
1.0
 40
1.0
 10
-1.51885
 20
10.52457
 30
0.0
 10
-1.51884
 20
10.52801
 30
0.0
 10
-1.51883
 20
10.53145
 30
0.0
 10
-1.51884
 20
10.53489
 30
0.0
  0
SPLINE
  5
8A
330
1F
100
AcDbEntity
  8
0
370
    15
100
AcDbSpline
210
0.0
220
0.0
230
1.0
 70
     8
 71
     3
 72
    36
 73
    32
 74
     0
 42
0.0000000001
 43
0.0000000001
 40
0.0
 40
0.0
 40
0.0
 40
0.0
 40
0.1111111111111111
 40
0.1111111111111111
 40
0.1111111111111111
 40
0.1111111111111111
 40
0.2222222222222222
 40
0.2222222222222222
 40
0.2222222222222222
 40
0.2222222222222222
 40
0.3333333333333333
 40
0.3333333333333333
 40
0.3333333333333333
 40
0.3333333333333333
 40
0.4444444444444444
 40
0.4444444444444444
 40
0.4444444444444444
 40
0.4444444444444444
 40
0.5555555555555556
 40
0.5555555555555556
 40
0.5555555555555556
 40
0.5555555555555556
 40
0.6666666666666666
 40
0.6666666666666666
 40
0.6666666666666666
 40
0.6666666666666666
 40
0.7777777777777778
 40
0.7777777777777778
 40
0.7777777777777778
 40
0.7777777777777778
 40
1.0
 40
1.0
 40
1.0
 40
1.0
 10
-1.51885
 20
10.52457
 30
0.0
 10
-1.52833
 20
10.52457
 30
0.0
 10
-1.53766
 20
10.52368
 30
0.0
 10
-1.54684
 20
10.52193
 30
0.0
 10
-1.54684
 20
10.52193
 30
0.0
 10
-1.55602
 20
10.52019
 30
0.0
 10
-1.56513
 20
10.51756
 30
0.0
 10
-1.5739
 20
10.5141
 30
0.0
 10
-1.5739
 20
10.5141
 30
0.0
 10
-1.58267
 20
10.51064
 30
0.0
 10
-1.591
 20
10.50641
 30
0.0
 10
-1.59892
 20
10.50141
 30
0.0
 10
-1.59892
 20
10.50141
 30
0.0
 10
-1.60683
 20
10.49642
 30
0.0
 10
-1.61439
 20
10.49059
 30
0.0
 10
-1.62125
 20
10.48418
 30
0.0
 10
-1.62125
 20
10.48418
 30
0.0
 10
-1.6281
 20
10.47777
 30
0.0
 10
-1.6343
 20
10.47079
 30
0.0
 10
-1.63985
 20
10.46322
 30
0.0
 10
-1.63985
 20
10.46322
 30
0.0
 10
-1.6454
 20
10.45564
 30
0.0
 10
-1.65029
 20
10.44745
 30
0.0
 10
-1.65431
 20
10.439
 30
0.0
 10
-1.65431
 20
10.439
 30
0.0
 10
-1.65833
 20
10.43055
 30
0.0
 10
-1.66154
 20
10.42177
 30
0.0
 10
-1.66393
 20
10.41266
 30
0.0
 10
-1.66393
 20
10.41266
 30
0.0
 10
-1.66633
 20
10.40354
 30
0.0
 10
-1.66787
 20
10.39416
 30
0.0
 10
-1.66851
 20
10.38471
 30
0.0
  0
SPLINE
  5
8B
330
1F
100
AcDbEntity
  8
0
370
    15
100
AcDbSpline
210
0.0
220
0.0
230
1.0
 70
     8
 71
     3
 72
    12
 73
     8
 74
     0
 42
0.0000000001
 43
0.0000000001
 40
0.0
 40
0.0
 40
0.0
 40
0.0
 40
0.3333333333333333
 40
0.3333333333333333
 40
0.3333333333333333
 40
0.3333333333333333
 40
1.0
 40
1.0
 40
1.0
 40
1.0
 10
-1.66851
 20
10.38471
 30
0.0
 10
-1.66851
 20
10.38465
 30
0.0
 10
-1.66852
 20
10.3846
 30
0.0
 10
-1.66852
 20
10.38457
 30
0.0
 10
-1.66852
 20
10.38457
 30
0.0
 10
-1.66852
 20
10.38456
 30
0.0
 10
-1.66853
 20
10.38455
 30
0.0
 10
-1.66853
 20
10.38455
 30
0.0
  0
SPLINE
  5
8C
330
1F
100
AcDbEntity
  8
0
370
    15
100
AcDbSpline
210
0.0
220
0.0
230
1.0
 70
    24
 71
     3
 72
     8
 73
     4
 74
     0
 42
0.0000000001
 43
0.0000000001
 40
0.0
 40
0.0
 40
0.0
 40
0.0
 40
1.0
 40
1.0
 40
1.0
 40
1.0
 10
-2.06885
 20
9.27457
 30
0.0
 10
-2.06885
 20
9.27457
 30
0.0
 10
-2.06885
 20
10.77457
 30
0.0
 10
-2.06885
 20
10.77457
 30
0.0
  0
SPLINE
  5
8D
330
1F
100
AcDbEntity
  8
0
370
    15
100
AcDbSpline
210
0.0
220
0.0
230
1.0
 70
    24
 71
     3
 72
     8
 73
     4
 74
     0
 42
0.0000000001
 43
0.0000000001
 40
0.0
 40
0.0
 40
0.0
 40
0.0
 40
1.0
 40
1.0
 40
1.0
 40
1.0
 10
-2.06042
 20
9.27457
 30
0.0
 10
-2.06042
 20
9.27457
 30
0.0
 10
-2.06885
 20
9.27457
 30
0.0
 10
-2.06885
 20
9.27457
 30
0.0
  0
SPLINE
  5
8E
330
1F
100
AcDbEntity
  8
0
370
    15
100
AcDbSpline
210
0.0
220
0.0
230
1.0
 70
     8
 71
     3
 72
    16
 73
    12
 74
     0
 42
0.0000000001
 43
0.0000000001
 40
0.0
 40
0.0
 40
0.0
 40
0.0
 40
0.25
 40
0.25
 40
0.25
 40
0.25
 40
0.5
 40
0.5
 40
0.5
 40
0.5
 40
1.0
 40
1.0
 40
1.0
 40
1.0
 10
-1.66853
 20
10.38455
 30
0.0
 10
-1.6685
 20
10.29205
 30
0.0
 10
-1.6685
 20
10.19955
 30
0.0
 10
-1.6685
 20
10.10705
 30
0.0
 10
-1.6685
 20
10.10705
 30
0.0
 10
-1.6685
 20
10.01455
 30
0.0
 10
-1.6685
 20
9.92206
 30
0.0
 10
-1.6685
 20
9.82956
 30
0.0
 10
-1.6685
 20
9.82956
 30
0.0
 10
-1.6685
 20
9.64456
 30
0.0
 10
-1.6685
 20
9.45956
 30
0.0
 10
-1.6685
 20
9.27457
 30
0.0
  0
SPLINE
  5
8F
330
1F
100
AcDbEntity
  8
0
370
    15
100
AcDbSpline
210
0.0
220
0.0
230
1.0
 70
    24
 71
     3
 72
     8
 73
     4
 74
     0
 42
0.0000000001
 43
0.0000000001
 40
0.0
 40
0.0
 40
0.0
 40
0.0
 40
1.0
 40
1.0
 40
1.0
 40
1.0
 10
-1.6685
 20
9.27457
 30
0.0
 10
-1.66871
 20
9.27457
 30
0.0
 10
-1.67216
 20
9.27457
 30
0.0
 10
-1.67692
 20
9.27457
 30
0.0
  0
SPLINE
  5
90
330
1F
100
AcDbEntity
  8
0
370
    15
100
AcDbSpline
210
0.0
220
0.0
230
1.0
 70
    24
 71
     3
 72
     8
 73
     4
 74
     0
 42
0.0000000001
 43
0.0000000001
 40
0.0
 40
0.0
 40
0.0
 40
0.0
 40
1.0
 40
1.0
 40
1.0
 40
1.0
 10
-1.26885
 20
10.52457
 30
0.0
 10
-1.35218
 20
10.52457
 30
0.0
 10
-1.43552
 20
10.52457
 30
0.0
 10
-1.51885
 20
10.52457
 30
0.0
  0
SPLINE
  5
91
330
1F
100
AcDbEntity
  8
0
370
    15
100
AcDbSpline
210
0.0
220
0.0
230
1.0
 70
    24
 71
     3
 72
     8
 73
     4
 74
     0
 42
0.0000000001
 43
0.0000000001
 40
0.0
 40
0.0
 40
0.0
 40
0.0
 40
1.0
 40
1.0
 40
1.0
 40
1.0
 10
-1.51885
 20
11.32457
 30
0.0
 10
-1.43552
 20
11.32457
 30
0.0
 10
-1.35218
 20
11.32457
 30
0.0
 10
-1.26885
 20
11.32457
 30
0.0
  0
SPLINE
  5
92
330
1F
100
AcDbEntity
  8
0
370
    15
100
AcDbSpline
210
0.0
220
0.0
230
1.0
 70
    24
 71
     3
 72
     8
 73
     4
 74
     0
 42
0.0000000001
 43
0.0000000001
 40
0.0
 40
0.0
 40
0.0
 40
0.0
 40
1.0
 40
1.0
 40
1.0
 40
1.0
 10
-1.6685
 20
9.27457
 30
0.0
 10
-1.6685
 20
9.27457
 30
0.0
 10
-1.6348
 20
9.27457
 30
0.0
 10
-1.6348
 20
9.27457
 30
0.0
  0
SPLINE
  5
93
330
1F
100
AcDbEntity
  8
0
370
    15
100
AcDbSpline
210
0.0
220
0.0
230
1.0
 70
     8
 71
     3
 72
    36
 73
    32
 74
     0
 42
0.0000000001
 43
0.0000000001
 40
0.0
 40
0.0
 40
0.0
 40
0.0
 40
0.1111111111111111
 40
0.1111111111111111
 40
0.1111111111111111
 40
0.1111111111111111
 40
0.2222222222222222
 40
0.2222222222222222
 40
0.2222222222222222
 40
0.2222222222222222
 40
0.3333333333333333
 40
0.3333333333333333
 40
0.3333333333333333
 40
0.3333333333333333
 40
0.4444444444444444
 40
0.4444444444444444
 40
0.4444444444444444
 40
0.4444444444444444
 40
0.5555555555555556
 40
0.5555555555555556
 40
0.5555555555555556
 40
0.5555555555555556
 40
0.6666666666666666
 40
0.6666666666666666
 40
0.6666666666666666
 40
0.6666666666666666
 40
0.7777777777777778
 40
0.7777777777777778
 40
0.7777777777777778
 40
0.7777777777777778
 40
1.0
 40
1.0
 40
1.0
 40
1.0
 10
-2.03291
 20
10.97012
 30
0.0
 10
-2.03291
 20
10.97012
 30
0.0
 10
-2.03313
 20
10.97021
 30
0.0
 10
-2.03313
 20
10.97021
 30
0.0
 10
-2.03313
 20
10.97021
 30
0.0
 10
-2.03313
 20
10.97021
 30
0.0
 10
-2.0338
 20
10.97046
 30
0.0
 10
-2.0338
 20
10.97046
 30
0.0
 10
-2.0338
 20
10.97046
 30
0.0
 10
-2.0338
 20
10.97046
 30
0.0
 10
-2.03488
 20
10.97087
 30
0.0
 10
-2.03488
 20
10.97087
 30
0.0
 10
-2.03488
 20
10.97087
 30
0.0
 10
-2.03488
 20
10.97087
 30
0.0
 10
-2.03633
 20
10.97142
 30
0.0
 10
-2.03633
 20
10.97142
 30
0.0
 10
-2.03633
 20
10.97142
 30
0.0
 10
-2.03633
 20
10.97142
 30
0.0
 10
-2.0381
 20
10.9721
 30
0.0
 10
-2.0381
 20
10.9721
 30
0.0
 10
-2.0381
 20
10.9721
 30
0.0
 10
-2.0381
 20
10.9721
 30
0.0
 10
-2.04012
 20
10.97286
 30
0.0
 10
-2.04012
 20
10.97286
 30
0.0
 10
-2.04012
 20
10.97286
 30
0.0
 10
-2.04012
 20
10.97286
 30
0.0
 10
-2.04231
 20
10.9737
 30
0.0
 10
-2.04231
 20
10.9737
 30
0.0
 10
-2.04231
 20
10.9737
 30
0.0
 10
-2.04231
 20
10.9737
 30
0.0
 10
-2.04459
 20
10.97457
 30
0.0
 10
-2.04459
 20
10.97457
 30
0.0
  0
SPLINE
  5
94
330
1F
100
AcDbEntity
  8
0
370
    15
100
AcDbSpline
210
0.0
220
0.0
230
1.0
 70
     8
 71
     3
 72
    32
 73
    28
 74
     0
 42
0.0000000001
 43
0.0000000001
 40
0.0
 40
0.0
 40
0.0
 40
0.0
 40
0.125
 40
0.125
 40
0.125
 40
0.125
 40
0.25
 40
0.25
 40
0.25
 40
0.25
 40
0.375
 40
0.375
 40
0.375
 40
0.375
 40
0.5
 40
0.5
 40
0.5
 40
0.5
 40
0.625
 40
0.625
 40
0.625
 40
0.625
 40
0.75
 40
0.75
 40
0.75
 40
0.75
 40
1.0
 40
1.0
 40
1.0
 40
1.0
 10
-2.04459
 20
10.97457
 30
0.0
 10
-2.03637
 20
10.99451
 30
0.0
 10
-2.02711
 20
11.01329
 30
0.0
 10
-2.0171
 20
11.03093
 30
0.0
 10
-2.0171
 20
11.03093
 30
0.0
 10
-2.01209
 20
11.03976
 30
0.0
 10
-2.00702
 20
11.04807
 30
0.0
 10
-2.00194
 20
11.05593
 30
0.0
 10
-2.00194
 20
11.05593
 30
0.0
 10
-1.99686
 20
11.06379
 30
0.0
 10
-1.99174
 20
11.07124
 30
0.0
 10
-1.98677
 20
11.07812
 30
0.0
 10
-1.98677
 20
11.07812
 30
0.0
 10
-1.9818
 20
11.085
 30
0.0
 10
-1.97702
 20
11.09126
 30
0.0
 10
-1.97254
 20
11.09689
 30
0.0
 10
-1.97254
 20
11.09689
 30
0.0
 10
-1.96807
 20
11.10252
 30
0.0
 10
-1.96392
 20
11.10751
 30
0.0
 10
-1.96042
 20
11.1116
 30
0.0
 10
-1.96042
 20
11.1116
 30
0.0
 10
-1.95692
 20
11.1157
 30
0.0
 10
-1.95399
 20
11.119
 30
0.0
 10
-1.95201
 20
11.1212
 30
0.0
 10
-1.95201
 20
11.1212
 30
0.0
 10
-1.95003
 20
11.12341
 30
0.0
 10
-1.94897
 20
11.12457
 30
0.0
 10
-1.94897
 20
11.12457
 30
0.0
  0
SPLINE
  5
95
330
1F
100
AcDbEntity
  8
0
370
    15
100
AcDbSpline
210
0.0
220
0.0
230
1.0
 70
     8
 71
     3
 72
     8
 73
     4
 74
     0
 42
0.0000000001
 43
0.0000000001
 40
0.0
 40
0.0
 40
0.0
 40
0.0
 40
1.0
 40
1.0
 40
1.0
 40
1.0
 10
-1.94897
 20
11.12457
 30
0.0
 10
-1.94528
 20
11.12457
 30
0.0
 10
-1.94178
 20
11.12619
 30
0.0
 10
-1.93941
 20
11.12901
 30
0.0
  0
SPLINE
  5
96
330
1F
100
AcDbEntity
  8
0
370
    15
100
AcDbSpline
210
0.0
220
0.0
230
1.0
 70
    24
 71
     3
 72
     8
 73
     4
 74
     0
 42
0.0000000001
 43
0.0000000001
 40
0.0
 40
0.0
 40
0.0
 40
0.0
 40
1.0
 40
1.0
 40
1.0
 40
1.0
 10
-2.06885
 20
10.77457
 30
0.0
 10
-2.06885
 20
10.77457
 30
0.0
 10
-2.08135
 20
10.77457
 30
0.0
 10
-2.08135
 20
10.77457
 30
0.0
  0
SPLINE
  5
97
330
1F
100
AcDbEntity
  8
0
370
    15
100
AcDbSpline
210
0.0
220
0.0
230
1.0
 70
     8
 71
     3
 72
     8
 73
     4
 74
     0
 42
0.0000000001
 43
0.0000000001
 40
0.0
 40
0.0
 40
0.0
 40
0.0
 40
1.0
 40
1.0
 40
1.0
 40
1.0
 10
-2.04459
 20
10.97457
 30
0.0
 10
-2.06889
 20
10.91069
 30
0.0
 10
-2.08135
 20
10.84291
 30
0.0
 10
-2.08135
 20
10.77457
 30
0.0
  0
SPLINE
  5
98
330
1F
100
AcDbEntity
  8
0
370
    15
100
AcDbSpline
210
0.0
220
0.0
230
1.0
 70
    24
 71
     3
 72
     8
 73
     4
 74
     0
 42
0.0000000001
 43
0.0000000001
 40
0.0
 40
0.0
 40
0.0
 40
0.0
 40
1.0
 40
1.0
 40
1.0
 40
1.0
 10
-2.08135
 20
9.27457
 30
0.0
 10
-2.08135
 20
9.27457
 30
0.0
 10
-2.08135
 20
10.77457
 30
0.0
 10
-2.08135
 20
10.77457
 30
0.0
  0
SPLINE
  5
99
330
1F
100
AcDbEntity
  8
0
370
    15
100
AcDbSpline
210
0.0
220
0.0
230
1.0
 70
    24
 71
     3
 72
     8
 73
     4
 74
     0
 42
0.0000000001
 43
0.0000000001
 40
0.0
 40
0.0
 40
0.0
 40
0.0
 40
1.0
 40
1.0
 40
1.0
 40
1.0
 10
-2.06885
 20
9.27457
 30
0.0
 10
-2.06885
 20
9.27457
 30
0.0
 10
-2.08135
 20
9.27457
 30
0.0
 10
-2.08135
 20
9.27457
 30
0.0
  0
SPLINE
  5
9A
330
1F
100
AcDbEntity
  8
0
370
    15
100
AcDbSpline
210
0.0
220
0.0
230
1.0
 70
    24
 71
     3
 72
     8
 73
     4
 74
     0
 42
0.0000000001
 43
0.0000000001
 40
0.0
 40
0.0
 40
0.0
 40
0.0
 40
1.0
 40
1.0
 40
1.0
 40
1.0
 10
-2.14385
 20
11.12457
 30
0.0
 10
-2.14385
 20
11.12457
 30
0.0
 10
-2.14385
 20
10.97457
 30
0.0
 10
-2.14385
 20
10.97457
 30
0.0
  0
SPLINE
  5
9B
330
1F
100
AcDbEntity
  8
0
370
    15
100
AcDbSpline
210
0.0
220
0.0
230
1.0
 70
    24
 71
     3
 72
     8
 73
     4
 74
     0
 42
0.0000000001
 43
0.0000000001
 40
0.0
 40
0.0
 40
0.0
 40
0.0
 40
1.0
 40
1.0
 40
1.0
 40
1.0
 10
-2.14385
 20
11.12457
 30
0.0
 10
-2.14385
 20
11.12457
 30
0.0
 10
-1.94897
 20
11.12457
 30
0.0
 10
-1.94897
 20
11.12457
 30
0.0
  0
SPLINE
  5
9C
330
1F
100
AcDbEntity
  8
0
370
    15
100
AcDbSpline
210
0.0
220
0.0
230
1.0
 70
    24
 71
     3
 72
     8
 73
     4
 74
     0
 42
0.0000000001
 43
0.0000000001
 40
0.0
 40
0.0
 40
0.0
 40
0.0
 40
1.0
 40
1.0
 40
1.0
 40
1.0
 10
-2.04459
 20
10.97457
 30
0.0
 10
-2.04459
 20
10.97457
 30
0.0
 10
-2.14385
 20
10.97457
 30
0.0
 10
-2.14385
 20
10.97457
 30
0.0
  0
SPLINE
  5
9D
330
1F
100
AcDbEntity
  8
0
370
    15
100
AcDbSpline
210
0.0
220
0.0
230
1.0
 70
    24
 71
     3
 72
     8
 73
     4
 74
     0
 42
0.0000000001
 43
0.0000000001
 40
0.0
 40
0.0
 40
0.0
 40
0.0
 40
1.0
 40
1.0
 40
1.0
 40
1.0
 10
-2.14385
 20
10.97457
 30
0.0
 10
-2.14385
 20
10.97457
 30
0.0
 10
-2.14385
 20
9.27457
 30
0.0
 10
-2.14385
 20
9.27457
 30
0.0
  0
SPLINE
  5
9E
330
1F
100
AcDbEntity
  8
0
370
    15
100
AcDbSpline
210
0.0
220
0.0
230
1.0
 70
    24
 71
     3
 72
     8
 73
     4
 74
     0
 42
0.0000000001
 43
0.0000000001
 40
0.0
 40
0.0
 40
0.0
 40
0.0
 40
1.0
 40
1.0
 40
1.0
 40
1.0
 10
-2.14385
 20
9.27457
 30
0.0
 10
-2.14385
 20
9.27457
 30
0.0
 10
-2.08135
 20
9.27457
 30
0.0
 10
-2.08135
 20
9.27457
 30
0.0
  0
SPLINE
  5
9F
330
1F
100
AcDbEntity
  8
0
370
    15
100
AcDbSpline
210
0.0
220
0.0
230
1.0
 70
    24
 71
     3
 72
     8
 73
     4
 74
     0
 42
0.0000000001
 43
0.0000000001
 40
0.0
 40
0.0
 40
0.0
 40
0.0
 40
1.0
 40
1.0
 40
1.0
 40
1.0
 10
-2.16885
 20
9.27457
 30
0.0
 10
-2.16885
 20
9.27457
 30
0.0
 10
-2.16885
 20
10.97457
 30
0.0
 10
-2.16885
 20
10.97457
 30
0.0
  0
SPLINE
  5
A0
330
1F
100
AcDbEntity
  8
0
370
    15
100
AcDbSpline
210
0.0
220
0.0
230
1.0
 70
    24
 71
     3
 72
     8
 73
     4
 74
     0
 42
0.0000000001
 43
0.0000000001
 40
0.0
 40
0.0
 40
0.0
 40
0.0
 40
1.0
 40
1.0
 40
1.0
 40
1.0
 10
-2.14385
 20
10.97457
 30
0.0
 10
-2.14385
 20
10.97457
 30
0.0
 10
-2.16885
 20
10.97457
 30
0.0
 10
-2.16885
 20
10.97457
 30
0.0
  0
SPLINE
  5
A1
330
1F
100
AcDbEntity
  8
0
370
    15
100
AcDbSpline
210
0.0
220
0.0
230
1.0
 70
    24
 71
     3
 72
     8
 73
     4
 74
     0
 42
0.0000000001
 43
0.0000000001
 40
0.0
 40
0.0
 40
0.0
 40
0.0
 40
1.0
 40
1.0
 40
1.0
 40
1.0
 10
-2.14385
 20
9.27457
 30
0.0
 10
-2.14385
 20
9.27457
 30
0.0
 10
-2.16885
 20
9.27457
 30
0.0
 10
-2.16885
 20
9.27457
 30
0.0
  0
SPLINE
  5
A2
330
1F
100
AcDbEntity
  8
0
370
    15
100
AcDbSpline
210
0.0
220
0.0
230
1.0
 70
    24
 71
     3
 72
     8
 73
     4
 74
     0
 42
0.0000000001
 43
0.0000000001
 40
0.0
 40
0.0
 40
0.0
 40
0.0
 40
1.0
 40
1.0
 40
1.0
 40
1.0
 10
-2.16885
 20
10.97457
 30
0.0
 10
-2.16885
 20
10.97457
 30
0.0
 10
-2.16885
 20
11.09957
 30
0.0
 10
-2.16885
 20
11.09957
 30
0.0
  0
SPLINE
  5
A3
330
1F
100
AcDbEntity
  8
0
370
    15
100
AcDbSpline
210
0.0
220
0.0
230
1.0
 70
     8
 71
     3
 72
    12
 73
     8
 74
     0
 42
0.0000000001
 43
0.0000000001
 40
0.0
 40
0.0
 40
0.0
 40
0.0
 40
0.3333333333333333
 40
0.3333333333333333
 40
0.3333333333333333
 40
0.3333333333333333
 40
1.0
 40
1.0
 40
1.0
 40
1.0
 10
-2.14385
 20
11.12457
 30
0.0
 10
-2.15048
 20
11.12457
 30
0.0
 10
-2.15684
 20
11.12193
 30
0.0
 10
-2.16153
 20
11.11724
 30
0.0
 10
-2.16153
 20
11.11724
 30
0.0
 10
-2.16622
 20
11.11256
 30
0.0
 10
-2.16885
 20
11.1062
 30
0.0
 10
-2.16885
 20
11.09957
 30
0.0
  0
SPLINE
  5
A4
330
1F
100
AcDbEntity
  8
0
100
AcDbSpline
210
0.0
220
0.0
230
1.0
 70
    27
 71
     3
 72
    12
 73
     8
 74
     0
 42
0.0000000001
 43
0.0000000001
 40
0.0
 40
0.0
 40
0.0
 40
0.0
 40
0.3333333333333333
 40
0.3333333333333333
 40
0.3333333333333333
 40
0.3333333333333333
 40
1.0
 40
1.0
 40
1.0
 40
1.0
 10
-2.7612
 20
11.32457
 30
0.0
 10
-2.7612
 20
11.32457
 30
0.0
 10
-2.812
 20
11.65477
 30
0.0
 10
-2.812
 20
11.65477
 30
0.0
 10
-2.812
 20
11.65477
 30
0.0
 10
-2.812
 20
11.65477
 30
0.0
 10
-2.7612
 20
11.32457
 30
0.0
 10
-2.7612
 20
11.32457
 30
0.0
  0
SPLINE
  5
A5
330
1F
100
AcDbEntity
  8
0
100
AcDbSpline
210
0.0
220
0.0
230
1.0
 70
     8
 71
     3
 72
    12
 73
     8
 74
     0
 42
0.0000000001
 43
0.0000000001
 40
0.0
 40
0.0
 40
0.0
 40
0.0
 40
0.3333333333333333
 40
0.3333333333333333
 40
0.3333333333333333
 40
0.3333333333333333
 40
1.0
 40
1.0
 40
1.0
 40
1.0
 10
-2.812
 20
11.65477
 30
0.0
 10
-2.812
 20
11.65477
 30
0.0
 10
-2.7104
 20
11.65477
 30
0.0
 10
-2.7104
 20
11.65477
 30
0.0
 10
-2.7104
 20
11.65477
 30
0.0
 10
-2.7104
 20
11.65477
 30
0.0
 10
-2.7612
 20
11.32457
 30
0.0
 10
-2.7612
 20
11.32457
 30
0.0
  0
SPLINE
  5
A6
330
1F
100
AcDbEntity
  8
0
370
     9
100
AcDbSpline
210
0.0
220
0.0
230
1.0
 70
    24
 71
     3
 72
     8
 73
     4
 74
     0
 42
0.0000000001
 43
0.0000000001
 40
0.0
 40
0.0
 40
0.0
 40
0.0
 40
1.0
 40
1.0
 40
1.0
 40
1.0
 10
-2.7612
 20
11.32457
 30
0.0
 10
-2.7612
 20
11.32457
 30
0.0
 10
-2.812
 20
11.65477
 30
0.0
 10
-2.812
 20
11.65477
 30
0.0
  0
SPLINE
  5
A7
330
1F
100
AcDbEntity
  8
0
370
     9
100
AcDbSpline
210
0.0
220
0.0
230
1.0
 70
     8
 71
     3
 72
    12
 73
     8
 74
     0
 42
0.0000000001
 43
0.0000000001
 40
0.0
 40
0.0
 40
0.0
 40
0.0
 40
0.3333333333333333
 40
0.3333333333333333
 40
0.3333333333333333
 40
0.3333333333333333
 40
1.0
 40
1.0
 40
1.0
 40
1.0
 10
-2.812
 20
11.65477
 30
0.0
 10
-2.812
 20
11.65477
 30
0.0
 10
-2.7104
 20
11.65477
 30
0.0
 10
-2.7104
 20
11.65477
 30
0.0
 10
-2.7104
 20
11.65477
 30
0.0
 10
-2.7104
 20
11.65477
 30
0.0
 10
-2.7612
 20
11.32457
 30
0.0
 10
-2.7612
 20
11.32457
 30
0.0
  0
SPLINE
  5
A8
330
1F
100
AcDbEntity
  8
0
100
AcDbSpline
210
0.0
220
0.0
230
1.0
 70
    27
 71
     3
 72
    12
 73
     8
 74
     0
 42
0.0000000001
 43
0.0000000001
 40
0.0
 40
0.0
 40
0.0
 40
0.0
 40
0.3333333333333333
 40
0.3333333333333333
 40
0.3333333333333333
 40
0.3333333333333333
 40
1.0
 40
1.0
 40
1.0
 40
1.0
 10
-2.7612
 20
9.27457
 30
0.0
 10
-2.7612
 20
9.27457
 30
0.0
 10
-2.7104
 20
8.94437
 30
0.0
 10
-2.7104
 20
8.94437
 30
0.0
 10
-2.7104
 20
8.94437
 30
0.0
 10
-2.7104
 20
8.94437
 30
0.0
 10
-2.7612
 20
9.27457
 30
0.0
 10
-2.7612
 20
9.27457
 30
0.0
  0
SPLINE
  5
A9
330
1F
100
AcDbEntity
  8
0
100
AcDbSpline
210
0.0
220
0.0
230
1.0
 70
     8
 71
     3
 72
    12
 73
     8
 74
     0
 42
0.0000000001
 43
0.0000000001
 40
0.0
 40
0.0
 40
0.0
 40
0.0
 40
0.3333333333333333
 40
0.3333333333333333
 40
0.3333333333333333
 40
0.3333333333333333
 40
1.0
 40
1.0
 40
1.0
 40
1.0
 10
-2.7104
 20
8.94437
 30
0.0
 10
-2.7104
 20
8.94437
 30
0.0
 10
-2.812
 20
8.94437
 30
0.0
 10
-2.812
 20
8.94437
 30
0.0
 10
-2.812
 20
8.94437
 30
0.0
 10
-2.812
 20
8.94437
 30
0.0
 10
-2.7612
 20
9.27457
 30
0.0
 10
-2.7612
 20
9.27457
 30
0.0
  0
SPLINE
  5
AA
330
1F
100
AcDbEntity
  8
0
370
     9
100
AcDbSpline
210
0.0
220
0.0
230
1.0
 70
    24
 71
     3
 72
     8
 73
     4
 74
     0
 42
0.0000000001
 43
0.0000000001
 40
0.0
 40
0.0
 40
0.0
 40
0.0
 40
1.0
 40
1.0
 40
1.0
 40
1.0
 10
-2.7612
 20
9.27457
 30
0.0
 10
-2.7612
 20
9.27457
 30
0.0
 10
-2.7104
 20
8.94437
 30
0.0
 10
-2.7104
 20
8.94437
 30
0.0
  0
SPLINE
  5
AB
330
1F
100
AcDbEntity
  8
0
370
     9
100
AcDbSpline
210
0.0
220
0.0
230
1.0
 70
     8
 71
     3
 72
    12
 73
     8
 74
     0
 42
0.0000000001
 43
0.0000000001
 40
0.0
 40
0.0
 40
0.0
 40
0.0
 40
0.3333333333333333
 40
0.3333333333333333
 40
0.3333333333333333
 40
0.3333333333333333
 40
1.0
 40
1.0
 40
1.0
 40
1.0
 10
-2.7104
 20
8.94437
 30
0.0
 10
-2.7104
 20
8.94437
 30
0.0
 10
-2.812
 20
8.94437
 30
0.0
 10
-2.812
 20
8.94437
 30
0.0
 10
-2.812
 20
8.94437
 30
0.0
 10
-2.812
 20
8.94437
 30
0.0
 10
-2.7612
 20
9.27457
 30
0.0
 10
-2.7612
 20
9.27457
 30
0.0
  0
SPLINE
  5
AC
330
1F
100
AcDbEntity
  8
0
370
     9
100
AcDbSpline
210
0.0
220
0.0
230
1.0
 70
    24
 71
     3
 72
     8
 73
     4
 74
     0
 42
0.0000000001
 43
0.0000000001
 40
0.0
 40
0.0
 40
0.0
 40
0.0
 40
1.0
 40
1.0
 40
1.0
 40
1.0
 10
-1.36885
 20
11.32457
 30
0.0
 10
-1.36885
 20
11.32457
 30
0.0
 10
-2.8612
 20
11.32457
 30
0.0
 10
-2.8612
 20
11.32457
 30
0.0
  0
SPLINE
  5
AD
330
1F
100
AcDbEntity
  8
0
370
     9
100
AcDbSpline
210
0.0
220
0.0
230
1.0
 70
    24
 71
     3
 72
     8
 73
     4
 74
     0
 42
0.0000000001
 43
0.0000000001
 40
0.0
 40
0.0
 40
0.0
 40
0.0
 40
1.0
 40
1.0
 40
1.0
 40
1.0
 10
-2.26885
 20
9.27457
 30
0.0
 10
-2.26885
 20
9.27457
 30
0.0
 10
-2.8612
 20
9.27457
 30
0.0
 10
-2.8612
 20
9.27457
 30
0.0
  0
SPLINE
  5
AE
330
1F
100
AcDbEntity
  8
0
370
     9
100
AcDbSpline
210
0.0
220
0.0
230
1.0
 70
    24
 71
     3
 72
     8
 73
     4
 74
     0
 42
0.0000000001
 43
0.0000000001
 40
0.0
 40
0.0
 40
0.0
 40
0.0
 40
1.0
 40
1.0
 40
1.0
 40
1.0
 10
-2.7612
 20
11.32457
 30
0.0
 10
-2.7612
 20
11.32457
 30
0.0
 10
-2.7612
 20
11.95957
 30
0.0
 10
-2.7612
 20
11.95957
 30
0.0
  0
SPLINE
  5
AF
330
1F
100
AcDbEntity
  8
0
370
     9
100
AcDbSpline
210
0.0
220
0.0
230
1.0
 70
    24
 71
     3
 72
     8
 73
     4
 74
     0
 42
0.0000000001
 43
0.0000000001
 40
0.0
 40
0.0
 40
0.0
 40
0.0
 40
1.0
 40
1.0
 40
1.0
 40
1.0
 10
-2.7612
 20
11.32457
 30
0.0
 10
-2.7612
 20
11.32457
 30
0.0
 10
-2.7612
 20
9.27457
 30
0.0
 10
-2.7612
 20
9.27457
 30
0.0
  0
SPLINE
  5
B0
330
1F
100
AcDbEntity
  8
0
370
     9
100
AcDbSpline
210
0.0
220
0.0
230
1.0
 70
    24
 71
     3
 72
     8
 73
     4
 74
     0
 42
0.0000000001
 43
0.0000000001
 40
0.0
 40
0.0
 40
0.0
 40
0.0
 40
1.0
 40
1.0
 40
1.0
 40
1.0
 10
-2.7612
 20
9.27457
 30
0.0
 10
-2.7612
 20
9.27457
 30
0.0
 10
-2.7612
 20
8.63957
 30
0.0
 10
-2.7612
 20
8.63957
 30
0.0
  0
SPLINE
  5
B1
330
1F
100
AcDbEntity
  8
0
100
AcDbSpline
210
0.0
220
0.0
230
1.0
 70
    27
 71
     3
 72
    12
 73
     8
 74
     0
 42
0.0000000001
 43
0.0000000001
 40
0.0
 40
0.0
 40
0.0
 40
0.0
 40
0.3333333333333333
 40
0.3333333333333333
 40
0.3333333333333333
 40
0.3333333333333333
 40
1.0
 40
1.0
 40
1.0
 40
1.0
 10
3.51972
 20
11.32457
 30
0.0
 10
3.51972
 20
11.32457
 30
0.0
 10
3.46892
 20
11.65477
 30
0.0
 10
3.46892
 20
11.65477
 30
0.0
 10
3.46892
 20
11.65477
 30
0.0
 10
3.46892
 20
11.65477
 30
0.0
 10
3.51972
 20
11.32457
 30
0.0
 10
3.51972
 20
11.32457
 30
0.0
  0
SPLINE
  5
B2
330
1F
100
AcDbEntity
  8
0
100
AcDbSpline
210
0.0
220
0.0
230
1.0
 70
     8
 71
     3
 72
    12
 73
     8
 74
     0
 42
0.0000000001
 43
0.0000000001
 40
0.0
 40
0.0
 40
0.0
 40
0.0
 40
0.3333333333333333
 40
0.3333333333333333
 40
0.3333333333333333
 40
0.3333333333333333
 40
1.0
 40
1.0
 40
1.0
 40
1.0
 10
3.46892
 20
11.65477
 30
0.0
 10
3.46892
 20
11.65477
 30
0.0
 10
3.57052
 20
11.65477
 30
0.0
 10
3.57052
 20
11.65477
 30
0.0
 10
3.57052
 20
11.65477
 30
0.0
 10
3.57052
 20
11.65477
 30
0.0
 10
3.51972
 20
11.32457
 30
0.0
 10
3.51972
 20
11.32457
 30
0.0
  0
SPLINE
  5
B3
330
1F
100
AcDbEntity
  8
0
370
     9
100
AcDbSpline
210
0.0
220
0.0
230
1.0
 70
    24
 71
     3
 72
     8
 73
     4
 74
     0
 42
0.0000000001
 43
0.0000000001
 40
0.0
 40
0.0
 40
0.0
 40
0.0
 40
1.0
 40
1.0
 40
1.0
 40
1.0
 10
3.51972
 20
11.32457
 30
0.0
 10
3.51972
 20
11.32457
 30
0.0
 10
3.46892
 20
11.65477
 30
0.0
 10
3.46892
 20
11.65477
 30
0.0
  0
SPLINE
  5
B4
330
1F
100
AcDbEntity
  8
0
370
     9
100
AcDbSpline
210
0.0
220
0.0
230
1.0
 70
     8
 71
     3
 72
    12
 73
     8
 74
     0
 42
0.0000000001
 43
0.0000000001
 40
0.0
 40
0.0
 40
0.0
 40
0.0
 40
0.3333333333333333
 40
0.3333333333333333
 40
0.3333333333333333
 40
0.3333333333333333
 40
1.0
 40
1.0
 40
1.0
 40
1.0
 10
3.46892
 20
11.65477
 30
0.0
 10
3.46892
 20
11.65477
 30
0.0
 10
3.57052
 20
11.65477
 30
0.0
 10
3.57052
 20
11.65477
 30
0.0
 10
3.57052
 20
11.65477
 30
0.0
 10
3.57052
 20
11.65477
 30
0.0
 10
3.51972
 20
11.32457
 30
0.0
 10
3.51972
 20
11.32457
 30
0.0
  0
SPLINE
  5
B5
330
1F
100
AcDbEntity
  8
0
100
AcDbSpline
210
0.0
220
0.0
230
1.0
 70
    27
 71
     3
 72
    12
 73
     8
 74
     0
 42
0.0000000001
 43
0.0000000001
 40
0.0
 40
0.0
 40
0.0
 40
0.0
 40
0.3333333333333333
 40
0.3333333333333333
 40
0.3333333333333333
 40
0.3333333333333333
 40
1.0
 40
1.0
 40
1.0
 40
1.0
 10
3.51972
 20
10.52457
 30
0.0
 10
3.51972
 20
10.52457
 30
0.0
 10
3.57052
 20
10.19437
 30
0.0
 10
3.57052
 20
10.19437
 30
0.0
 10
3.57052
 20
10.19437
 30
0.0
 10
3.57052
 20
10.19437
 30
0.0
 10
3.51972
 20
10.52457
 30
0.0
 10
3.51972
 20
10.52457
 30
0.0
  0
SPLINE
  5
B6
330
1F
100
AcDbEntity
  8
0
100
AcDbSpline
210
0.0
220
0.0
230
1.0
 70
     8
 71
     3
 72
    12
 73
     8
 74
     0
 42
0.0000000001
 43
0.0000000001
 40
0.0
 40
0.0
 40
0.0
 40
0.0
 40
0.3333333333333333
 40
0.3333333333333333
 40
0.3333333333333333
 40
0.3333333333333333
 40
1.0
 40
1.0
 40
1.0
 40
1.0
 10
3.57052
 20
10.19437
 30
0.0
 10
3.57052
 20
10.19437
 30
0.0
 10
3.46892
 20
10.19437
 30
0.0
 10
3.46892
 20
10.19437
 30
0.0
 10
3.46892
 20
10.19437
 30
0.0
 10
3.46892
 20
10.19437
 30
0.0
 10
3.51972
 20
10.52457
 30
0.0
 10
3.51972
 20
10.52457
 30
0.0
  0
SPLINE
  5
B7
330
1F
100
AcDbEntity
  8
0
370
     9
100
AcDbSpline
210
0.0
220
0.0
230
1.0
 70
    24
 71
     3
 72
     8
 73
     4
 74
     0
 42
0.0000000001
 43
0.0000000001
 40
0.0
 40
0.0
 40
0.0
 40
0.0
 40
1.0
 40
1.0
 40
1.0
 40
1.0
 10
3.51972
 20
10.52457
 30
0.0
 10
3.51972
 20
10.52457
 30
0.0
 10
3.57052
 20
10.19437
 30
0.0
 10
3.57052
 20
10.19437
 30
0.0
  0
SPLINE
  5
B8
330
1F
100
AcDbEntity
  8
0
370
     9
100
AcDbSpline
210
0.0
220
0.0
230
1.0
 70
     8
 71
     3
 72
    12
 73
     8
 74
     0
 42
0.0000000001
 43
0.0000000001
 40
0.0
 40
0.0
 40
0.0
 40
0.0
 40
0.3333333333333333
 40
0.3333333333333333
 40
0.3333333333333333
 40
0.3333333333333333
 40
1.0
 40
1.0
 40
1.0
 40
1.0
 10
3.57052
 20
10.19437
 30
0.0
 10
3.57052
 20
10.19437
 30
0.0
 10
3.46892
 20
10.19437
 30
0.0
 10
3.46892
 20
10.19437
 30
0.0
 10
3.46892
 20
10.19437
 30
0.0
 10
3.46892
 20
10.19437
 30
0.0
 10
3.51972
 20
10.52457
 30
0.0
 10
3.51972
 20
10.52457
 30
0.0
  0
SPLINE
  5
B9
330
1F
100
AcDbEntity
  8
0
370
     9
100
AcDbSpline
210
0.0
220
0.0
230
1.0
 70
    24
 71
     3
 72
     8
 73
     4
 74
     0
 42
0.0000000001
 43
0.0000000001
 40
0.0
 40
0.0
 40
0.0
 40
0.0
 40
1.0
 40
1.0
 40
1.0
 40
1.0
 10
2.73115
 20
11.32457
 30
0.0
 10
2.73115
 20
11.32457
 30
0.0
 10
3.61972
 20
11.32457
 30
0.0
 10
3.61972
 20
11.32457
 30
0.0
  0
SPLINE
  5
BA
330
1F
100
AcDbEntity
  8
0
370
     9
100
AcDbSpline
210
0.0
220
0.0
230
1.0
 70
    24
 71
     3
 72
     8
 73
     4
 74
     0
 42
0.0000000001
 43
0.0000000001
 40
0.0
 40
0.0
 40
0.0
 40
0.0
 40
1.0
 40
1.0
 40
1.0
 40
1.0
 10
2.73115
 20
10.52457
 30
0.0
 10
2.73115
 20
10.52457
 30
0.0
 10
3.61972
 20
10.52457
 30
0.0
 10
3.61972
 20
10.52457
 30
0.0
  0
SPLINE
  5
BB
330
1F
100
AcDbEntity
  8
0
370
     9
100
AcDbSpline
210
0.0
220
0.0
230
1.0
 70
    24
 71
     3
 72
     8
 73
     4
 74
     0
 42
0.0000000001
 43
0.0000000001
 40
0.0
 40
0.0
 40
0.0
 40
0.0
 40
1.0
 40
1.0
 40
1.0
 40
1.0
 10
3.51972
 20
11.32457
 30
0.0
 10
3.51972
 20
11.32457
 30
0.0
 10
3.51972
 20
11.95957
 30
0.0
 10
3.51972
 20
11.95957
 30
0.0
  0
SPLINE
  5
BC
330
1F
100
AcDbEntity
  8
0
370
     9
100
AcDbSpline
210
0.0
220
0.0
230
1.0
 70
    24
 71
     3
 72
     8
 73
     4
 74
     0
 42
0.0000000001
 43
0.0000000001
 40
0.0
 40
0.0
 40
0.0
 40
0.0
 40
1.0
 40
1.0
 40
1.0
 40
1.0
 10
3.51972
 20
11.32457
 30
0.0
 10
3.51972
 20
11.32457
 30
0.0
 10
3.51972
 20
10.52457
 30
0.0
 10
3.51972
 20
10.52457
 30
0.0
  0
SPLINE
  5
BD
330
1F
100
AcDbEntity
  8
0
370
     9
100
AcDbSpline
210
0.0
220
0.0
230
1.0
 70
    24
 71
     3
 72
     8
 73
     4
 74
     0
 42
0.0000000001
 43
0.0000000001
 40
0.0
 40
0.0
 40
0.0
 40
0.0
 40
1.0
 40
1.0
 40
1.0
 40
1.0
 10
3.51972
 20
10.52457
 30
0.0
 10
3.51972
 20
10.52457
 30
0.0
 10
3.51972
 20
9.88957
 30
0.0
 10
3.51972
 20
9.88957
 30
0.0
  0
SPLINE
  5
BE
330
1F
100
AcDbEntity
  8
0
370
    15
100
AcDbSpline
210
0.0
220
0.0
230
1.0
 70
    24
 71
     3
 72
     8
 73
     4
 74
     0
 42
0.0000000001
 43
0.0000000001
 40
0.0
 40
0.0
 40
0.0
 40
0.0
 40
1.0
 40
1.0
 40
1.0
 40
1.0
 10
-9.88099
 20
3.17347
 30
0.0
 10
-9.88099
 20
3.17347
 30
0.0
 10
-9.88099
 20
3.37347
 30
0.0
 10
-9.88099
 20
3.37347
 30
0.0
  0
SPLINE
  5
BF
330
1F
100
AcDbEntity
  8
0
370
    15
100
AcDbSpline
210
0.0
220
0.0
230
1.0
 70
    24
 71
     3
 72
     8
 73
     4
 74
     0
 42
0.0000000001
 43
0.0000000001
 40
0.0
 40
0.0
 40
0.0
 40
0.0
 40
1.0
 40
1.0
 40
1.0
 40
1.0
 10
-13.25054
 20
3.17347
 30
0.0
 10
-13.25054
 20
3.17347
 30
0.0
 10
-13.25054
 20
3.07347
 30
0.0
 10
-13.25054
 20
3.07347
 30
0.0
  0
SPLINE
  5
C0
330
1F
100
AcDbEntity
  8
0
370
    15
100
AcDbSpline
210
0.0
220
0.0
230
1.0
 70
    24
 71
     3
 72
     8
 73
     4
 74
     0
 42
0.0000000001
 43
0.0000000001
 40
0.0
 40
0.0
 40
0.0
 40
0.0
 40
1.0
 40
1.0
 40
1.0
 40
1.0
 10
-9.88044
 20
3.07347
 30
0.0
 10
-9.88044
 20
3.07347
 30
0.0
 10
-9.88044
 20
3.17347
 30
0.0
 10
-9.88044
 20
3.17347
 30
0.0
  0
SPLINE
  5
C1
330
1F
100
AcDbEntity
  8
0
370
    15
100
AcDbSpline
210
0.0
220
0.0
230
1.0
 70
    24
 71
     3
 72
     8
 73
     4
 74
     0
 42
0.0000000001
 43
0.0000000001
 40
0.0
 40
0.0
 40
0.0
 40
0.0
 40
1.0
 40
1.0
 40
1.0
 40
1.0
 10
-12.0188
 20
3.07285
 30
0.0
 10
-12.0188
 20
3.07285
 30
0.0
 10
-12.0188
 20
3.07347
 30
0.0
 10
-12.0188
 20
3.07347
 30
0.0
  0
SPLINE
  5
C2
330
1F
100
AcDbEntity
  8
0
370
    15
100
AcDbSpline
210
0.0
220
0.0
230
1.0
 70
     8
 71
     3
 72
    44
 73
    40
 74
     0
 42
0.0000000001
 43
0.0000000001
 40
0.0
 40
0.0
 40
0.0
 40
0.0
 40
0.0909090909090909
 40
0.0909090909090909
 40
0.0909090909090909
 40
0.0909090909090909
 40
0.1818181818181818
 40
0.1818181818181818
 40
0.1818181818181818
 40
0.1818181818181818
 40
0.2727272727272727
 40
0.2727272727272727
 40
0.2727272727272727
 40
0.2727272727272727
 40
0.3636363636363636
 40
0.3636363636363636
 40
0.3636363636363636
 40
0.3636363636363636
 40
0.4545454545454545
 40
0.4545454545454545
 40
0.4545454545454545
 40
0.4545454545454545
 40
0.5454545454545454
 40
0.5454545454545454
 40
0.5454545454545454
 40
0.5454545454545454
 40
0.6363636363636364
 40
0.6363636363636364
 40
0.6363636363636364
 40
0.6363636363636364
 40
0.7272727272727273
 40
0.7272727272727273
 40
0.7272727272727273
 40
0.7272727272727273
 40
0.8181818181818182
 40
0.8181818181818182
 40
0.8181818181818182
 40
0.8181818181818182
 40
1.0
 40
1.0
 40
1.0
 40
1.0
 10
-13.24809
 20
3.90378
 30
0.0
 10
-13.24818
 20
3.90415
 30
0.0
 10
-13.24828
 20
3.90453
 30
0.0
 10
-13.24836
 20
3.90478
 30
0.0
 10
-13.24836
 20
3.90478
 30
0.0
 10
-13.24886
 20
3.90627
 30
0.0
 10
-13.24904
 20
3.90349
 30
0.0
 10
-13.24924
 20
3.89893
 30
0.0
 10
-13.24924
 20
3.89893
 30
0.0
 10
-13.24944
 20
3.8943
 30
0.0
 10
-13.24965
 20
3.88783
 30
0.0
 10
-13.24981
 20
3.8775
 30
0.0
 10
-13.24981
 20
3.8775
 30
0.0
 10
-13.24998
 20
3.86694
 30
0.0
 10
-13.25008
 20
3.85236
 30
0.0
 10
-13.25016
 20
3.83477
 30
0.0
 10
-13.25016
 20
3.83477
 30
0.0
 10
-13.25025
 20
3.81658
 30
0.0
 10
-13.25031
 20
3.79518
 30
0.0
 10
-13.25035
 20
3.77135
 30
0.0
 10
-13.25035
 20
3.77135
 30
0.0
 10
-13.25038
 20
3.75898
 30
0.0
 10
-13.25039
 20
3.74595
 30
0.0
 10
-13.25041
 20
3.7324
 30
0.0
 10
-13.25041
 20
3.7324
 30
0.0
 10
-13.25042
 20
3.7184
 30
0.0
 10
-13.25043
 20
3.70383
 30
0.0
 10
-13.25044
 20
3.6891
 30
0.0
 10
-13.25044
 20
3.6891
 30
0.0
 10
-13.25046
 20
3.65761
 30
0.0
 10
-13.25047
 20
3.62533
 30
0.0
 10
-13.25048
 20
3.59291
 30
0.0
 10
-13.25048
 20
3.59291
 30
0.0
 10
-13.25048
 20
3.5576
 30
0.0
 10
-13.25048
 20
3.52213
 30
0.0
 10
-13.25049
 20
3.48668
 30
0.0
 10
-13.25049
 20
3.48668
 30
0.0
 10
-13.25049
 20
3.44893
 30
0.0
 10
-13.25049
 20
3.4112
 30
0.0
 10
-13.25049
 20
3.37347
 30
0.0
  0
SPLINE
  5
C3
330
1F
100
AcDbEntity
  8
0
370
    15
100
AcDbSpline
210
0.0
220
0.0
230
1.0
 70
     8
 71
     3
 72
    84
 73
    80
 74
     0
 42
0.0000000001
 43
0.0000000001
 40
0.0
 40
0.0
 40
0.0
 40
0.0
 40
0.0476190476190476
 40
0.0476190476190476
 40
0.0476190476190476
 40
0.0476190476190476
 40
0.0952380952380952
 40
0.0952380952380952
 40
0.0952380952380952
 40
0.0952380952380952
 40
0.1428571428571428
 40
0.1428571428571428
 40
0.1428571428571428
 40
0.1428571428571428
 40
0.1904761904761905
 40
0.1904761904761905
 40
0.1904761904761905
 40
0.1904761904761905
 40
0.2380952380952381
 40
0.2380952380952381
 40
0.2380952380952381
 40
0.2380952380952381
 40
0.2857142857142857
 40
0.2857142857142857
 40
0.2857142857142857
 40
0.2857142857142857
 40
0.3333333333333333
 40
0.3333333333333333
 40
0.3333333333333333
 40
0.3333333333333333
 40
0.3809523809523809
 40
0.3809523809523809
 40
0.3809523809523809
 40
0.3809523809523809
 40
0.4285714285714285
 40
0.4285714285714285
 40
0.4285714285714285
 40
0.4285714285714285
 40
0.4761904761904762
 40
0.4761904761904762
 40
0.4761904761904762
 40
0.4761904761904762
 40
0.5238095238095238
 40
0.5238095238095238
 40
0.5238095238095238
 40
0.5238095238095238
 40
0.5714285714285714
 40
0.5714285714285714
 40
0.5714285714285714
 40
0.5714285714285714
 40
0.6190476190476191
 40
0.6190476190476191
 40
0.6190476190476191
 40
0.6190476190476191
 40
0.6666666666666666
 40
0.6666666666666666
 40
0.6666666666666666
 40
0.6666666666666666
 40
0.7142857142857143
 40
0.7142857142857143
 40
0.7142857142857143
 40
0.7142857142857143
 40
0.7619047619047619
 40
0.7619047619047619
 40
0.7619047619047619
 40
0.7619047619047619
 40
0.8095238095238095
 40
0.8095238095238095
 40
0.8095238095238095
 40
0.8095238095238095
 40
0.8571428571428571
 40
0.8571428571428571
 40
0.8571428571428571
 40
0.8571428571428571
 40
0.9047619047619048
 40
0.9047619047619048
 40
0.9047619047619048
 40
0.9047619047619048
 40
1.0
 40
1.0
 40
1.0
 40
1.0
 10
-9.88099
 20
3.37347
 30
0.0
 10
-9.88099
 20
3.4085
 30
0.0
 10
-9.88099
 20
3.44352
 30
0.0
 10
-9.881
 20
3.47855
 30
0.0
 10
-9.881
 20
3.47855
 30
0.0
 10
-9.881
 20
3.51134
 30
0.0
 10
-9.881
 20
3.54414
 30
0.0
 10
-9.881
 20
3.57692
 30
0.0
 10
-9.881
 20
3.57692
 30
0.0
 10
-9.88101
 20
3.60698
 30
0.0
 10
-9.88101
 20
3.63703
 30
0.0
 10
-9.88101
 20
3.667
 30
0.0
 10
-9.88101
 20
3.667
 30
0.0
 10
-9.88102
 20
3.69394
 30
0.0
 10
-9.88102
 20
3.72083
 30
0.0
 10
-9.88102
 20
3.74666
 30
0.0
 10
-9.88102
 20
3.74666
 30
0.0
 10
-9.88103
 20
3.76978
 30
0.0
 10
-9.88103
 20
3.79207
 30
0.0
 10
-9.88104
 20
3.81288
 30
0.0
 10
-9.88104
 20
3.81288
 30
0.0
 10
-9.88104
 20
3.83155
 30
0.0
 10
-9.88104
 20
3.84903
 30
0.0
 10
-9.88105
 20
3.86502
 30
0.0
 10
-9.88105
 20
3.86502
 30
0.0
 10
-9.88106
 20
3.87924
 30
0.0
 10
-9.88106
 20
3.89227
 30
0.0
 10
-9.88107
 20
3.90375
 30
0.0
 10
-9.88107
 20
3.90375
 30
0.0
 10
-9.88108
 20
3.91385
 30
0.0
 10
-9.88109
 20
3.92274
 30
0.0
 10
-9.8811
 20
3.93055
 30
0.0
 10
-9.8811
 20
3.93055
 30
0.0
 10
-9.88112
 20
3.94326
 30
0.0
 10
-9.88114
 20
3.95309
 30
0.0
 10
-9.88119
 20
3.96254
 30
0.0
 10
-9.88119
 20
3.96254
 30
0.0
 10
-9.88122
 20
3.96914
 30
0.0
 10
-9.88126
 20
3.97555
 30
0.0
 10
-9.88134
 20
3.98164
 30
0.0
 10
-9.88134
 20
3.98164
 30
0.0
 10
-9.8814
 20
3.98668
 30
0.0
 10
-9.88149
 20
3.99151
 30
0.0
 10
-9.88157
 20
3.99499
 30
0.0
 10
-9.88157
 20
3.99499
 30
0.0
 10
-9.88168
 20
3.99979
 30
0.0
 10
-9.88177
 20
4.00204
 30
0.0
 10
-9.88186
 20
4.00391
 30
0.0
 10
-9.88186
 20
4.00391
 30
0.0
 10
-9.88197
 20
4.00634
 30
0.0
 10
-9.88209
 20
4.00815
 30
0.0
 10
-9.8822
 20
4.00987
 30
0.0
 10
-9.8822
 20
4.00987
 30
0.0
 10
-9.88234
 20
4.01197
 30
0.0
 10
-9.88247
 20
4.01393
 30
0.0
 10
-9.8826
 20
4.01572
 30
0.0
 10
-9.8826
 20
4.01572
 30
0.0
 10
-9.88275
 20
4.01784
 30
0.0
 10
-9.8829
 20
4.01972
 30
0.0
 10
-9.88305
 20
4.02148
 30
0.0
 10
-9.88305
 20
4.02148
 30
0.0
 10
-9.88321
 20
4.02351
 30
0.0
 10
-9.88338
 20
4.02539
 30
0.0
 10
-9.88354
 20
4.02714
 30
0.0
 10
-9.88354
 20
4.02714
 30
0.0
 10
-9.88372
 20
4.02913
 30
0.0
 10
-9.8839
 20
4.03097
 30
0.0
 10
-9.88408
 20
4.0327
 30
0.0
 10
-9.88408
 20
4.0327
 30
0.0
 10
-9.88428
 20
4.03465
 30
0.0
 10
-9.88447
 20
4.03646
 30
0.0
 10
-9.88466
 20
4.03817
 30
0.0
 10
-9.88466
 20
4.03817
 30
0.0
 10
-9.88487
 20
4.04008
 30
0.0
 10
-9.88507
 20
4.04187
 30
0.0
 10
-9.88527
 20
4.04355
 30
0.0
 10
-9.88527
 20
4.04355
 30
0.0
 10
-9.88549
 20
4.0454
 30
0.0
 10
-9.88571
 20
4.04711
 30
0.0
 10
-9.88592
 20
4.04883
 30
0.0
  0
SPLINE
  5
C4
330
1F
100
AcDbEntity
  8
0
370
    15
100
AcDbSpline
210
0.0
220
0.0
230
1.0
 70
     8
 71
     3
 72
     8
 73
     4
 74
     0
 42
0.0000000001
 43
0.0000000001
 40
0.0
 40
0.0
 40
0.0
 40
0.0
 40
1.0
 40
1.0
 40
1.0
 40
1.0
 10
-13.20711
 20
4.17346
 30
0.0
 10
-13.2123
 20
4.17325
 30
0.0
 10
-13.21681
 20
4.16985
 30
0.0
 10
-13.21846
 20
4.16492
 30
0.0
  0
SPLINE
  5
C5
330
1F
100
AcDbEntity
  8
0
370
    15
100
AcDbSpline
210
0.0
220
0.0
230
1.0
 70
     8
 71
     3
 72
     8
 73
     4
 74
     0
 42
0.0000000001
 43
0.0000000001
 40
0.0
 40
0.0
 40
0.0
 40
0.0
 40
1.0
 40
1.0
 40
1.0
 40
1.0
 10
-9.91255
 20
4.16488
 30
0.0
 10
-9.91415
 20
4.16975
 30
0.0
 10
-9.91857
 20
4.17315
 30
0.0
 10
-9.92369
 20
4.17345
 30
0.0
  0
SPLINE
  5
C6
330
1F
100
AcDbEntity
  8
0
370
    15
100
AcDbSpline
210
0.0
220
0.0
230
1.0
 70
    24
 71
     3
 72
     8
 73
     4
 74
     0
 42
0.0000000001
 43
0.0000000001
 40
0.0
 40
0.0
 40
0.0
 40
0.0
 40
1.0
 40
1.0
 40
1.0
 40
1.0
 10
-12.83945
 20
4.27847
 30
0.0
 10
-12.83945
 20
4.27847
 30
0.0
 10
-12.85299
 20
4.27847
 30
0.0
 10
-12.85299
 20
4.27847
 30
0.0
  0
SPLINE
  5
C7
330
1F
100
AcDbEntity
  8
0
370
    15
100
AcDbSpline
210
0.0
220
0.0
230
1.0
 70
    24
 71
     3
 72
     8
 73
     4
 74
     0
 42
0.0000000001
 43
0.0000000001
 40
0.0
 40
0.0
 40
0.0
 40
0.0
 40
1.0
 40
1.0
 40
1.0
 40
1.0
 10
-12.83945
 20
4.27847
 30
0.0
 10
-12.83945
 20
4.27847
 30
0.0
 10
-12.83945
 20
4.27347
 30
0.0
 10
-12.83945
 20
4.27347
 30
0.0
  0
SPLINE
  5
C8
330
1F
100
AcDbEntity
  8
0
370
    15
100
AcDbSpline
210
0.0
220
0.0
230
1.0
 70
    24
 71
     3
 72
     8
 73
     4
 74
     0
 42
0.0000000001
 43
0.0000000001
 40
0.0
 40
0.0
 40
0.0
 40
0.0
 40
1.0
 40
1.0
 40
1.0
 40
1.0
 10
-12.85299
 20
4.27847
 30
0.0
 10
-12.85299
 20
4.27847
 30
0.0
 10
-12.85299
 20
4.27347
 30
0.0
 10
-12.85299
 20
4.27347
 30
0.0
  0
SPLINE
  5
C9
330
1F
100
AcDbEntity
  8
0
370
    15
100
AcDbSpline
210
0.0
220
0.0
230
1.0
 70
    24
 71
     3
 72
     8
 73
     4
 74
     0
 42
0.0000000001
 43
0.0000000001
 40
0.0
 40
0.0
 40
0.0
 40
0.0
 40
1.0
 40
1.0
 40
1.0
 40
1.0
 10
-10.29152
 20
4.27847
 30
0.0
 10
-10.29152
 20
4.27847
 30
0.0
 10
-12.83945
 20
4.27847
 30
0.0
 10
-12.83945
 20
4.27847
 30
0.0
  0
SPLINE
  5
CA
330
1F
100
AcDbEntity
  8
0
370
    15
100
AcDbSpline
210
0.0
220
0.0
230
1.0
 70
    24
 71
     3
 72
     8
 73
     4
 74
     0
 42
0.0000000001
 43
0.0000000001
 40
0.0
 40
0.0
 40
0.0
 40
0.0
 40
1.0
 40
1.0
 40
1.0
 40
1.0
 10
-10.29152
 20
4.27347
 30
0.0
 10
-10.29152
 20
4.27347
 30
0.0
 10
-10.29152
 20
4.27847
 30
0.0
 10
-10.29152
 20
4.27847
 30
0.0
  0
SPLINE
  5
CB
330
1F
100
AcDbEntity
  8
0
370
    15
100
AcDbSpline
210
0.0
220
0.0
230
1.0
 70
    24
 71
     3
 72
     8
 73
     4
 74
     0
 42
0.0000000001
 43
0.0000000001
 40
0.0
 40
0.0
 40
0.0
 40
0.0
 40
1.0
 40
1.0
 40
1.0
 40
1.0
 10
-10.29152
 20
4.27847
 30
0.0
 10
-10.29152
 20
4.27847
 30
0.0
 10
-10.27799
 20
4.27847
 30
0.0
 10
-10.27799
 20
4.27847
 30
0.0
  0
SPLINE
  5
CC
330
1F
100
AcDbEntity
  8
0
370
    15
100
AcDbSpline
210
0.0
220
0.0
230
1.0
 70
    24
 71
     3
 72
     8
 73
     4
 74
     0
 42
0.0000000001
 43
0.0000000001
 40
0.0
 40
0.0
 40
0.0
 40
0.0
 40
1.0
 40
1.0
 40
1.0
 40
1.0
 10
-10.27799
 20
4.27347
 30
0.0
 10
-10.27799
 20
4.27347
 30
0.0
 10
-10.27799
 20
4.27847
 30
0.0
 10
-10.27799
 20
4.27847
 30
0.0
  0
SPLINE
  5
CD
330
1F
100
AcDbEntity
  8
0
370
    15
100
AcDbSpline
210
0.0
220
0.0
230
1.0
 70
    24
 71
     3
 72
     8
 73
     4
 74
     0
 42
0.0000000001
 43
0.0000000001
 40
0.0
 40
0.0
 40
0.0
 40
0.0
 40
1.0
 40
1.0
 40
1.0
 40
1.0
 10
-9.91195
 20
3.37347
 30
0.0
 10
-9.91195
 20
3.37347
 30
0.0
 10
-9.91195
 20
3.17347
 30
0.0
 10
-9.91195
 20
3.17347
 30
0.0
  0
SPLINE
  5
CE
330
1F
100
AcDbEntity
  8
0
370
    15
100
AcDbSpline
210
0.0
220
0.0
230
1.0
 70
    24
 71
     3
 72
     8
 73
     4
 74
     0
 42
0.0000000001
 43
0.0000000001
 40
0.0
 40
0.0
 40
0.0
 40
0.0
 40
1.0
 40
1.0
 40
1.0
 40
1.0
 10
-9.93662
 20
3.17347
 30
0.0
 10
-9.93662
 20
3.17347
 30
0.0
 10
-9.93662
 20
3.37347
 30
0.0
 10
-9.93662
 20
3.37347
 30
0.0
  0
SPLINE
  5
CF
330
1F
100
AcDbEntity
  8
0
370
    15
100
AcDbSpline
210
0.0
220
0.0
230
1.0
 70
     8
 71
     3
 72
    12
 73
     8
 74
     0
 42
0.0000000001
 43
0.0000000001
 40
0.0
 40
0.0
 40
0.0
 40
0.0
 40
0.3333333333333333
 40
0.3333333333333333
 40
0.3333333333333333
 40
0.3333333333333333
 40
1.0
 40
1.0
 40
1.0
 40
1.0
 10
-16.06549
 20
3.17347
 30
0.0
 10
-16.14505
 20
3.17347
 30
0.0
 10
-16.22136
 20
3.14186
 30
0.0
 10
-16.27762
 20
3.0856
 30
0.0
 10
-16.27762
 20
3.0856
 30
0.0
 10
-16.33388
 20
3.02934
 30
0.0
 10
-16.36549
 20
2.95304
 30
0.0
 10
-16.36549
 20
2.87347
 30
0.0
  0
SPLINE
  5
D0
330
1F
100
AcDbEntity
  8
0
370
    15
100
AcDbSpline
210
0.0
220
0.0
230
1.0
 70
    24
 71
     3
 72
     8
 73
     4
 74
     0
 42
0.0000000001
 43
0.0000000001
 40
0.0
 40
0.0
 40
0.0
 40
0.0
 40
1.0
 40
1.0
 40
1.0
 40
1.0
 10
-16.36549
 20
-0.02653
 30
0.0
 10
-16.36549
 20
-0.02653
 30
0.0
 10
-16.36549
 20
2.87347
 30
0.0
 10
-16.36549
 20
2.87347
 30
0.0
  0
SPLINE
  5
D1
330
1F
100
AcDbEntity
  8
0
370
    15
100
AcDbSpline
210
0.0
220
0.0
230
1.0
 70
     8
 71
     3
 72
    12
 73
     8
 74
     0
 42
0.0000000001
 43
0.0000000001
 40
0.0
 40
0.0
 40
0.0
 40
0.0
 40
0.3333333333333333
 40
0.3333333333333333
 40
0.3333333333333333
 40
0.3333333333333333
 40
1.0
 40
1.0
 40
1.0
 40
1.0
 10
-16.36549
 20
-0.02653
 30
0.0
 10
-16.36549
 20
-0.10609
 30
0.0
 10
-16.33388
 20
-0.1824
 30
0.0
 10
-16.27762
 20
-0.23866
 30
0.0
 10
-16.27762
 20
-0.23866
 30
0.0
 10
-16.22136
 20
-0.29492
 30
0.0
 10
-16.14505
 20
-0.32653
 30
0.0
 10
-16.06549
 20
-0.32653
 30
0.0
  0
SPLINE
  5
D2
330
1F
100
AcDbEntity
  8
0
370
    15
100
AcDbSpline
210
0.0
220
0.0
230
1.0
 70
    24
 71
     3
 72
     8
 73
     4
 74
     0
 42
0.0000000001
 43
0.0000000001
 40
0.0
 40
0.0
 40
0.0
 40
0.0
 40
1.0
 40
1.0
 40
1.0
 40
1.0
 10
-4.71549
 20
-0.32653
 30
0.0
 10
-4.71549
 20
-0.32653
 30
0.0
 10
-16.06549
 20
-0.32653
 30
0.0
 10
-16.06549
 20
-0.32653
 30
0.0
  0
SPLINE
  5
D3
330
1F
100
AcDbEntity
  8
0
370
    15
100
AcDbSpline
210
0.0
220
0.0
230
1.0
 70
    24
 71
     3
 72
     8
 73
     4
 74
     0
 42
0.0000000001
 43
0.0000000001
 40
0.0
 40
0.0
 40
0.0
 40
0.0
 40
1.0
 40
1.0
 40
1.0
 40
1.0
 10
-4.71549
 20
-0.52653
 30
0.0
 10
-4.71549
 20
-0.52653
 30
0.0
 10
-4.71549
 20
-0.32653
 30
0.0
 10
-4.71549
 20
-0.32653
 30
0.0
  0
SPLINE
  5
D4
330
1F
100
AcDbEntity
  8
0
370
    15
100
AcDbSpline
210
0.0
220
0.0
230
1.0
 70
    24
 71
     3
 72
     8
 73
     4
 74
     0
 42
0.0000000001
 43
0.0000000001
 40
0.0
 40
0.0
 40
0.0
 40
0.0
 40
1.0
 40
1.0
 40
1.0
 40
1.0
 10
-16.06549
 20
-0.52653
 30
0.0
 10
-16.06549
 20
-0.52653
 30
0.0
 10
-4.71549
 20
-0.52653
 30
0.0
 10
-4.71549
 20
-0.52653
 30
0.0
  0
SPLINE
  5
D5
330
1F
100
AcDbEntity
  8
0
370
    15
100
AcDbSpline
210
0.0
220
0.0
230
1.0
 70
     8
 71
     3
 72
    12
 73
     8
 74
     0
 42
0.0000000001
 43
0.0000000001
 40
0.0
 40
0.0
 40
0.0
 40
0.0
 40
0.3333333333333333
 40
0.3333333333333333
 40
0.3333333333333333
 40
0.3333333333333333
 40
1.0
 40
1.0
 40
1.0
 40
1.0
 10
-16.56549
 20
-0.02653
 30
0.0
 10
-16.56549
 20
-0.15914
 30
0.0
 10
-16.51281
 20
-0.28631
 30
0.0
 10
-16.41904
 20
-0.38008
 30
0.0
 10
-16.41904
 20
-0.38008
 30
0.0
 10
-16.32527
 20
-0.47385
 30
0.0
 10
-16.19809
 20
-0.52653
 30
0.0
 10
-16.06549
 20
-0.52653
 30
0.0
  0
SPLINE
  5
D6
330
1F
100
AcDbEntity
  8
0
370
    15
100
AcDbSpline
210
0.0
220
0.0
230
1.0
 70
    24
 71
     3
 72
     8
 73
     4
 74
     0
 42
0.0000000001
 43
0.0000000001
 40
0.0
 40
0.0
 40
0.0
 40
0.0
 40
1.0
 40
1.0
 40
1.0
 40
1.0
 10
-16.56549
 20
2.87347
 30
0.0
 10
-16.56549
 20
2.87347
 30
0.0
 10
-16.56549
 20
-0.02653
 30
0.0
 10
-16.56549
 20
-0.02653
 30
0.0
  0
SPLINE
  5
D7
330
1F
100
AcDbEntity
  8
0
370
    15
100
AcDbSpline
210
0.0
220
0.0
230
1.0
 70
    24
 71
     3
 72
     8
 73
     4
 74
     0
 42
0.0000000001
 43
0.0000000001
 40
0.0
 40
0.0
 40
0.0
 40
0.0
 40
1.0
 40
1.0
 40
1.0
 40
1.0
 10
-16.06549
 20
3.17347
 30
0.0
 10
-16.06549
 20
3.17347
 30
0.0
 10
-9.93662
 20
3.17347
 30
0.0
 10
-9.93662
 20
3.17347
 30
0.0
  0
SPLINE
  5
D8
330
1F
100
AcDbEntity
  8
0
370
    15
100
AcDbSpline
210
0.0
220
0.0
230
1.0
 70
     8
 71
     3
 72
    12
 73
     8
 74
     0
 42
0.0000000001
 43
0.0000000001
 40
0.0
 40
0.0
 40
0.0
 40
0.0
 40
0.3333333333333333
 40
0.3333333333333333
 40
0.3333333333333333
 40
0.3333333333333333
 40
1.0
 40
1.0
 40
1.0
 40
1.0
 10
-16.06549
 20
3.37347
 30
0.0
 10
-16.19809
 20
3.37347
 30
0.0
 10
-16.32527
 20
3.32079
 30
0.0
 10
-16.41904
 20
3.22702
 30
0.0
 10
-16.41904
 20
3.22702
 30
0.0
 10
-16.51281
 20
3.13326
 30
0.0
 10
-16.56549
 20
3.00608
 30
0.0
 10
-16.56549
 20
2.87347
 30
0.0
  0
SPLINE
  5
D9
330
1F
100
AcDbEntity
  8
0
370
    15
100
AcDbSpline
210
0.0
220
0.0
230
1.0
 70
    24
 71
     3
 72
     8
 73
     4
 74
     0
 42
0.0000000001
 43
0.0000000001
 40
0.0
 40
0.0
 40
0.0
 40
0.0
 40
1.0
 40
1.0
 40
1.0
 40
1.0
 10
-9.93662
 20
3.37347
 30
0.0
 10
-9.93662
 20
3.37347
 30
0.0
 10
-16.06549
 20
3.37347
 30
0.0
 10
-16.06549
 20
3.37347
 30
0.0
  0
SPLINE
  5
DA
330
1F
100
AcDbEntity
  8
0
370
    15
100
AcDbSpline
210
0.0
220
0.0
230
1.0
 70
    24
 71
     3
 72
     8
 73
     4
 74
     0
 42
0.0000000001
 43
0.0000000001
 40
0.0
 40
0.0
 40
0.0
 40
0.0
 40
1.0
 40
1.0
 40
1.0
 40
1.0
 10
-4.56549
 20
-0.32653
 30
0.0
 10
-4.56549
 20
-0.32653
 30
0.0
 10
-4.56549
 20
-0.52653
 30
0.0
 10
-4.56549
 20
-0.52653
 30
0.0
  0
SPLINE
  5
DB
330
1F
100
AcDbEntity
  8
0
370
    15
100
AcDbSpline
210
0.0
220
0.0
230
1.0
 70
    24
 71
     3
 72
     8
 73
     4
 74
     0
 42
0.0000000001
 43
0.0000000001
 40
0.0
 40
0.0
 40
0.0
 40
0.0
 40
1.0
 40
1.0
 40
1.0
 40
1.0
 10
-4.56549
 20
-0.52653
 30
0.0
 10
-4.56549
 20
-0.52653
 30
0.0
 10
-4.71549
 20
-0.52653
 30
0.0
 10
-4.71549
 20
-0.52653
 30
0.0
  0
SPLINE
  5
DC
330
1F
100
AcDbEntity
  8
0
370
    15
100
AcDbSpline
210
0.0
220
0.0
230
1.0
 70
    24
 71
     3
 72
     8
 73
     4
 74
     0
 42
0.0000000001
 43
0.0000000001
 40
0.0
 40
0.0
 40
0.0
 40
0.0
 40
1.0
 40
1.0
 40
1.0
 40
1.0
 10
-4.71549
 20
-0.32653
 30
0.0
 10
-4.71549
 20
-0.32653
 30
0.0
 10
-4.56549
 20
-0.32653
 30
0.0
 10
-4.56549
 20
-0.32653
 30
0.0
  0
SPLINE
  5
DD
330
1F
100
AcDbEntity
  8
0
370
    15
100
AcDbSpline
210
0.0
220
0.0
230
1.0
 70
    24
 71
     3
 72
     8
 73
     4
 74
     0
 42
0.0000000001
 43
0.0000000001
 40
0.0
 40
0.0
 40
0.0
 40
0.0
 40
1.0
 40
1.0
 40
1.0
 40
1.0
 10
-9.88099
 20
3.37347
 30
0.0
 10
-9.88099
 20
3.37347
 30
0.0
 10
-9.88409
 20
3.37347
 30
0.0
 10
-9.88409
 20
3.37347
 30
0.0
  0
SPLINE
  5
DE
330
1F
100
AcDbEntity
  8
0
370
    15
100
AcDbSpline
210
0.0
220
0.0
230
1.0
 70
    24
 71
     3
 72
     8
 73
     4
 74
     0
 42
0.0000000001
 43
0.0000000001
 40
0.0
 40
0.0
 40
0.0
 40
0.0
 40
1.0
 40
1.0
 40
1.0
 40
1.0
 10
-13.21907
 20
3.07347
 30
0.0
 10
-13.21907
 20
3.07347
 30
0.0
 10
-13.21907
 20
3.17347
 30
0.0
 10
-13.21907
 20
3.17347
 30
0.0
  0
SPLINE
  5
DF
330
1F
100
AcDbEntity
  8
0
370
    15
100
AcDbSpline
210
0.0
220
0.0
230
1.0
 70
    24
 71
     3
 72
     8
 73
     4
 74
     0
 42
0.0000000001
 43
0.0000000001
 40
0.0
 40
0.0
 40
0.0
 40
0.0
 40
1.0
 40
1.0
 40
1.0
 40
1.0
 10
-13.19442
 20
3.17347
 30
0.0
 10
-13.19442
 20
3.17347
 30
0.0
 10
-13.19442
 20
3.07347
 30
0.0
 10
-13.19442
 20
3.07347
 30
0.0
  0
SPLINE
  5
E0
330
1F
100
AcDbEntity
  8
0
370
    15
100
AcDbSpline
210
0.0
220
0.0
230
1.0
 70
    24
 71
     3
 72
     8
 73
     4
 74
     0
 42
0.0000000001
 43
0.0000000001
 40
0.0
 40
0.0
 40
0.0
 40
0.0
 40
1.0
 40
1.0
 40
1.0
 40
1.0
 10
-13.19442
 20
3.07347
 30
0.0
 10
-13.19442
 20
3.07347
 30
0.0
 10
-13.21907
 20
3.07347
 30
0.0
 10
-13.21907
 20
3.07347
 30
0.0
  0
SPLINE
  5
E1
330
1F
100
AcDbEntity
  8
0
370
    15
100
AcDbSpline
210
0.0
220
0.0
230
1.0
 70
    24
 71
     3
 72
     8
 73
     4
 74
     0
 42
0.0000000001
 43
0.0000000001
 40
0.0
 40
0.0
 40
0.0
 40
0.0
 40
1.0
 40
1.0
 40
1.0
 40
1.0
 10
-9.93656
 20
3.07347
 30
0.0
 10
-9.93656
 20
3.07347
 30
0.0
 10
-9.93656
 20
3.17347
 30
0.0
 10
-9.93656
 20
3.17347
 30
0.0
  0
SPLINE
  5
E2
330
1F
100
AcDbEntity
  8
0
370
    15
100
AcDbSpline
210
0.0
220
0.0
230
1.0
 70
    24
 71
     3
 72
     8
 73
     4
 74
     0
 42
0.0000000001
 43
0.0000000001
 40
0.0
 40
0.0
 40
0.0
 40
0.0
 40
1.0
 40
1.0
 40
1.0
 40
1.0
 10
-13.19442
 20
3.07347
 30
0.0
 10
-13.19442
 20
3.07347
 30
0.0
 10
-9.93656
 20
3.07347
 30
0.0
 10
-9.93656
 20
3.07347
 30
0.0
  0
SPLINE
  5
E3
330
1F
100
AcDbEntity
  8
0
370
    15
100
AcDbSpline
210
0.0
220
0.0
230
1.0
 70
    24
 71
     3
 72
     8
 73
     4
 74
     0
 42
0.0000000001
 43
0.0000000001
 40
0.0
 40
0.0
 40
0.0
 40
0.0
 40
1.0
 40
1.0
 40
1.0
 40
1.0
 10
-13.19442
 20
3.17347
 30
0.0
 10
-13.19442
 20
3.17347
 30
0.0
 10
-9.93656
 20
3.17347
 30
0.0
 10
-9.93656
 20
3.17347
 30
0.0
  0
SPLINE
  5
E4
330
1F
100
AcDbEntity
  8
0
370
    15
100
AcDbSpline
210
0.0
220
0.0
230
1.0
 70
    24
 71
     3
 72
     8
 73
     4
 74
     0
 42
0.0000000001
 43
0.0000000001
 40
0.0
 40
0.0
 40
0.0
 40
0.0
 40
1.0
 40
1.0
 40
1.0
 40
1.0
 10
-9.9119
 20
3.17347
 30
0.0
 10
-9.9119
 20
3.17347
 30
0.0
 10
-9.9119
 20
3.07347
 30
0.0
 10
-9.9119
 20
3.07347
 30
0.0
  0
SPLINE
  5
E5
330
1F
100
AcDbEntity
  8
0
370
    15
100
AcDbSpline
210
0.0
220
0.0
230
1.0
 70
    24
 71
     3
 72
     8
 73
     4
 74
     0
 42
0.0000000001
 43
0.0000000001
 40
0.0
 40
0.0
 40
0.0
 40
0.0
 40
1.0
 40
1.0
 40
1.0
 40
1.0
 10
-9.9119
 20
3.07347
 30
0.0
 10
-9.9119
 20
3.07347
 30
0.0
 10
-9.93656
 20
3.07347
 30
0.0
 10
-9.93656
 20
3.07347
 30
0.0
  0
SPLINE
  5
E6
330
1F
100
AcDbEntity
  8
0
370
    15
100
AcDbSpline
210
0.0
220
0.0
230
1.0
 70
    24
 71
     3
 72
     8
 73
     4
 74
     0
 42
0.0000000001
 43
0.0000000001
 40
0.0
 40
0.0
 40
0.0
 40
0.0
 40
1.0
 40
1.0
 40
1.0
 40
1.0
 10
-9.93656
 20
3.17347
 30
0.0
 10
-9.93656
 20
3.17347
 30
0.0
 10
-9.9119
 20
3.17347
 30
0.0
 10
-9.9119
 20
3.17347
 30
0.0
  0
SPLINE
  5
E7
330
1F
100
AcDbEntity
  8
0
370
    15
100
AcDbSpline
210
0.0
220
0.0
230
1.0
 70
    24
 71
     3
 72
     8
 73
     4
 74
     0
 42
0.0000000001
 43
0.0000000001
 40
0.0
 40
0.0
 40
0.0
 40
0.0
 40
1.0
 40
1.0
 40
1.0
 40
1.0
 10
-13.25054
 20
3.07347
 30
0.0
 10
-13.25054
 20
3.07347
 30
0.0
 10
-13.21907
 20
3.07347
 30
0.0
 10
-13.21907
 20
3.07347
 30
0.0
  0
SPLINE
  5
E8
330
1F
100
AcDbEntity
  8
0
370
    15
100
AcDbSpline
210
0.0
220
0.0
230
1.0
 70
    24
 71
     3
 72
     8
 73
     4
 74
     0
 42
0.0000000001
 43
0.0000000001
 40
0.0
 40
0.0
 40
0.0
 40
0.0
 40
1.0
 40
1.0
 40
1.0
 40
1.0
 10
-9.9119
 20
3.07347
 30
0.0
 10
-9.9119
 20
3.07347
 30
0.0
 10
-9.88044
 20
3.07347
 30
0.0
 10
-9.88044
 20
3.07347
 30
0.0
  0
SPLINE
  5
E9
330
1F
100
AcDbEntity
  8
0
370
    15
100
AcDbSpline
210
0.0
220
0.0
230
1.0
 70
    24
 71
     3
 72
     8
 73
     4
 74
     0
 42
0.0000000001
 43
0.0000000001
 40
0.0
 40
0.0
 40
0.0
 40
0.0
 40
1.0
 40
1.0
 40
1.0
 40
1.0
 10
-9.9119
 20
3.17347
 30
0.0
 10
-9.9119
 20
3.17347
 30
0.0
 10
-9.88044
 20
3.17347
 30
0.0
 10
-9.88044
 20
3.17347
 30
0.0
  0
SPLINE
  5
EA
330
1F
100
AcDbEntity
  8
0
370
    15
100
AcDbSpline
210
0.0
220
0.0
230
1.0
 70
     8
 71
     3
 72
    40
 73
    36
 74
     0
 42
0.0000000001
 43
0.0000000001
 40
0.0
 40
0.0
 40
0.0
 40
0.0
 40
0.1
 40
0.1
 40
0.1
 40
0.1
 40
0.2
 40
0.2
 40
0.2
 40
0.2
 40
0.3
 40
0.3
 40
0.3
 40
0.3
 40
0.4
 40
0.4
 40
0.4
 40
0.4
 40
0.5
 40
0.5
 40
0.5
 40
0.5
 40
0.6
 40
0.6
 40
0.6
 40
0.6
 40
0.7
 40
0.7
 40
0.7
 40
0.7
 40
0.8
 40
0.8
 40
0.8
 40
0.8
 40
1.0
 40
1.0
 40
1.0
 40
1.0
 10
-9.91261
 20
4.16408
 30
0.0
 10
-9.91272
 20
4.16254
 30
0.0
 10
-9.91283
 20
4.16101
 30
0.0
 10
-9.91291
 20
4.15685
 30
0.0
 10
-9.91291
 20
4.15685
 30
0.0
 10
-9.91301
 20
4.15214
 30
0.0
 10
-9.91308
 20
4.14408
 30
0.0
 10
-9.91315
 20
4.13381
 30
0.0
 10
-9.91315
 20
4.13381
 30
0.0
 10
-9.91321
 20
4.12376
 30
0.0
 10
-9.91327
 20
4.1116
 30
0.0
 10
-9.91332
 20
4.0972
 30
0.0
 10
-9.91332
 20
4.0972
 30
0.0
 10
-9.91337
 20
4.08239
 30
0.0
 10
-9.91341
 20
4.06522
 30
0.0
 10
-9.91344
 20
4.046
 30
0.0
 10
-9.91344
 20
4.046
 30
0.0
 10
-9.91347
 20
4.02733
 30
0.0
 10
-9.9135
 20
4.00672
 30
0.0
 10
-9.91353
 20
3.98445
 30
0.0
 10
-9.91353
 20
3.98445
 30
0.0
 10
-9.91355
 20
3.96153
 30
0.0
 10
-9.91357
 20
3.93685
 30
0.0
 10
-9.91359
 20
3.91077
 30
0.0
 10
-9.91359
 20
3.91077
 30
0.0
 10
-9.91361
 20
3.88543
 30
0.0
 10
-9.91362
 20
3.85877
 30
0.0
 10
-9.91364
 20
3.83116
 30
0.0
 10
-9.91364
 20
3.83116
 30
0.0
 10
-9.91365
 20
3.80274
 30
0.0
 10
-9.91367
 20
3.77332
 30
0.0
 10
-9.91368
 20
3.7433
 30
0.0
 10
-9.91368
 20
3.7433
 30
0.0
 10
-9.9137
 20
3.70404
 30
0.0
 10
-9.9137
 20
3.66376
 30
0.0
 10
-9.9137
 20
3.62348
 30
0.0
  0
SPLINE
  5
EB
330
1F
100
AcDbEntity
  8
0
370
    15
100
AcDbSpline
210
0.0
220
0.0
230
1.0
 70
    24
 71
     3
 72
     8
 73
     4
 74
     0
 42
0.0000000001
 43
0.0000000001
 40
0.0
 40
0.0
 40
0.0
 40
0.0
 40
1.0
 40
1.0
 40
1.0
 40
1.0
 10
-9.9137
 20
3.62348
 30
0.0
 10
-9.9137
 20
3.62348
 30
0.0
 10
-9.92603
 20
3.62347
 30
0.0
 10
-9.92603
 20
3.62347
 30
0.0
  0
SPLINE
  5
EC
330
1F
100
AcDbEntity
  8
0
370
    15
100
AcDbSpline
210
0.0
220
0.0
230
1.0
 70
     8
 71
     3
 72
    52
 73
    48
 74
     0
 42
0.0000000001
 43
0.0000000001
 40
0.0
 40
0.0
 40
0.0
 40
0.0
 40
0.0769230769230769
 40
0.0769230769230769
 40
0.0769230769230769
 40
0.0769230769230769
 40
0.1538461538461539
 40
0.1538461538461539
 40
0.1538461538461539
 40
0.1538461538461539
 40
0.2307692307692308
 40
0.2307692307692308
 40
0.2307692307692308
 40
0.2307692307692308
 40
0.3076923076923077
 40
0.3076923076923077
 40
0.3076923076923077
 40
0.3076923076923077
 40
0.3846153846153846
 40
0.3846153846153846
 40
0.3846153846153846
 40
0.3846153846153846
 40
0.4615384615384616
 40
0.4615384615384616
 40
0.4615384615384616
 40
0.4615384615384616
 40
0.5384615384615384
 40
0.5384615384615384
 40
0.5384615384615384
 40
0.5384615384615384
 40
0.6153846153846154
 40
0.6153846153846154
 40
0.6153846153846154
 40
0.6153846153846154
 40
0.6923076923076923
 40
0.6923076923076923
 40
0.6923076923076923
 40
0.6923076923076923
 40
0.7692307692307693
 40
0.7692307692307693
 40
0.7692307692307693
 40
0.7692307692307693
 40
0.8461538461538461
 40
0.8461538461538461
 40
0.8461538461538461
 40
0.8461538461538461
 40
1.0
 40
1.0
 40
1.0
 40
1.0
 10
-9.92603
 20
3.62347
 30
0.0
 10
-9.92604
 20
3.65978
 30
0.0
 10
-9.92603
 20
3.6957
 30
0.0
 10
-9.92602
 20
3.73121
 30
0.0
 10
-9.92602
 20
3.73121
 30
0.0
 10
-9.92601
 20
3.74897
 30
0.0
 10
-9.926
 20
3.76659
 30
0.0
 10
-9.92599
 20
3.7838
 30
0.0
 10
-9.92599
 20
3.7838
 30
0.0
 10
-9.92597
 20
3.801
 30
0.0
 10
-9.92596
 20
3.81786
 30
0.0
 10
-9.92595
 20
3.83439
 30
0.0
 10
-9.92595
 20
3.83439
 30
0.0
 10
-9.92594
 20
3.85093
 30
0.0
 10
-9.92593
 20
3.86712
 30
0.0
 10
-9.92591
 20
3.88298
 30
0.0
 10
-9.92591
 20
3.88298
 30
0.0
 10
-9.9259
 20
3.89884
 30
0.0
 10
-9.92589
 20
3.91444
 30
0.0
 10
-9.92588
 20
3.92946
 30
0.0
 10
-9.92588
 20
3.92946
 30
0.0
 10
-9.92585
 20
3.9595
 30
0.0
 10
-9.92581
 20
3.98717
 30
0.0
 10
-9.92577
 20
4.01251
 30
0.0
 10
-9.92577
 20
4.01251
 30
0.0
 10
-9.92575
 20
4.02518
 30
0.0
 10
-9.92573
 20
4.03727
 30
0.0
 10
-9.9257
 20
4.04876
 30
0.0
 10
-9.9257
 20
4.04876
 30
0.0
 10
-9.92568
 20
4.06024
 30
0.0
 10
-9.92565
 20
4.07103
 30
0.0
 10
-9.92562
 20
4.081
 30
0.0
 10
-9.92562
 20
4.081
 30
0.0
 10
-9.92557
 20
4.10094
 30
0.0
 10
-9.9255
 20
4.11781
 30
0.0
 10
-9.92541
 20
4.1316
 30
0.0
 10
-9.92541
 20
4.1316
 30
0.0
 10
-9.92536
 20
4.13849
 30
0.0
 10
-9.92531
 20
4.14463
 30
0.0
 10
-9.92525
 20
4.14986
 30
0.0
 10
-9.92525
 20
4.14986
 30
0.0
 10
-9.92519
 20
4.15509
 30
0.0
 10
-9.92513
 20
4.15944
 30
0.0
 10
-9.92506
 20
4.16293
 30
0.0
 10
-9.92506
 20
4.16293
 30
0.0
 10
-9.92492
 20
4.16991
 30
0.0
 10
-9.92474
 20
4.17347
 30
0.0
 10
-9.92448
 20
4.17347
 30
0.0
  0
SPLINE
  5
ED
330
1F
100
AcDbEntity
  8
0
370
    15
100
AcDbSpline
210
0.0
220
0.0
230
1.0
 70
     8
 71
     3
 72
     8
 73
     4
 74
     0
 42
0.0000000001
 43
0.0000000001
 40
0.0
 40
0.0
 40
0.0
 40
0.0
 40
1.0
 40
1.0
 40
1.0
 40
1.0
 10
-9.91258
 20
4.1648
 30
0.0
 10
-9.91424
 20
4.16997
 30
0.0
 10
-9.91905
 20
4.17347
 30
0.0
 10
-9.92448
 20
4.17347
 30
0.0
  0
SPLINE
  5
EE
330
1F
100
AcDbEntity
  8
0
370
    15
100
AcDbSpline
210
0.0
220
0.0
230
1.0
 70
     8
 71
     3
 72
    40
 73
    36
 74
     0
 42
0.0000000001
 43
0.0000000001
 40
0.0
 40
0.0
 40
0.0
 40
0.0
 40
0.1
 40
0.1
 40
0.1
 40
0.1
 40
0.2
 40
0.2
 40
0.2
 40
0.2
 40
0.3
 40
0.3
 40
0.3
 40
0.3
 40
0.4
 40
0.4
 40
0.4
 40
0.4
 40
0.5
 40
0.5
 40
0.5
 40
0.5
 40
0.6
 40
0.6
 40
0.6
 40
0.6
 40
0.7
 40
0.7
 40
0.7
 40
0.7
 40
0.8
 40
0.8
 40
0.8
 40
0.8
 40
1.0
 40
1.0
 40
1.0
 40
1.0
 10
-13.21729
 20
3.62348
 30
0.0
 10
-13.21729
 20
3.6633
 30
0.0
 10
-13.21729
 20
3.70312
 30
0.0
 10
-13.21731
 20
3.74195
 30
0.0
 10
-13.21731
 20
3.74195
 30
0.0
 10
-13.21732
 20
3.77115
 30
0.0
 10
-13.21734
 20
3.79978
 30
0.0
 10
-13.21736
 20
3.82748
 30
0.0
 10
-13.21736
 20
3.82748
 30
0.0
 10
-13.21738
 20
3.85598
 30
0.0
 10
-13.21739
 20
3.8835
 30
0.0
 10
-13.21741
 20
3.90961
 30
0.0
 10
-13.21741
 20
3.90961
 30
0.0
 10
-13.21742
 20
3.93501
 30
0.0
 10
-13.21744
 20
3.95908
 30
0.0
 10
-13.21746
 20
3.9815
 30
0.0
 10
-13.21746
 20
3.9815
 30
0.0
 10
-13.21749
 20
4.00457
 30
0.0
 10
-13.21752
 20
4.02589
 30
0.0
 10
-13.21755
 20
4.04516
 30
0.0
 10
-13.21755
 20
4.04516
 30
0.0
 10
-13.21759
 20
4.06391
 30
0.0
 10
-13.21762
 20
4.08072
 30
0.0
 10
-13.21767
 20
4.09531
 30
0.0
 10
-13.21767
 20
4.09531
 30
0.0
 10
-13.21772
 20
4.11032
 30
0.0
 10
-13.21778
 20
4.12297
 30
0.0
 10
-13.21785
 20
4.1334
 30
0.0
 10
-13.21785
 20
4.1334
 30
0.0
 10
-13.21791
 20
4.14354
 30
0.0
 10
-13.21798
 20
4.15156
 30
0.0
 10
-13.21808
 20
4.15635
 30
0.0
 10
-13.21808
 20
4.15635
 30
0.0
 10
-13.21817
 20
4.16082
 30
0.0
 10
-13.21828
 20
4.16246
 30
0.0
 10
-13.21839
 20
4.1641
 30
0.0
  0
SPLINE
  5
EF
330
1F
100
AcDbEntity
  8
0
370
    15
100
AcDbSpline
210
0.0
220
0.0
230
1.0
 70
     8
 71
     3
 72
     8
 73
     4
 74
     0
 42
0.0000000001
 43
0.0000000001
 40
0.0
 40
0.0
 40
0.0
 40
0.0
 40
1.0
 40
1.0
 40
1.0
 40
1.0
 10
-13.20654
 20
4.17347
 30
0.0
 10
-13.21195
 20
4.17347
 30
0.0
 10
-13.21674
 20
4.17
 30
0.0
 10
-13.21842
 20
4.16486
 30
0.0
  0
SPLINE
  5
F0
330
1F
100
AcDbEntity
  8
0
370
    15
100
AcDbSpline
210
0.0
220
0.0
230
1.0
 70
     8
 71
     3
 72
    52
 73
    48
 74
     0
 42
0.0000000001
 43
0.0000000001
 40
0.0
 40
0.0
 40
0.0
 40
0.0
 40
0.0769230769230769
 40
0.0769230769230769
 40
0.0769230769230769
 40
0.0769230769230769
 40
0.1538461538461539
 40
0.1538461538461539
 40
0.1538461538461539
 40
0.1538461538461539
 40
0.2307692307692308
 40
0.2307692307692308
 40
0.2307692307692308
 40
0.2307692307692308
 40
0.3076923076923077
 40
0.3076923076923077
 40
0.3076923076923077
 40
0.3076923076923077
 40
0.3846153846153846
 40
0.3846153846153846
 40
0.3846153846153846
 40
0.3846153846153846
 40
0.4615384615384616
 40
0.4615384615384616
 40
0.4615384615384616
 40
0.4615384615384616
 40
0.5384615384615384
 40
0.5384615384615384
 40
0.5384615384615384
 40
0.5384615384615384
 40
0.6153846153846154
 40
0.6153846153846154
 40
0.6153846153846154
 40
0.6153846153846154
 40
0.6923076923076923
 40
0.6923076923076923
 40
0.6923076923076923
 40
0.6923076923076923
 40
0.7692307692307693
 40
0.7692307692307693
 40
0.7692307692307693
 40
0.7692307692307693
 40
0.8461538461538461
 40
0.8461538461538461
 40
0.8461538461538461
 40
0.8461538461538461
 40
1.0
 40
1.0
 40
1.0
 40
1.0
 10
-13.20654
 20
4.17347
 30
0.0
 10
-13.20628
 20
4.17347
 30
0.0
 10
-13.2061
 20
4.16991
 30
0.0
 10
-13.20596
 20
4.16293
 30
0.0
 10
-13.20596
 20
4.16293
 30
0.0
 10
-13.20588
 20
4.15944
 30
0.0
 10
-13.20582
 20
4.1551
 30
0.0
 10
-13.20576
 20
4.14987
 30
0.0
 10
-13.20576
 20
4.14987
 30
0.0
 10
-13.2057
 20
4.14464
 30
0.0
 10
-13.20565
 20
4.1385
 30
0.0
 10
-13.2056
 20
4.13161
 30
0.0
 10
-13.2056
 20
4.13161
 30
0.0
 10
-13.20551
 20
4.11782
 30
0.0
 10
-13.20544
 20
4.10094
 30
0.0
 10
-13.20538
 20
4.08101
 30
0.0
 10
-13.20538
 20
4.08101
 30
0.0
 10
-13.20535
 20
4.07104
 30
0.0
 10
-13.20533
 20
4.06026
 30
0.0
 10
-13.2053
 20
4.04877
 30
0.0
 10
-13.2053
 20
4.04877
 30
0.0
 10
-13.20528
 20
4.03728
 30
0.0
 10
-13.20525
 20
4.02519
 30
0.0
 10
-13.20523
 20
4.01252
 30
0.0
 10
-13.20523
 20
4.01252
 30
0.0
 10
-13.20519
 20
3.98717
 30
0.0
 10
-13.20516
 20
3.95951
 30
0.0
 10
-13.20513
 20
3.92948
 30
0.0
 10
-13.20513
 20
3.92948
 30
0.0
 10
-13.20511
 20
3.91446
 30
0.0
 10
-13.2051
 20
3.89885
 30
0.0
 10
-13.20509
 20
3.88299
 30
0.0
 10
-13.20509
 20
3.88299
 30
0.0
 10
-13.20508
 20
3.86713
 30
0.0
 10
-13.20506
 20
3.85093
 30
0.0
 10
-13.20505
 20
3.8344
 30
0.0
 10
-13.20505
 20
3.8344
 30
0.0
 10
-13.20504
 20
3.81787
 30
0.0
 10
-13.20503
 20
3.801
 30
0.0
 10
-13.20501
 20
3.7838
 30
0.0
 10
-13.20501
 20
3.7838
 30
0.0
 10
-13.205
 20
3.76661
 30
0.0
 10
-13.20499
 20
3.74899
 30
0.0
 10
-13.20498
 20
3.73123
 30
0.0
 10
-13.20498
 20
3.73123
 30
0.0
 10
-13.20497
 20
3.6957
 30
0.0
 10
-13.20496
 20
3.65979
 30
0.0
 10
-13.20497
 20
3.62347
 30
0.0
  0
SPLINE
  5
F1
330
1F
100
AcDbEntity
  8
0
370
    15
100
AcDbSpline
210
0.0
220
0.0
230
1.0
 70
    24
 71
     3
 72
     8
 73
     4
 74
     0
 42
0.0000000001
 43
0.0000000001
 40
0.0
 40
0.0
 40
0.0
 40
0.0
 40
1.0
 40
1.0
 40
1.0
 40
1.0
 10
-13.21729
 20
3.62348
 30
0.0
 10
-13.21729
 20
3.62348
 30
0.0
 10
-13.20497
 20
3.62347
 30
0.0
 10
-13.20497
 20
3.62347
 30
0.0
  0
SPLINE
  5
F2
330
1F
100
AcDbEntity
  8
0
370
    15
100
AcDbSpline
210
0.0
220
0.0
230
1.0
 70
    24
 71
     3
 72
    16
 73
    12
 74
     0
 42
0.0000000001
 43
0.0000000001
 40
0.0
 40
0.0
 40
0.0
 40
0.0
 40
0.25
 40
0.25
 40
0.25
 40
0.25
 40
0.5
 40
0.5
 40
0.5
 40
0.5
 40
1.0
 40
1.0
 40
1.0
 40
1.0
 10
-13.21729
 20
3.37347
 30
0.0
 10
-13.21729
 20
3.37347
 30
0.0
 10
-13.21729
 20
3.39847
 30
0.0
 10
-13.21729
 20
3.39847
 30
0.0
 10
-13.21729
 20
3.39847
 30
0.0
 10
-13.21729
 20
3.39847
 30
0.0
 10
-13.21729
 20
3.49847
 30
0.0
 10
-13.21729
 20
3.49847
 30
0.0
 10
-13.21729
 20
3.49847
 30
0.0
 10
-13.21729
 20
3.49847
 30
0.0
 10
-13.21729
 20
3.62348
 30
0.0
 10
-13.21729
 20
3.62348
 30
0.0
  0
SPLINE
  5
F3
330
1F
100
AcDbEntity
  8
0
370
    15
100
AcDbSpline
210
0.0
220
0.0
230
1.0
 70
     8
 71
     3
 72
     8
 73
     4
 74
     0
 42
0.0000000001
 43
0.0000000001
 40
0.0
 40
0.0
 40
0.0
 40
0.0
 40
1.0
 40
1.0
 40
1.0
 40
1.0
 10
-13.20497
 20
3.62347
 30
0.0
 10
-13.205
 20
3.54014
 30
0.0
 10
-13.20497
 20
3.4568
 30
0.0
 10
-13.20497
 20
3.37347
 30
0.0
  0
SPLINE
  5
F4
330
1F
100
AcDbEntity
  8
0
370
    15
100
AcDbSpline
210
0.0
220
0.0
230
1.0
 70
     8
 71
     3
 72
     8
 73
     4
 74
     0
 42
0.0000000001
 43
0.0000000001
 40
0.0
 40
0.0
 40
0.0
 40
0.0
 40
1.0
 40
1.0
 40
1.0
 40
1.0
 10
-9.92603
 20
3.37347
 30
0.0
 10
-9.92603
 20
3.4568
 30
0.0
 10
-9.92599
 20
3.54014
 30
0.0
 10
-9.92603
 20
3.62347
 30
0.0
  0
SPLINE
  5
F5
330
1F
100
AcDbEntity
  8
0
370
    15
100
AcDbSpline
210
0.0
220
0.0
230
1.0
 70
    24
 71
     3
 72
    16
 73
    12
 74
     0
 42
0.0000000001
 43
0.0000000001
 40
0.0
 40
0.0
 40
0.0
 40
0.0
 40
0.25
 40
0.25
 40
0.25
 40
0.25
 40
0.5
 40
0.5
 40
0.5
 40
0.5
 40
1.0
 40
1.0
 40
1.0
 40
1.0
 10
-9.9137
 20
3.62348
 30
0.0
 10
-9.9137
 20
3.61514
 30
0.0
 10
-9.9137
 20
3.60681
 30
0.0
 10
-9.9137
 20
3.59848
 30
0.0
 10
-9.9137
 20
3.59848
 30
0.0
 10
-9.9137
 20
3.56514
 30
0.0
 10
-9.9137
 20
3.53181
 30
0.0
 10
-9.9137
 20
3.49848
 30
0.0
 10
-9.9137
 20
3.49848
 30
0.0
 10
-9.9137
 20
3.45681
 30
0.0
 10
-9.9137
 20
3.41514
 30
0.0
 10
-9.9137
 20
3.37347
 30
0.0
  0
SPLINE
  5
F6
330
1F
100
AcDbEntity
  8
0
370
    15
100
AcDbSpline
210
0.0
220
0.0
230
1.0
 70
    24
 71
     3
 72
    36
 73
    32
 74
     0
 42
0.0000000001
 43
0.0000000001
 40
0.0
 40
0.0
 40
0.0
 40
0.0
 40
0.1111111111111111
 40
0.1111111111111111
 40
0.1111111111111111
 40
0.1111111111111111
 40
0.2222222222222222
 40
0.2222222222222222
 40
0.2222222222222222
 40
0.2222222222222222
 40
0.3333333333333333
 40
0.3333333333333333
 40
0.3333333333333333
 40
0.3333333333333333
 40
0.4444444444444444
 40
0.4444444444444444
 40
0.4444444444444444
 40
0.4444444444444444
 40
0.5555555555555556
 40
0.5555555555555556
 40
0.5555555555555556
 40
0.5555555555555556
 40
0.6666666666666666
 40
0.6666666666666666
 40
0.6666666666666666
 40
0.6666666666666666
 40
0.7777777777777778
 40
0.7777777777777778
 40
0.7777777777777778
 40
0.7777777777777778
 40
1.0
 40
1.0
 40
1.0
 40
1.0
 10
-9.9137
 20
3.37347
 30
0.0
 10
-9.9137
 20
3.37347
 30
0.0
 10
-9.91425
 20
3.37347
 30
0.0
 10
-9.91425
 20
3.37347
 30
0.0
 10
-9.91425
 20
3.37347
 30
0.0
 10
-9.91425
 20
3.37347
 30
0.0
 10
-9.91517
 20
3.37347
 30
0.0
 10
-9.91517
 20
3.37347
 30
0.0
 10
-9.91517
 20
3.37347
 30
0.0
 10
-9.91517
 20
3.37347
 30
0.0
 10
-9.91641
 20
3.37347
 30
0.0
 10
-9.91641
 20
3.37347
 30
0.0
 10
-9.91641
 20
3.37347
 30
0.0
 10
-9.91641
 20
3.37347
 30
0.0
 10
-9.91796
 20
3.37347
 30
0.0
 10
-9.91796
 20
3.37347
 30
0.0
 10
-9.91796
 20
3.37347
 30
0.0
 10
-9.91796
 20
3.37347
 30
0.0
 10
-9.91975
 20
3.37347
 30
0.0
 10
-9.91975
 20
3.37347
 30
0.0
 10
-9.91975
 20
3.37347
 30
0.0
 10
-9.91975
 20
3.37347
 30
0.0
 10
-9.92173
 20
3.37347
 30
0.0
 10
-9.92173
 20
3.37347
 30
0.0
 10
-9.92173
 20
3.37347
 30
0.0
 10
-9.92173
 20
3.37347
 30
0.0
 10
-9.92384
 20
3.37347
 30
0.0
 10
-9.92384
 20
3.37347
 30
0.0
 10
-9.92384
 20
3.37347
 30
0.0
 10
-9.92384
 20
3.37347
 30
0.0
 10
-9.92603
 20
3.37347
 30
0.0
 10
-9.92603
 20
3.37347
 30
0.0
  0
SPLINE
  5
F7
330
1F
100
AcDbEntity
  8
0
370
    15
100
AcDbSpline
210
0.0
220
0.0
230
1.0
 70
    24
 71
     3
 72
     8
 73
     4
 74
     0
 42
0.0000000001
 43
0.0000000001
 40
0.0
 40
0.0
 40
0.0
 40
0.0
 40
1.0
 40
1.0
 40
1.0
 40
1.0
 10
-13.17799
 20
4.13753
 30
0.0
 10
-13.17799
 20
4.13753
 30
0.0
 10
-13.17799
 20
4.17347
 30
0.0
 10
-13.17799
 20
4.17347
 30
0.0
  0
SPLINE
  5
F8
330
1F
100
AcDbEntity
  8
0
370
    15
100
AcDbSpline
210
0.0
220
0.0
230
1.0
 70
     8
 71
     3
 72
    32
 73
    28
 74
     0
 42
0.0000000001
 43
0.0000000001
 40
0.0
 40
0.0
 40
0.0
 40
0.0
 40
0.125
 40
0.125
 40
0.125
 40
0.125
 40
0.25
 40
0.25
 40
0.25
 40
0.25
 40
0.375
 40
0.375
 40
0.375
 40
0.375
 40
0.5
 40
0.5
 40
0.5
 40
0.5
 40
0.625
 40
0.625
 40
0.625
 40
0.625
 40
0.75
 40
0.75
 40
0.75
 40
0.75
 40
1.0
 40
1.0
 40
1.0
 40
1.0
 10
-13.01549
 20
4.04403
 30
0.0
 10
-13.02692
 20
4.04403
 30
0.0
 10
-13.03807
 20
4.04502
 30
0.0
 10
-13.04897
 20
4.04688
 30
0.0
 10
-13.04897
 20
4.04688
 30
0.0
 10
-13.05987
 20
4.04874
 30
0.0
 10
-13.07053
 20
4.0515
 30
0.0
 10
-13.08045
 20
4.05485
 30
0.0
 10
-13.08045
 20
4.05485
 30
0.0
 10
-13.09036
 20
4.05819
 30
0.0
 10
-13.09976
 20
4.06218
 30
0.0
 10
-13.10841
 20
4.06651
 30
0.0
 10
-13.10841
 20
4.06651
 30
0.0
 10
-13.11706
 20
4.07085
 30
0.0
 10
-13.12495
 20
4.07552
 30
0.0
 10
-13.13216
 20
4.08039
 30
0.0
 10
-13.13216
 20
4.08039
 30
0.0
 10
-13.13937
 20
4.08526
 30
0.0
 10
-13.14584
 20
4.09031
 30
0.0
 10
-13.15145
 20
4.09533
 30
0.0
 10
-13.15145
 20
4.09533
 30
0.0
 10
-13.15705
 20
4.10034
 30
0.0
 10
-13.16185
 20
4.10536
 30
0.0
 10
-13.16581
 20
4.11032
 30
0.0
 10
-13.16581
 20
4.11032
 30
0.0
 10
-13.17374
 20
4.12024
 30
0.0
 10
-13.17799
 20
4.12942
 30
0.0
 10
-13.17799
 20
4.13753
 30
0.0
  0
SPLINE
  5
F9
330
1F
100
AcDbEntity
  8
0
370
    15
100
AcDbSpline
210
0.0
220
0.0
230
1.0
 70
    24
 71
     3
 72
     8
 73
     4
 74
     0
 42
0.0000000001
 43
0.0000000001
 40
0.0
 40
0.0
 40
0.0
 40
0.0
 40
1.0
 40
1.0
 40
1.0
 40
1.0
 10
-10.11549
 20
4.04403
 30
0.0
 10
-10.11549
 20
4.04403
 30
0.0
 10
-13.01549
 20
4.04403
 30
0.0
 10
-13.01549
 20
4.04403
 30
0.0
  0
SPLINE
  5
FA
330
1F
100
AcDbEntity
  8
0
370
    15
100
AcDbSpline
210
0.0
220
0.0
230
1.0
 70
     8
 71
     3
 72
    36
 73
    32
 74
     0
 42
0.0000000001
 43
0.0000000001
 40
0.0
 40
0.0
 40
0.0
 40
0.0
 40
0.1111111111111111
 40
0.1111111111111111
 40
0.1111111111111111
 40
0.1111111111111111
 40
0.2222222222222222
 40
0.2222222222222222
 40
0.2222222222222222
 40
0.2222222222222222
 40
0.3333333333333333
 40
0.3333333333333333
 40
0.3333333333333333
 40
0.3333333333333333
 40
0.4444444444444444
 40
0.4444444444444444
 40
0.4444444444444444
 40
0.4444444444444444
 40
0.5555555555555556
 40
0.5555555555555556
 40
0.5555555555555556
 40
0.5555555555555556
 40
0.6666666666666666
 40
0.6666666666666666
 40
0.6666666666666666
 40
0.6666666666666666
 40
0.7777777777777778
 40
0.7777777777777778
 40
0.7777777777777778
 40
0.7777777777777778
 40
1.0
 40
1.0
 40
1.0
 40
1.0
 10
-9.95299
 20
4.13753
 30
0.0
 10
-9.95299
 20
4.13347
 30
0.0
 10
-9.95407
 20
4.12916
 30
0.0
 10
-9.95612
 20
4.12461
 30
0.0
 10
-9.95612
 20
4.12461
 30
0.0
 10
-9.95818
 20
4.12006
 30
0.0
 10
-9.96122
 20
4.11524
 30
0.0
 10
-9.96518
 20
4.11029
 30
0.0
 10
-9.96518
 20
4.11029
 30
0.0
 10
-9.96914
 20
4.10534
 30
0.0
 10
-9.97394
 20
4.10033
 30
0.0
 10
-9.97954
 20
4.09531
 30
0.0
 10
-9.97954
 20
4.09531
 30
0.0
 10
-9.98515
 20
4.0903
 30
0.0
 10
-9.99165
 20
4.08523
 30
0.0
 10
-9.99883
 20
4.08037
 30
0.0
 10
-9.99883
 20
4.08037
 30
0.0
 10
-10.00602
 20
4.07552
 30
0.0
 10
-10.01387
 20
4.07088
 30
0.0
 10
-10.02243
 20
4.06658
 30
0.0
 10
-10.02243
 20
4.06658
 30
0.0
 10
-10.03099
 20
4.06228
 30
0.0
 10
-10.04039
 20
4.05827
 30
0.0
 10
-10.05034
 20
4.05491
 30
0.0
 10
-10.05034
 20
4.05491
 30
0.0
 10
-10.06028
 20
4.05154
 30
0.0
 10
-10.07072
 20
4.04882
 30
0.0
 10
-10.08172
 20
4.04693
 30
0.0
 10
-10.08172
 20
4.04693
 30
0.0
 10
-10.09273
 20
4.04503
 30
0.0
 10
-10.10404
 20
4.04403
 30
0.0
 10
-10.11549
 20
4.04403
 30
0.0
  0
SPLINE
  5
FB
330
1F
100
AcDbEntity
  8
0
370
    15
100
AcDbSpline
210
0.0
220
0.0
230
1.0
 70
    24
 71
     3
 72
     8
 73
     4
 74
     0
 42
0.0000000001
 43
0.0000000001
 40
0.0
 40
0.0
 40
0.0
 40
0.0
 40
1.0
 40
1.0
 40
1.0
 40
1.0
 10
-9.95299
 20
4.17347
 30
0.0
 10
-9.95299
 20
4.17347
 30
0.0
 10
-9.95299
 20
4.13753
 30
0.0
 10
-9.95299
 20
4.13753
 30
0.0
  0
SPLINE
  5
FC
330
1F
100
AcDbEntity
  8
0
370
    15
100
AcDbSpline
210
0.0
220
0.0
230
1.0
 70
    24
 71
     3
 72
     8
 73
     4
 74
     0
 42
0.0000000001
 43
0.0000000001
 40
0.0
 40
0.0
 40
0.0
 40
0.0
 40
1.0
 40
1.0
 40
1.0
 40
1.0
 10
-9.92448
 20
4.17347
 30
0.0
 10
-9.92448
 20
4.17347
 30
0.0
 10
-9.95299
 20
4.17347
 30
0.0
 10
-9.95299
 20
4.17347
 30
0.0
  0
SPLINE
  5
FD
330
1F
100
AcDbEntity
  8
0
370
    15
100
AcDbSpline
210
0.0
220
0.0
230
1.0
 70
    24
 71
     3
 72
     8
 73
     4
 74
     0
 42
0.0000000001
 43
0.0000000001
 40
0.0
 40
0.0
 40
0.0
 40
0.0
 40
1.0
 40
1.0
 40
1.0
 40
1.0
 10
-9.92603
 20
3.62347
 30
0.0
 10
-9.92603
 20
3.62347
 30
0.0
 10
-13.20497
 20
3.62347
 30
0.0
 10
-13.20497
 20
3.62347
 30
0.0
  0
SPLINE
  5
FE
330
1F
100
AcDbEntity
  8
0
370
    15
100
AcDbSpline
210
0.0
220
0.0
230
1.0
 70
    24
 71
     3
 72
     8
 73
     4
 74
     0
 42
0.0000000001
 43
0.0000000001
 40
0.0
 40
0.0
 40
0.0
 40
0.0
 40
1.0
 40
1.0
 40
1.0
 40
1.0
 10
-13.17799
 20
4.17347
 30
0.0
 10
-13.17799
 20
4.17347
 30
0.0
 10
-13.20654
 20
4.17347
 30
0.0
 10
-13.20654
 20
4.17347
 30
0.0
  0
SPLINE
  5
FF
330
1F
100
AcDbEntity
  8
0
370
    15
100
AcDbSpline
210
0.0
220
0.0
230
1.0
 70
    24
 71
     3
 72
     8
 73
     4
 74
     0
 42
0.0000000001
 43
0.0000000001
 40
0.0
 40
0.0
 40
0.0
 40
0.0
 40
1.0
 40
1.0
 40
1.0
 40
1.0
 10
-9.92603
 20
3.37347
 30
0.0
 10
-9.92603
 20
3.37347
 30
0.0
 10
-13.20497
 20
3.37347
 30
0.0
 10
-13.20497
 20
3.37347
 30
0.0
  0
SPLINE
  5
100
330
1F
100
AcDbEntity
  8
0
370
    15
100
AcDbSpline
210
0.0
220
0.0
230
1.0
 70
     8
 71
     3
 72
     8
 73
     4
 74
     0
 42
0.0000000001
 43
0.0000000001
 40
0.0
 40
0.0
 40
0.0
 40
0.0
 40
1.0
 40
1.0
 40
1.0
 40
1.0
 10
-13.21846
 20
4.16504
 30
0.0
 10
-13.2472
 20
4.0815
 30
0.0
 10
-13.25677
 20
3.99256
 30
0.0
 10
-13.24647
 20
3.90482
 30
0.0
  0
SPLINE
  5
101
330
1F
100
AcDbEntity
  8
0
370
    15
100
AcDbSpline
210
0.0
220
0.0
230
1.0
 70
     8
 71
     3
 72
    16
 73
    12
 74
     0
 42
0.0000000001
 43
0.0000000001
 40
0.0
 40
0.0
 40
0.0
 40
0.0
 40
0.25
 40
0.25
 40
0.25
 40
0.25
 40
0.5
 40
0.5
 40
0.5
 40
0.5
 40
1.0
 40
1.0
 40
1.0
 40
1.0
 10
-13.21843
 20
4.16491
 30
0.0
 10
-13.21843
 20
4.16494
 30
0.0
 10
-13.21844
 20
4.16498
 30
0.0
 10
-13.21844
 20
4.165
 30
0.0
 10
-13.21844
 20
4.165
 30
0.0
 10
-13.21845
 20
4.16506
 30
0.0
 10
-13.21845
 20
4.16502
 30
0.0
 10
-13.21846
 20
4.16503
 30
0.0
 10
-13.21846
 20
4.16503
 30
0.0
 10
-13.21846
 20
4.16503
 30
0.0
 10
-13.21846
 20
4.16503
 30
0.0
 10
-13.21846
 20
4.16504
 30
0.0
  0
SPLINE
  5
102
330
1F
100
AcDbEntity
  8
0
370
    15
100
AcDbSpline
210
0.0
220
0.0
230
1.0
 70
     8
 71
     3
 72
     8
 73
     4
 74
     0
 42
0.0000000001
 43
0.0000000001
 40
0.0
 40
0.0
 40
0.0
 40
0.0
 40
1.0
 40
1.0
 40
1.0
 40
1.0
 10
-9.91255
 20
4.16496
 30
0.0
 10
-9.91257
 20
4.16493
 30
0.0
 10
-9.91258
 20
4.1649
 30
0.0
 10
-9.91257
 20
4.16487
 30
0.0
  0
SPLINE
  5
103
330
1F
100
AcDbEntity
  8
0
370
    15
100
AcDbSpline
210
0.0
220
0.0
230
1.0
 70
     8
 71
     3
 72
    12
 73
     8
 74
     0
 42
0.0000000001
 43
0.0000000001
 40
0.0
 40
0.0
 40
0.0
 40
0.0
 40
0.3333333333333333
 40
0.3333333333333333
 40
0.3333333333333333
 40
0.3333333333333333
 40
1.0
 40
1.0
 40
1.0
 40
1.0
 10
-9.91255
 20
4.16496
 30
0.0
 10
-9.90281
 20
4.13447
 30
0.0
 10
-9.89308
 20
4.10398
 30
0.0
 10
-9.8894
 20
4.07248
 30
0.0
 10
-9.8894
 20
4.07248
 30
0.0
 10
-9.88847
 20
4.06456
 30
0.0
 10
-9.88793
 20
4.05658
 30
0.0
 10
-9.88738
 20
4.0486
 30
0.0
  0
SPLINE
  5
104
330
1F
100
AcDbEntity
  8
0
370
    15
100
AcDbSpline
210
0.0
220
0.0
230
1.0
 70
    24
 71
     3
 72
     8
 73
     4
 74
     0
 42
0.0000000001
 43
0.0000000001
 40
0.0
 40
0.0
 40
0.0
 40
0.0
 40
1.0
 40
1.0
 40
1.0
 40
1.0
 10
-9.91195
 20
3.37347
 30
0.0
 10
-9.91195
 20
3.37347
 30
0.0
 10
-9.9137
 20
3.37347
 30
0.0
 10
-9.9137
 20
3.37347
 30
0.0
  0
SPLINE
  5
105
330
1F
100
AcDbEntity
  8
0
370
    15
100
AcDbSpline
210
0.0
220
0.0
230
1.0
 70
    24
 71
     3
 72
     8
 73
     4
 74
     0
 42
0.0000000001
 43
0.0000000001
 40
0.0
 40
0.0
 40
0.0
 40
0.0
 40
1.0
 40
1.0
 40
1.0
 40
1.0
 10
-10.11549
 20
4.04403
 30
0.0
 10
-10.11549
 20
4.04403
 30
0.0
 10
-10.11549
 20
4.05359
 30
0.0
 10
-10.11549
 20
4.05359
 30
0.0
  0
SPLINE
  5
106
330
1F
100
AcDbEntity
  8
0
370
    15
100
AcDbSpline
210
0.0
220
0.0
230
1.0
 70
     8
 71
     3
 72
    36
 73
    32
 74
     0
 42
0.0000000001
 43
0.0000000001
 40
0.0
 40
0.0
 40
0.0
 40
0.0
 40
0.1111111111111111
 40
0.1111111111111111
 40
0.1111111111111111
 40
0.1111111111111111
 40
0.2222222222222222
 40
0.2222222222222222
 40
0.2222222222222222
 40
0.2222222222222222
 40
0.3333333333333333
 40
0.3333333333333333
 40
0.3333333333333333
 40
0.3333333333333333
 40
0.4444444444444444
 40
0.4444444444444444
 40
0.4444444444444444
 40
0.4444444444444444
 40
0.5555555555555556
 40
0.5555555555555556
 40
0.5555555555555556
 40
0.5555555555555556
 40
0.6666666666666666
 40
0.6666666666666666
 40
0.6666666666666666
 40
0.6666666666666666
 40
0.7777777777777778
 40
0.7777777777777778
 40
0.7777777777777778
 40
0.7777777777777778
 40
1.0
 40
1.0
 40
1.0
 40
1.0
 10
-10.11549
 20
4.05359
 30
0.0
 10
-10.10466
 20
4.05359
 30
0.0
 10
-10.09395
 20
4.05467
 30
0.0
 10
-10.08361
 20
4.05669
 30
0.0
 10
-10.08361
 20
4.05669
 30
0.0
 10
-10.07327
 20
4.0587
 30
0.0
 10
-10.06353
 20
4.06159
 30
0.0
 10
-10.05429
 20
4.06511
 30
0.0
 10
-10.05429
 20
4.06511
 30
0.0
 10
-10.04505
 20
4.06864
 30
0.0
 10
-10.03639
 20
4.07281
 30
0.0
 10
-10.02854
 20
4.07724
 30
0.0
 10
-10.02854
 20
4.07724
 30
0.0
 10
-10.02069
 20
4.08167
 30
0.0
 10
-10.01352
 20
4.08643
 30
0.0
 10
-10.00698
 20
4.09138
 30
0.0
 10
-10.00698
 20
4.09138
 30
0.0
 10
-10.00043
 20
4.09634
 30
0.0
 10
-9.99456
 20
4.10147
 30
0.0
 10
-9.98948
 20
4.10655
 30
0.0
 10
-9.98948
 20
4.10655
 30
0.0
 10
-9.98441
 20
4.11163
 30
0.0
 10
-9.98007
 20
4.1167
 30
0.0
 10
-9.9765
 20
4.12169
 30
0.0
 10
-9.9765
 20
4.12169
 30
0.0
 10
-9.97292
 20
4.12669
 30
0.0
 10
-9.97018
 20
4.13155
 30
0.0
 10
-9.96832
 20
4.13615
 30
0.0
 10
-9.96832
 20
4.13615
 30
0.0
 10
-9.96647
 20
4.14074
 30
0.0
 10
-9.96549
 20
4.14511
 30
0.0
 10
-9.96549
 20
4.14921
 30
0.0
  0
SPLINE
  5
107
330
1F
100
AcDbEntity
  8
0
370
    15
100
AcDbSpline
210
0.0
220
0.0
230
1.0
 70
     8
 71
     3
 72
     8
 73
     4
 74
     0
 42
0.0000000001
 43
0.0000000001
 40
0.0
 40
0.0
 40
0.0
 40
0.0
 40
1.0
 40
1.0
 40
1.0
 40
1.0
 10
-9.96549
 20
4.14921
 30
0.0
 10
-9.96525
 20
4.14254
 30
0.0
 10
-9.95966
 20
4.13731
 30
0.0
 10
-9.95299
 20
4.13753
 30
0.0
  0
SPLINE
  5
108
330
1F
100
AcDbEntity
  8
0
370
    15
100
AcDbSpline
210
0.0
220
0.0
230
1.0
 70
     8
 71
     3
 72
     8
 73
     4
 74
     0
 42
0.0000000001
 43
0.0000000001
 40
0.0
 40
0.0
 40
0.0
 40
0.0
 40
1.0
 40
1.0
 40
1.0
 40
1.0
 10
-13.17799
 20
4.13753
 30
0.0
 10
-13.17131
 20
4.13731
 30
0.0
 10
-13.16572
 20
4.14254
 30
0.0
 10
-13.16549
 20
4.14921
 30
0.0
  0
SPLINE
  5
109
330
1F
100
AcDbEntity
  8
0
370
    15
100
AcDbSpline
210
0.0
220
0.0
230
1.0
 70
     8
 71
     3
 72
    32
 73
    28
 74
     0
 42
0.0000000001
 43
0.0000000001
 40
0.0
 40
0.0
 40
0.0
 40
0.0
 40
0.125
 40
0.125
 40
0.125
 40
0.125
 40
0.25
 40
0.25
 40
0.25
 40
0.25
 40
0.375
 40
0.375
 40
0.375
 40
0.375
 40
0.5
 40
0.5
 40
0.5
 40
0.5
 40
0.625
 40
0.625
 40
0.625
 40
0.625
 40
0.75
 40
0.75
 40
0.75
 40
0.75
 40
1.0
 40
1.0
 40
1.0
 40
1.0
 10
-13.16549
 20
4.14921
 30
0.0
 10
-13.16549
 20
4.14099
 30
0.0
 10
-13.16165
 20
4.13173
 30
0.0
 10
-13.15449
 20
4.12172
 30
0.0
 10
-13.15449
 20
4.12172
 30
0.0
 10
-13.15091
 20
4.11671
 30
0.0
 10
-13.14658
 20
4.11164
 30
0.0
 10
-13.1415
 20
4.10656
 30
0.0
 10
-13.1415
 20
4.10656
 30
0.0
 10
-13.13642
 20
4.10148
 30
0.0
 10
-13.13057
 20
4.09636
 30
0.0
 10
-13.124
 20
4.09139
 30
0.0
 10
-13.124
 20
4.09139
 30
0.0
 10
-13.11744
 20
4.08642
 30
0.0
 10
-13.11024
 20
4.08164
 30
0.0
 10
-13.1023
 20
4.07716
 30
0.0
 10
-13.1023
 20
4.07716
 30
0.0
 10
-13.09436
 20
4.07269
 30
0.0
 10
-13.08569
 20
4.06854
 30
0.0
 10
-13.07648
 20
4.06504
 30
0.0
 10
-13.07648
 20
4.06504
 30
0.0
 10
-13.06728
 20
4.06154
 30
0.0
 10
-13.05731
 20
4.05861
 30
0.0
 10
-13.04707
 20
4.05663
 30
0.0
 10
-13.04707
 20
4.05663
 30
0.0
 10
-13.03682
 20
4.05465
 30
0.0
 10
-13.02631
 20
4.05359
 30
0.0
 10
-13.01549
 20
4.05359
 30
0.0
  0
SPLINE
  5
10A
330
1F
100
AcDbEntity
  8
0
370
    15
100
AcDbSpline
210
0.0
220
0.0
230
1.0
 70
    24
 71
     3
 72
     8
 73
     4
 74
     0
 42
0.0000000001
 43
0.0000000001
 40
0.0
 40
0.0
 40
0.0
 40
0.0
 40
1.0
 40
1.0
 40
1.0
 40
1.0
 10
-13.01549
 20
4.04403
 30
0.0
 10
-13.01549
 20
4.04403
 30
0.0
 10
-13.01549
 20
4.05359
 30
0.0
 10
-13.01549
 20
4.05359
 30
0.0
  0
SPLINE
  5
10B
330
1F
100
AcDbEntity
  8
0
370
    15
100
AcDbSpline
210
0.0
220
0.0
230
1.0
 70
    24
 71
     3
 72
     8
 73
     4
 74
     0
 42
0.0000000001
 43
0.0000000001
 40
0.0
 40
0.0
 40
0.0
 40
0.0
 40
1.0
 40
1.0
 40
1.0
 40
1.0
 10
-13.01549
 20
4.05359
 30
0.0
 10
-13.01549
 20
4.05359
 30
0.0
 10
-10.11549
 20
4.05359
 30
0.0
 10
-10.11549
 20
4.05359
 30
0.0
  0
SPLINE
  5
10C
330
1F
100
AcDbEntity
  8
0
370
    15
100
AcDbSpline
210
0.0
220
0.0
230
1.0
 70
    24
 71
     3
 72
     8
 73
     4
 74
     0
 42
0.0000000001
 43
0.0000000001
 40
0.0
 40
0.0
 40
0.0
 40
0.0
 40
1.0
 40
1.0
 40
1.0
 40
1.0
 10
-10.11549
 20
4.24847
 30
0.0
 10
-10.11549
 20
4.24847
 30
0.0
 10
-13.01549
 20
4.24847
 30
0.0
 10
-13.01549
 20
4.24847
 30
0.0
  0
SPLINE
  5
10D
330
1F
100
AcDbEntity
  8
0
370
    15
100
AcDbSpline
210
0.0
220
0.0
230
1.0
 70
    24
 71
     3
 72
     8
 73
     4
 74
     0
 42
0.0000000001
 43
0.0000000001
 40
0.0
 40
0.0
 40
0.0
 40
0.0
 40
1.0
 40
1.0
 40
1.0
 40
1.0
 10
-13.01549
 20
4.24847
 30
0.0
 10
-13.01549
 20
4.24847
 30
0.0
 10
-13.01549
 20
4.27347
 30
0.0
 10
-13.01549
 20
4.27347
 30
0.0
  0
SPLINE
  5
10E
330
1F
100
AcDbEntity
  8
0
370
    15
100
AcDbSpline
210
0.0
220
0.0
230
1.0
 70
    24
 71
     3
 72
     8
 73
     4
 74
     0
 42
0.0000000001
 43
0.0000000001
 40
0.0
 40
0.0
 40
0.0
 40
0.0
 40
1.0
 40
1.0
 40
1.0
 40
1.0
 10
-13.01549
 20
4.27347
 30
0.0
 10
-13.01549
 20
4.27347
 30
0.0
 10
-10.11549
 20
4.27347
 30
0.0
 10
-10.11549
 20
4.27347
 30
0.0
  0
SPLINE
  5
10F
330
1F
100
AcDbEntity
  8
0
370
    15
100
AcDbSpline
210
0.0
220
0.0
230
1.0
 70
    24
 71
     3
 72
     8
 73
     4
 74
     0
 42
0.0000000001
 43
0.0000000001
 40
0.0
 40
0.0
 40
0.0
 40
0.0
 40
1.0
 40
1.0
 40
1.0
 40
1.0
 10
-10.11549
 20
4.24847
 30
0.0
 10
-10.11549
 20
4.24847
 30
0.0
 10
-10.11549
 20
4.27347
 30
0.0
 10
-10.11549
 20
4.27347
 30
0.0
  0
SPLINE
  5
110
330
1F
100
AcDbEntity
  8
0
370
    15
100
AcDbSpline
210
0.0
220
0.0
230
1.0
 70
    24
 71
     3
 72
     8
 73
     4
 74
     0
 42
0.0000000001
 43
0.0000000001
 40
0.0
 40
0.0
 40
0.0
 40
0.0
 40
1.0
 40
1.0
 40
1.0
 40
1.0
 10
-9.96549
 20
4.24847
 30
0.0
 10
-9.96549
 20
4.24847
 30
0.0
 10
-10.11549
 20
4.24847
 30
0.0
 10
-10.11549
 20
4.24847
 30
0.0
  0
SPLINE
  5
111
330
1F
100
AcDbEntity
  8
0
370
    15
100
AcDbSpline
210
0.0
220
0.0
230
1.0
 70
    24
 71
     3
 72
     8
 73
     4
 74
     0
 42
0.0000000001
 43
0.0000000001
 40
0.0
 40
0.0
 40
0.0
 40
0.0
 40
1.0
 40
1.0
 40
1.0
 40
1.0
 10
-10.11549
 20
4.27347
 30
0.0
 10
-10.11549
 20
4.27347
 30
0.0
 10
-9.99049
 20
4.27347
 30
0.0
 10
-9.99049
 20
4.27347
 30
0.0
  0
SPLINE
  5
112
330
1F
100
AcDbEntity
  8
0
370
    15
100
AcDbSpline
210
0.0
220
0.0
230
1.0
 70
     8
 71
     3
 72
    12
 73
     8
 74
     0
 42
0.0000000001
 43
0.0000000001
 40
0.0
 40
0.0
 40
0.0
 40
0.0
 40
0.3333333333333333
 40
0.3333333333333333
 40
0.3333333333333333
 40
0.3333333333333333
 40
1.0
 40
1.0
 40
1.0
 40
1.0
 10
-9.96549
 20
4.24847
 30
0.0
 10
-9.96549
 20
4.2551
 30
0.0
 10
-9.96812
 20
4.26146
 30
0.0
 10
-9.97281
 20
4.26615
 30
0.0
 10
-9.97281
 20
4.26615
 30
0.0
 10
-9.9775
 20
4.27084
 30
0.0
 10
-9.98386
 20
4.27347
 30
0.0
 10
-9.99049
 20
4.27347
 30
0.0
  0
SPLINE
  5
113
330
1F
100
AcDbEntity
  8
0
370
    15
100
AcDbSpline
210
0.0
220
0.0
230
1.0
 70
    24
 71
     3
 72
     8
 73
     4
 74
     0
 42
0.0000000001
 43
0.0000000001
 40
0.0
 40
0.0
 40
0.0
 40
0.0
 40
1.0
 40
1.0
 40
1.0
 40
1.0
 10
-9.96549
 20
4.24847
 30
0.0
 10
-9.96549
 20
4.24847
 30
0.0
 10
-9.96549
 20
4.14921
 30
0.0
 10
-9.96549
 20
4.14921
 30
0.0
  0
SPLINE
  5
114
330
1F
100
AcDbEntity
  8
0
370
    15
100
AcDbSpline
210
0.0
220
0.0
230
1.0
 70
    24
 71
     3
 72
     8
 73
     4
 74
     0
 42
0.0000000001
 43
0.0000000001
 40
0.0
 40
0.0
 40
0.0
 40
0.0
 40
1.0
 40
1.0
 40
1.0
 40
1.0
 10
-10.11549
 20
4.05359
 30
0.0
 10
-10.11549
 20
4.05359
 30
0.0
 10
-10.11549
 20
4.24847
 30
0.0
 10
-10.11549
 20
4.24847
 30
0.0
  0
SPLINE
  5
115
330
1F
100
AcDbEntity
  8
0
370
    15
100
AcDbSpline
210
0.0
220
0.0
230
1.0
 70
    24
 71
     3
 72
     8
 73
     4
 74
     0
 42
0.0000000001
 43
0.0000000001
 40
0.0
 40
0.0
 40
0.0
 40
0.0
 40
1.0
 40
1.0
 40
1.0
 40
1.0
 10
-13.01549
 20
4.24847
 30
0.0
 10
-13.01549
 20
4.24847
 30
0.0
 10
-13.01549
 20
4.05359
 30
0.0
 10
-13.01549
 20
4.05359
 30
0.0
  0
SPLINE
  5
116
330
1F
100
AcDbEntity
  8
0
370
    15
100
AcDbSpline
210
0.0
220
0.0
230
1.0
 70
    24
 71
     3
 72
     8
 73
     4
 74
     0
 42
0.0000000001
 43
0.0000000001
 40
0.0
 40
0.0
 40
0.0
 40
0.0
 40
1.0
 40
1.0
 40
1.0
 40
1.0
 10
-13.01549
 20
4.24847
 30
0.0
 10
-13.01549
 20
4.24847
 30
0.0
 10
-13.16549
 20
4.24847
 30
0.0
 10
-13.16549
 20
4.24847
 30
0.0
  0
SPLINE
  5
117
330
1F
100
AcDbEntity
  8
0
370
    15
100
AcDbSpline
210
0.0
220
0.0
230
1.0
 70
    24
 71
     3
 72
     8
 73
     4
 74
     0
 42
0.0000000001
 43
0.0000000001
 40
0.0
 40
0.0
 40
0.0
 40
0.0
 40
1.0
 40
1.0
 40
1.0
 40
1.0
 10
-13.16549
 20
4.14921
 30
0.0
 10
-13.16549
 20
4.14921
 30
0.0
 10
-13.16549
 20
4.24847
 30
0.0
 10
-13.16549
 20
4.24847
 30
0.0
  0
SPLINE
  5
118
330
1F
100
AcDbEntity
  8
0
370
    15
100
AcDbSpline
210
0.0
220
0.0
230
1.0
 70
     8
 71
     3
 72
    12
 73
     8
 74
     0
 42
0.0000000001
 43
0.0000000001
 40
0.0
 40
0.0
 40
0.0
 40
0.0
 40
0.3333333333333333
 40
0.3333333333333333
 40
0.3333333333333333
 40
0.3333333333333333
 40
1.0
 40
1.0
 40
1.0
 40
1.0
 10
-13.14049
 20
4.27347
 30
0.0
 10
-13.14712
 20
4.27347
 30
0.0
 10
-13.15348
 20
4.27084
 30
0.0
 10
-13.15816
 20
4.26615
 30
0.0
 10
-13.15816
 20
4.26615
 30
0.0
 10
-13.16285
 20
4.26146
 30
0.0
 10
-13.16549
 20
4.2551
 30
0.0
 10
-13.16549
 20
4.24847
 30
0.0
  0
SPLINE
  5
119
330
1F
100
AcDbEntity
  8
0
370
    15
100
AcDbSpline
210
0.0
220
0.0
230
1.0
 70
    24
 71
     3
 72
     8
 73
     4
 74
     0
 42
0.0000000001
 43
0.0000000001
 40
0.0
 40
0.0
 40
0.0
 40
0.0
 40
1.0
 40
1.0
 40
1.0
 40
1.0
 10
-13.14049
 20
4.27347
 30
0.0
 10
-13.14049
 20
4.27347
 30
0.0
 10
-13.01549
 20
4.27347
 30
0.0
 10
-13.01549
 20
4.27347
 30
0.0
  0
SPLINE
  5
11A
330
1F
100
AcDbEntity
  8
0
370
    15
100
AcDbSpline
210
0.0
220
0.0
230
1.0
 70
     8
 71
     3
 72
    12
 73
     8
 74
     0
 42
0.0000000001
 43
0.0000000001
 40
0.0
 40
0.0
 40
0.0
 40
0.0
 40
0.3333333333333333
 40
0.3333333333333333
 40
0.3333333333333333
 40
0.3333333333333333
 40
1.0
 40
1.0
 40
1.0
 40
1.0
 10
-9.96549
 20
4.18597
 30
0.0
 10
-9.96549
 20
4.18266
 30
0.0
 10
-9.96417
 20
4.17948
 30
0.0
 10
-9.96182
 20
4.17713
 30
0.0
 10
-9.96182
 20
4.17713
 30
0.0
 10
-9.95948
 20
4.17479
 30
0.0
 10
-9.9563
 20
4.17347
 30
0.0
 10
-9.95299
 20
4.17347
 30
0.0
  0
SPLINE
  5
11B
330
1F
100
AcDbEntity
  8
0
370
    15
100
AcDbSpline
210
0.0
220
0.0
230
1.0
 70
     8
 71
     3
 72
     8
 73
     4
 74
     0
 42
0.0000000001
 43
0.0000000001
 40
0.0
 40
0.0
 40
0.0
 40
0.0
 40
1.0
 40
1.0
 40
1.0
 40
1.0
 10
-13.17799
 20
4.17347
 30
0.0
 10
-13.17108
 20
4.17347
 30
0.0
 10
-13.16549
 20
4.17907
 30
0.0
 10
-13.16549
 20
4.18597
 30
0.0
  0
SPLINE
  5
11C
330
1F
100
AcDbEntity
  8
0
370
    15
100
AcDbSpline
210
0.0
220
0.0
230
1.0
 70
     8
 71
     3
 72
     8
 73
     4
 74
     0
 42
0.0000000001
 43
0.0000000001
 40
0.0
 40
0.0
 40
0.0
 40
0.0
 40
1.0
 40
1.0
 40
1.0
 40
1.0
 10
-13.20664
 20
4.17347
 30
0.0
 10
-13.21198
 20
4.17347
 30
0.0
 10
-13.21672
 20
4.17008
 30
0.0
 10
-13.21846
 20
4.16504
 30
0.0
  0
SPLINE
  5
11D
330
1F
100
AcDbEntity
  8
0
370
    15
100
AcDbSpline
210
0.0
220
0.0
230
1.0
 70
     8
 71
     3
 72
     8
 73
     4
 74
     0
 42
0.0000000001
 43
0.0000000001
 40
0.0
 40
0.0
 40
0.0
 40
0.0
 40
1.0
 40
1.0
 40
1.0
 40
1.0
 10
-9.91255
 20
4.16496
 30
0.0
 10
-9.91426
 20
4.17005
 30
0.0
 10
-9.91903
 20
4.17347
 30
0.0
 10
-9.92439
 20
4.17347
 30
0.0
  0
SPLINE
  5
11E
330
1F
100
AcDbEntity
  8
0
 62
     8
370
    15
100
AcDbSpline
210
0.0
220
0.0
230
1.0
 70
    24
 71
     3
 72
     8
 73
     4
 74
     0
 42
0.0000000001
 43
0.0000000001
 40
0.0
 40
0.0
 40
0.0
 40
0.0
 40
1.0
 40
1.0
 40
1.0
 40
1.0
 10
-9.91258
 20
4.1648
 30
0.0
 10
-9.91258
 20
4.1648
 30
0.0
 10
-9.91261
 20
4.16408
 30
0.0
 10
-9.91261
 20
4.16408
 30
0.0
  0
SPLINE
  5
11F
330
1F
100
AcDbEntity
  8
0
 62
     8
370
    15
100
AcDbSpline
210
0.0
220
0.0
230
1.0
 70
    24
 71
     3
 72
     8
 73
     4
 74
     0
 42
0.0000000001
 43
0.0000000001
 40
0.0
 40
0.0
 40
0.0
 40
0.0
 40
1.0
 40
1.0
 40
1.0
 40
1.0
 10
-13.21839
 20
4.1641
 30
0.0
 10
-13.21839
 20
4.1641
 30
0.0
 10
-13.21842
 20
4.16486
 30
0.0
 10
-13.21842
 20
4.16486
 30
0.0
  0
SPLINE
  5
120
330
1F
100
AcDbEntity
  8
0
 62
     8
370
    15
100
AcDbSpline
210
0.0
220
0.0
230
1.0
 70
    24
 71
     3
 72
     8
 73
     4
 74
     0
 42
0.0000000001
 43
0.0000000001
 40
0.0
 40
0.0
 40
0.0
 40
0.0
 40
1.0
 40
1.0
 40
1.0
 40
1.0
 10
-13.21842
 20
4.16486
 30
0.0
 10
-13.21842
 20
4.16486
 30
0.0
 10
-13.21843
 20
4.16491
 30
0.0
 10
-13.21843
 20
4.16491
 30
0.0
  0
SPLINE
  5
121
330
1F
100
AcDbEntity
  8
0
 62
     8
370
    15
100
AcDbSpline
210
0.0
220
0.0
230
1.0
 70
    24
 71
     3
 72
     8
 73
     4
 74
     0
 42
0.0000000001
 43
0.0000000001
 40
0.0
 40
0.0
 40
0.0
 40
0.0
 40
1.0
 40
1.0
 40
1.0
 40
1.0
 10
-9.91257
 20
4.16487
 30
0.0
 10
-9.91257
 20
4.16487
 30
0.0
 10
-9.91258
 20
4.1648
 30
0.0
 10
-9.91258
 20
4.1648
 30
0.0
  0
SPLINE
  5
122
330
1F
100
AcDbEntity
  8
0
100
AcDbSpline
210
0.0
220
0.0
230
1.0
 70
    27
 71
     3
 72
    12
 73
     8
 74
     0
 42
0.0000000001
 43
0.0000000001
 40
0.0
 40
0.0
 40
0.0
 40
0.0
 40
0.3333333333333333
 40
0.3333333333333333
 40
0.3333333333333333
 40
0.3333333333333333
 40
1.0
 40
1.0
 40
1.0
 40
1.0
 10
-3.56549
 20
4.27847
 30
0.0
 10
-3.56549
 20
4.27847
 30
0.0
 10
-3.51469
 20
3.94827
 30
0.0
 10
-3.51469
 20
3.94827
 30
0.0
 10
-3.51469
 20
3.94827
 30
0.0
 10
-3.51469
 20
3.94827
 30
0.0
 10
-3.56549
 20
4.27847
 30
0.0
 10
-3.56549
 20
4.27847
 30
0.0
  0
SPLINE
  5
123
330
1F
100
AcDbEntity
  8
0
100
AcDbSpline
210
0.0
220
0.0
230
1.0
 70
     8
 71
     3
 72
    12
 73
     8
 74
     0
 42
0.0000000001
 43
0.0000000001
 40
0.0
 40
0.0
 40
0.0
 40
0.0
 40
0.3333333333333333
 40
0.3333333333333333
 40
0.3333333333333333
 40
0.3333333333333333
 40
1.0
 40
1.0
 40
1.0
 40
1.0
 10
-3.51469
 20
3.94827
 30
0.0
 10
-3.51469
 20
3.94827
 30
0.0
 10
-3.61629
 20
3.94827
 30
0.0
 10
-3.61629
 20
3.94827
 30
0.0
 10
-3.61629
 20
3.94827
 30
0.0
 10
-3.61629
 20
3.94827
 30
0.0
 10
-3.56549
 20
4.27847
 30
0.0
 10
-3.56549
 20
4.27847
 30
0.0
  0
SPLINE
  5
124
330
1F
100
AcDbEntity
  8
0
370
     9
100
AcDbSpline
210
0.0
220
0.0
230
1.0
 70
    24
 71
     3
 72
     8
 73
     4
 74
     0
 42
0.0000000001
 43
0.0000000001
 40
0.0
 40
0.0
 40
0.0
 40
0.0
 40
1.0
 40
1.0
 40
1.0
 40
1.0
 10
-3.56549
 20
4.27847
 30
0.0
 10
-3.56549
 20
4.27847
 30
0.0
 10
-3.51469
 20
3.94827
 30
0.0
 10
-3.51469
 20
3.94827
 30
0.0
  0
SPLINE
  5
125
330
1F
100
AcDbEntity
  8
0
370
     9
100
AcDbSpline
210
0.0
220
0.0
230
1.0
 70
     8
 71
     3
 72
    12
 73
     8
 74
     0
 42
0.0000000001
 43
0.0000000001
 40
0.0
 40
0.0
 40
0.0
 40
0.0
 40
0.3333333333333333
 40
0.3333333333333333
 40
0.3333333333333333
 40
0.3333333333333333
 40
1.0
 40
1.0
 40
1.0
 40
1.0
 10
-3.51469
 20
3.94827
 30
0.0
 10
-3.51469
 20
3.94827
 30
0.0
 10
-3.61629
 20
3.94827
 30
0.0
 10
-3.61629
 20
3.94827
 30
0.0
 10
-3.61629
 20
3.94827
 30
0.0
 10
-3.61629
 20
3.94827
 30
0.0
 10
-3.56549
 20
4.27847
 30
0.0
 10
-3.56549
 20
4.27847
 30
0.0
  0
SPLINE
  5
126
330
1F
100
AcDbEntity
  8
0
100
AcDbSpline
210
0.0
220
0.0
230
1.0
 70
    27
 71
     3
 72
    12
 73
     8
 74
     0
 42
0.0000000001
 43
0.0000000001
 40
0.0
 40
0.0
 40
0.0
 40
0.0
 40
0.3333333333333333
 40
0.3333333333333333
 40
0.3333333333333333
 40
0.3333333333333333
 40
1.0
 40
1.0
 40
1.0
 40
1.0
 10
-3.56549
 20
-0.52653
 30
0.0
 10
-3.56549
 20
-0.52653
 30
0.0
 10
-3.61629
 20
-0.19633
 30
0.0
 10
-3.61629
 20
-0.19633
 30
0.0
 10
-3.61629
 20
-0.19633
 30
0.0
 10
-3.61629
 20
-0.19633
 30
0.0
 10
-3.56549
 20
-0.52653
 30
0.0
 10
-3.56549
 20
-0.52653
 30
0.0
  0
SPLINE
  5
127
330
1F
100
AcDbEntity
  8
0
100
AcDbSpline
210
0.0
220
0.0
230
1.0
 70
     8
 71
     3
 72
    12
 73
     8
 74
     0
 42
0.0000000001
 43
0.0000000001
 40
0.0
 40
0.0
 40
0.0
 40
0.0
 40
0.3333333333333333
 40
0.3333333333333333
 40
0.3333333333333333
 40
0.3333333333333333
 40
1.0
 40
1.0
 40
1.0
 40
1.0
 10
-3.61629
 20
-0.19633
 30
0.0
 10
-3.61629
 20
-0.19633
 30
0.0
 10
-3.51469
 20
-0.19633
 30
0.0
 10
-3.51469
 20
-0.19633
 30
0.0
 10
-3.51469
 20
-0.19633
 30
0.0
 10
-3.51469
 20
-0.19633
 30
0.0
 10
-3.56549
 20
-0.52653
 30
0.0
 10
-3.56549
 20
-0.52653
 30
0.0
  0
SPLINE
  5
128
330
1F
100
AcDbEntity
  8
0
370
     9
100
AcDbSpline
210
0.0
220
0.0
230
1.0
 70
    24
 71
     3
 72
     8
 73
     4
 74
     0
 42
0.0000000001
 43
0.0000000001
 40
0.0
 40
0.0
 40
0.0
 40
0.0
 40
1.0
 40
1.0
 40
1.0
 40
1.0
 10
-3.56549
 20
-0.52653
 30
0.0
 10
-3.56549
 20
-0.52653
 30
0.0
 10
-3.61629
 20
-0.19633
 30
0.0
 10
-3.61629
 20
-0.19633
 30
0.0
  0
SPLINE
  5
129
330
1F
100
AcDbEntity
  8
0
370
     9
100
AcDbSpline
210
0.0
220
0.0
230
1.0
 70
     8
 71
     3
 72
    12
 73
     8
 74
     0
 42
0.0000000001
 43
0.0000000001
 40
0.0
 40
0.0
 40
0.0
 40
0.0
 40
0.3333333333333333
 40
0.3333333333333333
 40
0.3333333333333333
 40
0.3333333333333333
 40
1.0
 40
1.0
 40
1.0
 40
1.0
 10
-3.61629
 20
-0.19633
 30
0.0
 10
-3.61629
 20
-0.19633
 30
0.0
 10
-3.51469
 20
-0.19633
 30
0.0
 10
-3.51469
 20
-0.19633
 30
0.0
 10
-3.51469
 20
-0.19633
 30
0.0
 10
-3.51469
 20
-0.19633
 30
0.0
 10
-3.56549
 20
-0.52653
 30
0.0
 10
-3.56549
 20
-0.52653
 30
0.0
  0
SPLINE
  5
12A
330
1F
100
AcDbEntity
  8
0
370
     9
100
AcDbSpline
210
0.0
220
0.0
230
1.0
 70
    24
 71
     3
 72
     8
 73
     4
 74
     0
 42
0.0000000001
 43
0.0000000001
 40
0.0
 40
0.0
 40
0.0
 40
0.0
 40
1.0
 40
1.0
 40
1.0
 40
1.0
 10
-10.17799
 20
4.27847
 30
0.0
 10
-10.17799
 20
4.27847
 30
0.0
 10
-3.46549
 20
4.27847
 30
0.0
 10
-3.46549
 20
4.27847
 30
0.0
  0
SPLINE
  5
12B
330
1F
100
AcDbEntity
  8
0
370
     9
100
AcDbSpline
210
0.0
220
0.0
230
1.0
 70
    24
 71
     3
 72
     8
 73
     4
 74
     0
 42
0.0000000001
 43
0.0000000001
 40
0.0
 40
0.0
 40
0.0
 40
0.0
 40
1.0
 40
1.0
 40
1.0
 40
1.0
 10
-4.46549
 20
-0.52653
 30
0.0
 10
-4.46549
 20
-0.52653
 30
0.0
 10
-3.46549
 20
-0.52653
 30
0.0
 10
-3.46549
 20
-0.52653
 30
0.0
  0
SPLINE
  5
12C
330
1F
100
AcDbEntity
  8
0
370
     9
100
AcDbSpline
210
0.0
220
0.0
230
1.0
 70
    24
 71
     3
 72
     8
 73
     4
 74
     0
 42
0.0000000001
 43
0.0000000001
 40
0.0
 40
0.0
 40
0.0
 40
0.0
 40
1.0
 40
1.0
 40
1.0
 40
1.0
 10
-3.56549
 20
4.27847
 30
0.0
 10
-3.56549
 20
4.27847
 30
0.0
 10
-3.56549
 20
-0.52653
 30
0.0
 10
-3.56549
 20
-0.52653
 30
0.0
  0
SPLINE
  5
12D
330
1F
100
AcDbEntity
  8
0
100
AcDbSpline
210
0.0
220
0.0
230
1.0
 70
    11
 71
     3
 72
    92
 73
    88
 74
     0
 42
0.0000000001
 43
0.0000000001
 40
0.0
 40
0.0
 40
0.0
 40
0.0
 40
0.0434782608695652
 40
0.0434782608695652
 40
0.0434782608695652
 40
0.0434782608695652
 40
0.0869565217391304
 40
0.0869565217391304
 40
0.0869565217391304
 40
0.0869565217391304
 40
0.1304347826086956
 40
0.1304347826086956
 40
0.1304347826086956
 40
0.1304347826086956
 40
0.1739130434782609
 40
0.1739130434782609
 40
0.1739130434782609
 40
0.1739130434782609
 40
0.2173913043478261
 40
0.2173913043478261
 40
0.2173913043478261
 40
0.2173913043478261
 40
0.2608695652173913
 40
0.2608695652173913
 40
0.2608695652173913
 40
0.2608695652173913
 40
0.3043478260869565
 40
0.3043478260869565
 40
0.3043478260869565
 40
0.3043478260869565
 40
0.3478260869565217
 40
0.3478260869565217
 40
0.3478260869565217
 40
0.3478260869565217
 40
0.391304347826087
 40
0.391304347826087
 40
0.391304347826087
 40
0.391304347826087
 40
0.4347826086956522
 40
0.4347826086956522
 40
0.4347826086956522
 40
0.4347826086956522
 40
0.4782608695652174
 40
0.4782608695652174
 40
0.4782608695652174
 40
0.4782608695652174
 40
0.5217391304347826
 40
0.5217391304347826
 40
0.5217391304347826
 40
0.5217391304347826
 40
0.5652173913043478
 40
0.5652173913043478
 40
0.5652173913043478
 40
0.5652173913043478
 40
0.6086956521739131
 40
0.6086956521739131
 40
0.6086956521739131
 40
0.6086956521739131
 40
0.6521739130434783
 40
0.6521739130434783
 40
0.6521739130434783
 40
0.6521739130434783
 40
0.6956521739130435
 40
0.6956521739130435
 40
0.6956521739130435
 40
0.6956521739130435
 40
0.7391304347826086
 40
0.7391304347826086
 40
0.7391304347826086
 40
0.7391304347826086
 40
0.782608695652174
 40
0.782608695652174
 40
0.782608695652174
 40
0.782608695652174
 40
0.8260869565217391
 40
0.8260869565217391
 40
0.8260869565217391
 40
0.8260869565217391
 40
0.8695652173913043
 40
0.8695652173913043
 40
0.8695652173913043
 40
0.8695652173913043
 40
0.9130434782608695
 40
0.9130434782608695
 40
0.9130434782608695
 40
0.9130434782608695
 40
1.0
 40
1.0
 40
1.0
 40
1.0
 10
-3.75771
 20
1.70611
 30
0.0
 10
-3.75771
 20
1.70611
 30
0.0
 10
-3.76046
 20
1.73569
 30
0.0
 10
-3.76046
 20
1.73569
 30
0.0
 10
-3.76046
 20
1.73569
 30
0.0
 10
-3.74657
 20
1.7382
 30
0.0
 10
-3.73648
 20
1.74298
 30
0.0
 10
-3.73018
 20
1.75004
 30
0.0
 10
-3.73018
 20
1.75004
 30
0.0
 10
-3.72394
 20
1.7571
 30
0.0
 10
-3.72079
 20
1.76614
 30
0.0
 10
-3.72079
 20
1.77722
 30
0.0
 10
-3.72079
 20
1.77722
 30
0.0
 10
-3.72079
 20
1.78667
 30
0.0
 10
-3.72295
 20
1.79495
 30
0.0
 10
-3.72732
 20
1.80207
 30
0.0
 10
-3.72732
 20
1.80207
 30
0.0
 10
-3.73164
 20
1.80919
 30
0.0
 10
-3.73741
 20
1.81502
 30
0.0
 10
-3.74465
 20
1.81957
 30
0.0
 10
-3.74465
 20
1.81957
 30
0.0
 10
-3.75188
 20
1.82418
 30
0.0
 10
-3.76168
 20
1.82797
 30
0.0
 10
-3.77393
 20
1.83106
 30
0.0
 10
-3.77393
 20
1.83106
 30
0.0
 10
-3.78624
 20
1.8341
 30
0.0
 10
-3.79878
 20
1.83567
 30
0.0
 10
-3.81156
 20
1.83567
 30
0.0
 10
-3.81156
 20
1.83567
 30
0.0
 10
-3.8129
 20
1.83567
 30
0.0
 10
-3.815
 20
1.83561
 30
0.0
 10
-3.81768
 20
1.8355
 30
0.0
 10
-3.81768
 20
1.8355
 30
0.0
 10
-3.80794
 20
1.82931
 30
0.0
 10
-3.79995
 20
1.82091
 30
0.0
 10
-3.79388
 20
1.8103
 30
0.0
 10
-3.79388
 20
1.8103
 30
0.0
 10
-3.78776
 20
1.79962
 30
0.0
 10
-3.78472
 20
1.78807
 30
0.0
 10
-3.78472
 20
1.7757
 30
0.0
 10
-3.78472
 20
1.7757
 30
0.0
 10
-3.78472
 20
1.75494
 30
0.0
 10
-3.79225
 20
1.73738
 30
0.0
 10
-3.8073
 20
1.72303
 30
0.0
 10
-3.8073
 20
1.72303
 30
0.0
 10
-3.82235
 20
1.70868
 30
0.0
 10
-3.84212
 20
1.7015
 30
0.0
 10
-3.86674
 20
1.7015
 30
0.0
 10
-3.86674
 20
1.7015
 30
0.0
 10
-3.89217
 20
1.7015
 30
0.0
 10
-3.91259
 20
1.70897
 30
0.0
 10
-3.92811
 20
1.72396
 30
0.0
 10
-3.92811
 20
1.72396
 30
0.0
 10
-3.94362
 20
1.73895
 30
0.0
 10
-3.95132
 20
1.75774
 30
0.0
 10
-3.95132
 20
1.78031
 30
0.0
 10
-3.95132
 20
1.78031
 30
0.0
 10
-3.95132
 20
1.79659
 30
0.0
 10
-3.94695
 20
1.81146
 30
0.0
 10
-3.9382
 20
1.825
 30
0.0
 10
-3.9382
 20
1.825
 30
0.0
 10
-3.92945
 20
1.83847
 30
0.0
 10
-3.91691
 20
1.84874
 30
0.0
 10
-3.90069
 20
1.85574
 30
0.0
 10
-3.90069
 20
1.85574
 30
0.0
 10
-3.88447
 20
1.86274
 30
0.0
 10
-3.86096
 20
1.86624
 30
0.0
 10
-3.83016
 20
1.86624
 30
0.0
 10
-3.83016
 20
1.86624
 30
0.0
 10
-3.7982
 20
1.86624
 30
0.0
 10
-3.77271
 20
1.8628
 30
0.0
 10
-3.75369
 20
1.85585
 30
0.0
 10
-3.75369
 20
1.85585
 30
0.0
 10
-3.73473
 20
1.84885
 30
0.0
 10
-3.72032
 20
1.83853
 30
0.0
 10
-3.71041
 20
1.82482
 30
0.0
 10
-3.71041
 20
1.82482
 30
0.0
 10
-3.70049
 20
1.81105
 30
0.0
 10
-3.69553
 20
1.79501
 30
0.0
 10
-3.69553
 20
1.77652
 30
0.0
 10
-3.69553
 20
1.77652
 30
0.0
 10
-3.69553
 20
1.75692
 30
0.0
 10
-3.70096
 20
1.74094
 30
0.0
 10
-3.71186
 20
1.72851
 30
0.0
 10
-3.71186
 20
1.72851
 30
0.0
 10
-3.72271
 20
1.71609
 30
0.0
 10
-3.738
 20
1.70862
 30
0.0
 10
-3.75771
 20
1.70611
 30
0.0
  0
SPLINE
  5
12E
330
1F
100
AcDbEntity
  8
0
100
AcDbSpline
210
0.0
220
0.0
230
1.0
 70
    11
 71
     3
 72
    36
 73
    32
 74
     0
 42
0.0000000001
 43
0.0000000001
 40
0.0
 40
0.0
 40
0.0
 40
0.0
 40
0.1111111111111111
 40
0.1111111111111111
 40
0.1111111111111111
 40
0.1111111111111111
 40
0.2222222222222222
 40
0.2222222222222222
 40
0.2222222222222222
 40
0.2222222222222222
 40
0.3333333333333333
 40
0.3333333333333333
 40
0.3333333333333333
 40
0.3333333333333333
 40
0.4444444444444444
 40
0.4444444444444444
 40
0.4444444444444444
 40
0.4444444444444444
 40
0.5555555555555556
 40
0.5555555555555556
 40
0.5555555555555556
 40
0.5555555555555556
 40
0.6666666666666666
 40
0.6666666666666666
 40
0.6666666666666666
 40
0.6666666666666666
 40
0.7777777777777778
 40
0.7777777777777778
 40
0.7777777777777778
 40
0.7777777777777778
 40
1.0
 40
1.0
 40
1.0
 40
1.0
 10
-3.86831
 20
1.83205
 30
0.0
 10
-3.88593
 20
1.83205
 30
0.0
 10
-3.89999
 20
1.82739
 30
0.0
 10
-3.91031
 20
1.818
 30
0.0
 10
-3.91031
 20
1.818
 30
0.0
 10
-3.9207
 20
1.80855
 30
0.0
 10
-3.92589
 20
1.79729
 30
0.0
 10
-3.92589
 20
1.78405
 30
0.0
 10
-3.92589
 20
1.78405
 30
0.0
 10
-3.92589
 20
1.7704
 30
0.0
 10
-3.92029
 20
1.7585
 30
0.0
 10
-3.90915
 20
1.74835
 30
0.0
 10
-3.90915
 20
1.74835
 30
0.0
 10
-3.89795
 20
1.7382
 30
0.0
 10
-3.88348
 20
1.73312
 30
0.0
 10
-3.86575
 20
1.73312
 30
0.0
 10
-3.86575
 20
1.73312
 30
0.0
 10
-3.84976
 20
1.73312
 30
0.0
 10
-3.83681
 20
1.73796
 30
0.0
 10
-3.82684
 20
1.74759
 30
0.0
 10
-3.82684
 20
1.74759
 30
0.0
 10
-3.81686
 20
1.75721
 30
0.0
 10
-3.81191
 20
1.76905
 30
0.0
 10
-3.81191
 20
1.78317
 30
0.0
 10
-3.81191
 20
1.78317
 30
0.0
 10
-3.81191
 20
1.79746
 30
0.0
 10
-3.81686
 20
1.80913
 30
0.0
 10
-3.82684
 20
1.81829
 30
0.0
 10
-3.82684
 20
1.81829
 30
0.0
 10
-3.83681
 20
1.8275
 30
0.0
 10
-3.85064
 20
1.83205
 30
0.0
 10
-3.86831
 20
1.83205
 30
0.0
  0
SPLINE
  5
12F
330
1F
100
AcDbEntity
  8
0
100
AcDbSpline
210
0.0
220
0.0
230
1.0
 70
    11
 71
     3
 72
    80
 73
    76
 74
     0
 42
0.0000000001
 43
0.0000000001
 40
0.0
 40
0.0
 40
0.0
 40
0.0
 40
0.05
 40
0.05
 40
0.05
 40
0.05
 40
0.1
 40
0.1
 40
0.1
 40
0.1
 40
0.15
 40
0.15
 40
0.15
 40
0.15
 40
0.2
 40
0.2
 40
0.2
 40
0.2
 40
0.25
 40
0.25
 40
0.25
 40
0.25
 40
0.3
 40
0.3
 40
0.3
 40
0.3
 40
0.35
 40
0.35
 40
0.35
 40
0.35
 40
0.4
 40
0.4
 40
0.4
 40
0.4
 40
0.45
 40
0.45
 40
0.45
 40
0.45
 40
0.5
 40
0.5
 40
0.5
 40
0.5
 40
0.55
 40
0.55
 40
0.55
 40
0.55
 40
0.6
 40
0.6
 40
0.6
 40
0.6
 40
0.65
 40
0.65
 40
0.65
 40
0.65
 40
0.7
 40
0.7
 40
0.7
 40
0.7
 40
0.75
 40
0.75
 40
0.75
 40
0.75
 40
0.8
 40
0.8
 40
0.8
 40
0.8
 40
0.85
 40
0.85
 40
0.85
 40
0.85
 40
0.9
 40
0.9
 40
0.9
 40
0.9
 40
1.0
 40
1.0
 40
1.0
 40
1.0
 10
-3.88896
 20
2.05576
 30
0.0
 10
-3.88896
 20
2.05576
 30
0.0
 10
-3.88657
 20
2.0252
 30
0.0
 10
-3.88657
 20
2.0252
 30
0.0
 10
-3.88657
 20
2.0252
 30
0.0
 10
-3.89865
 20
2.02246
 30
0.0
 10
-3.90746
 20
2.01861
 30
0.0
 10
-3.91288
 20
2.01359
 30
0.0
 10
-3.91288
 20
2.01359
 30
0.0
 10
-3.92169
 20
2.00525
 30
0.0
 10
-3.92606
 20
1.99498
 30
0.0
 10
-3.92606
 20
1.98279
 30
0.0
 10
-3.92606
 20
1.98279
 30
0.0
 10
-3.92606
 20
1.97299
 30
0.0
 10
-3.92332
 20
1.96441
 30
0.0
 10
-3.91784
 20
1.95701
 30
0.0
 10
-3.91784
 20
1.95701
 30
0.0
 10
-3.91078
 20
1.94732
 30
0.0
 10
-3.90046
 20
1.93968
 30
0.0
 10
-3.88692
 20
1.93408
 30
0.0
 10
-3.88692
 20
1.93408
 30
0.0
 10
-3.87339
 20
1.92854
 30
0.0
 10
-3.85408
 20
1.92562
 30
0.0
 10
-3.829
 20
1.92539
 30
0.0
 10
-3.829
 20
1.92539
 30
0.0
 10
-3.84026
 20
1.9328
 30
0.0
 10
-3.84866
 20
1.94184
 30
0.0
 10
-3.85414
 20
1.95257
 30
0.0
 10
-3.85414
 20
1.95257
 30
0.0
 10
-3.85956
 20
1.96325
 30
0.0
 10
-3.86231
 20
1.97451
 30
0.0
 10
-3.86231
 20
1.98623
 30
0.0
 10
-3.86231
 20
1.98623
 30
0.0
 10
-3.86231
 20
2.00676
 30
0.0
 10
-3.85478
 20
2.02421
 30
0.0
 10
-3.83967
 20
2.03861
 30
0.0
 10
-3.83967
 20
2.03861
 30
0.0
 10
-3.82456
 20
2.05302
 30
0.0
 10
-3.80508
 20
2.06026
 30
0.0
 10
-3.78116
 20
2.06026
 30
0.0
 10
-3.78116
 20
2.06026
 30
0.0
 10
-3.76541
 20
2.06026
 30
0.0
 10
-3.75083
 20
2.05681
 30
0.0
 10
-3.7373
 20
2.05005
 30
0.0
 10
-3.7373
 20
2.05005
 30
0.0
 10
-3.72382
 20
2.04328
 30
0.0
 10
-3.71344
 20
2.03395
 30
0.0
 10
-3.70626
 20
2.02211
 30
0.0
 10
-3.70626
 20
2.02211
 30
0.0
 10
-3.69909
 20
2.01026
 30
0.0
 10
-3.69553
 20
1.99685
 30
0.0
 10
-3.69553
 20
1.9818
 30
0.0
 10
-3.69553
 20
1.9818
 30
0.0
 10
-3.69553
 20
1.95613
 30
0.0
 10
-3.70492
 20
1.93525
 30
0.0
 10
-3.72382
 20
1.91909
 30
0.0
 10
-3.72382
 20
1.91909
 30
0.0
 10
-3.74266
 20
1.90287
 30
0.0
 10
-3.77376
 20
1.89482
 30
0.0
 10
-3.81704
 20
1.89482
 30
0.0
 10
-3.81704
 20
1.89482
 30
0.0
 10
-3.86546
 20
1.89482
 30
0.0
 10
-3.90063
 20
1.90375
 30
0.0
 10
-3.92262
 20
1.92166
 30
0.0
 10
-3.92262
 20
1.92166
 30
0.0
 10
-3.94176
 20
1.93723
 30
0.0
 10
-3.95132
 20
1.95823
 30
0.0
 10
-3.95132
 20
1.98471
 30
0.0
 10
-3.95132
 20
1.98471
 30
0.0
 10
-3.95132
 20
2.00437
 30
0.0
 10
-3.94584
 20
2.02053
 30
0.0
 10
-3.93476
 20
2.03313
 30
0.0
 10
-3.93476
 20
2.03313
 30
0.0
 10
-3.92373
 20
2.04573
 30
0.0
 10
-3.90845
 20
2.05326
 30
0.0
 10
-3.88896
 20
2.05576
 30
0.0
  0
SPLINE
  5
130
330
1F
100
AcDbEntity
  8
0
100
AcDbSpline
210
0.0
220
0.0
230
1.0
 70
    11
 71
     3
 72
    40
 73
    36
 74
     0
 42
0.0000000001
 43
0.0000000001
 40
0.0
 40
0.0
 40
0.0
 40
0.0
 40
0.1
 40
0.1
 40
0.1
 40
0.1
 40
0.2
 40
0.2
 40
0.2
 40
0.2
 40
0.3
 40
0.3
 40
0.3
 40
0.3
 40
0.4
 40
0.4
 40
0.4
 40
0.4
 40
0.5
 40
0.5
 40
0.5
 40
0.5
 40
0.6
 40
0.6
 40
0.6
 40
0.6
 40
0.7
 40
0.7
 40
0.7
 40
0.7
 40
0.8
 40
0.8
 40
0.8
 40
0.8
 40
1.0
 40
1.0
 40
1.0
 40
1.0
 10
-3.78099
 20
1.93017
 30
0.0
 10
-3.77037
 20
1.93017
 30
0.0
 10
-3.76022
 20
1.93245
 30
0.0
 10
-3.75054
 20
1.93694
 30
0.0
 10
-3.75054
 20
1.93694
 30
0.0
 10
-3.74086
 20
1.94143
 30
0.0
 10
-3.73351
 20
1.94773
 30
0.0
 10
-3.72843
 20
1.95578
 30
0.0
 10
-3.72843
 20
1.95578
 30
0.0
 10
-3.72336
 20
1.96389
 30
0.0
 10
-3.72079
 20
1.97241
 30
0.0
 10
-3.72079
 20
1.98127
 30
0.0
 10
-3.72079
 20
1.98127
 30
0.0
 10
-3.72079
 20
1.99428
 30
0.0
 10
-3.72604
 20
2.00542
 30
0.0
 10
-3.73654
 20
2.01476
 30
0.0
 10
-3.73654
 20
2.01476
 30
0.0
 10
-3.74704
 20
2.02409
 30
0.0
 10
-3.76127
 20
2.02876
 30
0.0
 10
-3.77924
 20
2.02876
 30
0.0
 10
-3.77924
 20
2.02876
 30
0.0
 10
-3.79656
 20
2.02876
 30
0.0
 10
-3.81021
 20
2.02415
 30
0.0
 10
-3.82019
 20
2.01493
 30
0.0
 10
-3.82019
 20
2.01493
 30
0.0
 10
-3.83016
 20
2.00571
 30
0.0
 10
-3.83512
 20
1.99411
 30
0.0
 10
-3.83512
 20
1.98011
 30
0.0
 10
-3.83512
 20
1.98011
 30
0.0
 10
-3.83512
 20
1.96616
 30
0.0
 10
-3.83016
 20
1.95438
 30
0.0
 10
-3.82019
 20
1.9447
 30
0.0
 10
-3.82019
 20
1.9447
 30
0.0
 10
-3.81021
 20
1.93501
 30
0.0
 10
-3.79715
 20
1.93017
 30
0.0
 10
-3.78099
 20
1.93017
 30
0.0
  0
SPLINE
  5
131
330
1F
100
AcDbEntity
  8
0
100
AcDbSpline
210
0.0
220
0.0
230
1.0
 70
    27
 71
     3
 72
    12
 73
     8
 74
     0
 42
0.0000000001
 43
0.0000000001
 40
0.0
 40
0.0
 40
0.0
 40
0.0
 40
0.3333333333333333
 40
0.3333333333333333
 40
0.3333333333333333
 40
0.3333333333333333
 40
1.0
 40
1.0
 40
1.0
 40
1.0
 10
-17.56549
 20
3.37347
 30
0.0
 10
-17.56549
 20
3.37347
 30
0.0
 10
-17.51469
 20
3.04327
 30
0.0
 10
-17.51469
 20
3.04327
 30
0.0
 10
-17.51469
 20
3.04327
 30
0.0
 10
-17.51469
 20
3.04327
 30
0.0
 10
-17.56549
 20
3.37347
 30
0.0
 10
-17.56549
 20
3.37347
 30
0.0
  0
SPLINE
  5
132
330
1F
100
AcDbEntity
  8
0
100
AcDbSpline
210
0.0
220
0.0
230
1.0
 70
     8
 71
     3
 72
    12
 73
     8
 74
     0
 42
0.0000000001
 43
0.0000000001
 40
0.0
 40
0.0
 40
0.0
 40
0.0
 40
0.3333333333333333
 40
0.3333333333333333
 40
0.3333333333333333
 40
0.3333333333333333
 40
1.0
 40
1.0
 40
1.0
 40
1.0
 10
-17.51469
 20
3.04327
 30
0.0
 10
-17.51469
 20
3.04327
 30
0.0
 10
-17.61629
 20
3.04327
 30
0.0
 10
-17.61629
 20
3.04327
 30
0.0
 10
-17.61629
 20
3.04327
 30
0.0
 10
-17.61629
 20
3.04327
 30
0.0
 10
-17.56549
 20
3.37347
 30
0.0
 10
-17.56549
 20
3.37347
 30
0.0
  0
SPLINE
  5
133
330
1F
100
AcDbEntity
  8
0
370
     9
100
AcDbSpline
210
0.0
220
0.0
230
1.0
 70
    24
 71
     3
 72
     8
 73
     4
 74
     0
 42
0.0000000001
 43
0.0000000001
 40
0.0
 40
0.0
 40
0.0
 40
0.0
 40
1.0
 40
1.0
 40
1.0
 40
1.0
 10
-17.56549
 20
3.37347
 30
0.0
 10
-17.56549
 20
3.37347
 30
0.0
 10
-17.51469
 20
3.04327
 30
0.0
 10
-17.51469
 20
3.04327
 30
0.0
  0
SPLINE
  5
134
330
1F
100
AcDbEntity
  8
0
370
     9
100
AcDbSpline
210
0.0
220
0.0
230
1.0
 70
     8
 71
     3
 72
    12
 73
     8
 74
     0
 42
0.0000000001
 43
0.0000000001
 40
0.0
 40
0.0
 40
0.0
 40
0.0
 40
0.3333333333333333
 40
0.3333333333333333
 40
0.3333333333333333
 40
0.3333333333333333
 40
1.0
 40
1.0
 40
1.0
 40
1.0
 10
-17.51469
 20
3.04327
 30
0.0
 10
-17.51469
 20
3.04327
 30
0.0
 10
-17.61629
 20
3.04327
 30
0.0
 10
-17.61629
 20
3.04327
 30
0.0
 10
-17.61629
 20
3.04327
 30
0.0
 10
-17.61629
 20
3.04327
 30
0.0
 10
-17.56549
 20
3.37347
 30
0.0
 10
-17.56549
 20
3.37347
 30
0.0
  0
SPLINE
  5
135
330
1F
100
AcDbEntity
  8
0
100
AcDbSpline
210
0.0
220
0.0
230
1.0
 70
    27
 71
     3
 72
    12
 73
     8
 74
     0
 42
0.0000000001
 43
0.0000000001
 40
0.0
 40
0.0
 40
0.0
 40
0.0
 40
0.3333333333333333
 40
0.3333333333333333
 40
0.3333333333333333
 40
0.3333333333333333
 40
1.0
 40
1.0
 40
1.0
 40
1.0
 10
-17.56549
 20
-0.52653
 30
0.0
 10
-17.56549
 20
-0.52653
 30
0.0
 10
-17.61629
 20
-0.19633
 30
0.0
 10
-17.61629
 20
-0.19633
 30
0.0
 10
-17.61629
 20
-0.19633
 30
0.0
 10
-17.61629
 20
-0.19633
 30
0.0
 10
-17.56549
 20
-0.52653
 30
0.0
 10
-17.56549
 20
-0.52653
 30
0.0
  0
SPLINE
  5
136
330
1F
100
AcDbEntity
  8
0
100
AcDbSpline
210
0.0
220
0.0
230
1.0
 70
     8
 71
     3
 72
    12
 73
     8
 74
     0
 42
0.0000000001
 43
0.0000000001
 40
0.0
 40
0.0
 40
0.0
 40
0.0
 40
0.3333333333333333
 40
0.3333333333333333
 40
0.3333333333333333
 40
0.3333333333333333
 40
1.0
 40
1.0
 40
1.0
 40
1.0
 10
-17.61629
 20
-0.19633
 30
0.0
 10
-17.61629
 20
-0.19633
 30
0.0
 10
-17.51469
 20
-0.19633
 30
0.0
 10
-17.51469
 20
-0.19633
 30
0.0
 10
-17.51469
 20
-0.19633
 30
0.0
 10
-17.51469
 20
-0.19633
 30
0.0
 10
-17.56549
 20
-0.52653
 30
0.0
 10
-17.56549
 20
-0.52653
 30
0.0
  0
SPLINE
  5
137
330
1F
100
AcDbEntity
  8
0
370
     9
100
AcDbSpline
210
0.0
220
0.0
230
1.0
 70
    24
 71
     3
 72
     8
 73
     4
 74
     0
 42
0.0000000001
 43
0.0000000001
 40
0.0
 40
0.0
 40
0.0
 40
0.0
 40
1.0
 40
1.0
 40
1.0
 40
1.0
 10
-17.56549
 20
-0.52653
 30
0.0
 10
-17.56549
 20
-0.52653
 30
0.0
 10
-17.61629
 20
-0.19633
 30
0.0
 10
-17.61629
 20
-0.19633
 30
0.0
  0
SPLINE
  5
138
330
1F
100
AcDbEntity
  8
0
370
     9
100
AcDbSpline
210
0.0
220
0.0
230
1.0
 70
     8
 71
     3
 72
    12
 73
     8
 74
     0
 42
0.0000000001
 43
0.0000000001
 40
0.0
 40
0.0
 40
0.0
 40
0.0
 40
0.3333333333333333
 40
0.3333333333333333
 40
0.3333333333333333
 40
0.3333333333333333
 40
1.0
 40
1.0
 40
1.0
 40
1.0
 10
-17.61629
 20
-0.19633
 30
0.0
 10
-17.61629
 20
-0.19633
 30
0.0
 10
-17.51469
 20
-0.19633
 30
0.0
 10
-17.51469
 20
-0.19633
 30
0.0
 10
-17.51469
 20
-0.19633
 30
0.0
 10
-17.51469
 20
-0.19633
 30
0.0
 10
-17.56549
 20
-0.52653
 30
0.0
 10
-17.56549
 20
-0.52653
 30
0.0
  0
SPLINE
  5
139
330
1F
100
AcDbEntity
  8
0
370
     9
100
AcDbSpline
210
0.0
220
0.0
230
1.0
 70
    24
 71
     3
 72
     8
 73
     4
 74
     0
 42
0.0000000001
 43
0.0000000001
 40
0.0
 40
0.0
 40
0.0
 40
0.0
 40
1.0
 40
1.0
 40
1.0
 40
1.0
 10
-16.16549
 20
3.37347
 30
0.0
 10
-16.16549
 20
3.37347
 30
0.0
 10
-17.66549
 20
3.37347
 30
0.0
 10
-17.66549
 20
3.37347
 30
0.0
  0
SPLINE
  5
13A
330
1F
100
AcDbEntity
  8
0
370
     9
100
AcDbSpline
210
0.0
220
0.0
230
1.0
 70
    24
 71
     3
 72
     8
 73
     4
 74
     0
 42
0.0000000001
 43
0.0000000001
 40
0.0
 40
0.0
 40
0.0
 40
0.0
 40
1.0
 40
1.0
 40
1.0
 40
1.0
 10
-16.16549
 20
-0.52653
 30
0.0
 10
-16.16549
 20
-0.52653
 30
0.0
 10
-17.66549
 20
-0.52653
 30
0.0
 10
-17.66549
 20
-0.52653
 30
0.0
  0
SPLINE
  5
13B
330
1F
100
AcDbEntity
  8
0
370
     9
100
AcDbSpline
210
0.0
220
0.0
230
1.0
 70
    24
 71
     3
 72
     8
 73
     4
 74
     0
 42
0.0000000001
 43
0.0000000001
 40
0.0
 40
0.0
 40
0.0
 40
0.0
 40
1.0
 40
1.0
 40
1.0
 40
1.0
 10
-17.56549
 20
3.37347
 30
0.0
 10
-17.56549
 20
3.37347
 30
0.0
 10
-17.56549
 20
-0.52653
 30
0.0
 10
-17.56549
 20
-0.52653
 30
0.0
  0
SPLINE
  5
13C
330
1F
100
AcDbEntity
  8
0
100
AcDbSpline
210
0.0
220
0.0
230
1.0
 70
    11
 71
     3
 72
    48
 73
    44
 74
     0
 42
0.0000000001
 43
0.0000000001
 40
0.0
 40
0.0
 40
0.0
 40
0.0
 40
0.0833333333333333
 40
0.0833333333333333
 40
0.0833333333333333
 40
0.0833333333333333
 40
0.1666666666666667
 40
0.1666666666666667
 40
0.1666666666666667
 40
0.1666666666666667
 40
0.25
 40
0.25
 40
0.25
 40
0.25
 40
0.3333333333333333
 40
0.3333333333333333
 40
0.3333333333333333
 40
0.3333333333333333
 40
0.4166666666666667
 40
0.4166666666666667
 40
0.4166666666666667
 40
0.4166666666666667
 40
0.5
 40
0.5
 40
0.5
 40
0.5
 40
0.5833333333333334
 40
0.5833333333333334
 40
0.5833333333333334
 40
0.5833333333333334
 40
0.6666666666666666
 40
0.6666666666666666
 40
0.6666666666666666
 40
0.6666666666666666
 40
0.75
 40
0.75
 40
0.75
 40
0.75
 40
0.8333333333333334
 40
0.8333333333333334
 40
0.8333333333333334
 40
0.8333333333333334
 40
1.0
 40
1.0
 40
1.0
 40
1.0
 10
-17.91749
 20
1.3011
 30
0.0
 10
-17.91749
 20
1.3011
 30
0.0
 10
-17.94706
 20
1.3011
 30
0.0
 10
-17.94706
 20
1.3011
 30
0.0
 10
-17.94706
 20
1.3011
 30
0.0
 10
-17.94706
 20
1.3011
 30
0.0
 10
-17.94706
 20
1.46326
 30
0.0
 10
-17.94706
 20
1.46326
 30
0.0
 10
-17.94706
 20
1.46326
 30
0.0
 10
-17.94706
 20
1.46326
 30
0.0
 10
-17.92315
 20
1.46326
 30
0.0
 10
-17.92315
 20
1.46326
 30
0.0
 10
-17.92315
 20
1.46326
 30
0.0
 10
-17.90617
 20
1.44734
 30
0.0
 10
-17.8836
 20
1.43153
 30
0.0
 10
-17.85548
 20
1.41584
 30
0.0
 10
-17.85548
 20
1.41584
 30
0.0
 10
-17.82736
 20
1.4002
 30
0.0
 10
-17.79837
 20
1.38807
 30
0.0
 10
-17.76868
 20
1.37955
 30
0.0
 10
-17.76868
 20
1.37955
 30
0.0
 10
-17.74768
 20
1.37337
 30
0.0
 10
-17.72476
 20
1.36946
 30
0.0
 10
-17.69979
 20
1.36777
 30
0.0
 10
-17.69979
 20
1.36777
 30
0.0
 10
-17.69979
 20
1.36777
 30
0.0
 10
-17.69979
 20
1.33615
 30
0.0
 10
-17.69979
 20
1.33615
 30
0.0
 10
-17.69979
 20
1.33615
 30
0.0
 10
-17.71951
 20
1.3365
 30
0.0
 10
-17.74331
 20
1.34035
 30
0.0
 10
-17.77125
 20
1.34776
 30
0.0
 10
-17.77125
 20
1.34776
 30
0.0
 10
-17.79913
 20
1.35517
 30
0.0
 10
-17.82608
 20
1.36579
 30
0.0
 10
-17.85198
 20
1.37961
 30
0.0
 10
-17.85198
 20
1.37961
 30
0.0
 10
-17.87788
 20
1.3935
 30
0.0
 10
-17.89976
 20
1.4082
 30
0.0
 10
-17.91749
 20
1.42383
 30
0.0
 10
-17.91749
 20
1.42383
 30
0.0
 10
-17.91749
 20
1.42383
 30
0.0
 10
-17.91749
 20
1.3011
 30
0.0
 10
-17.91749
 20
1.3011
 30
0.0
  0
SPLINE
  5
13D
330
1F
100
AcDbEntity
  8
0
100
AcDbSpline
210
0.0
220
0.0
230
1.0
 70
    11
 71
     3
 72
    68
 73
    64
 74
     0
 42
0.0000000001
 43
0.0000000001
 40
0.0
 40
0.0
 40
0.0
 40
0.0
 40
0.0588235294117647
 40
0.0588235294117647
 40
0.0588235294117647
 40
0.0588235294117647
 40
0.1176470588235294
 40
0.1176470588235294
 40
0.1176470588235294
 40
0.1176470588235294
 40
0.1764705882352941
 40
0.1764705882352941
 40
0.1764705882352941
 40
0.1764705882352941
 40
0.2352941176470588
 40
0.2352941176470588
 40
0.2352941176470588
 40
0.2352941176470588
 40
0.2941176470588235
 40
0.2941176470588235
 40
0.2941176470588235
 40
0.2941176470588235
 40
0.3529411764705883
 40
0.3529411764705883
 40
0.3529411764705883
 40
0.3529411764705883
 40
0.4117647058823529
 40
0.4117647058823529
 40
0.4117647058823529
 40
0.4117647058823529
 40
0.4705882352941176
 40
0.4705882352941176
 40
0.4705882352941176
 40
0.4705882352941176
 40
0.5294117647058824
 40
0.5294117647058824
 40
0.5294117647058824
 40
0.5294117647058824
 40
0.5882352941176471
 40
0.5882352941176471
 40
0.5882352941176471
 40
0.5882352941176471
 40
0.6470588235294118
 40
0.6470588235294118
 40
0.6470588235294118
 40
0.6470588235294118
 40
0.7058823529411765
 40
0.7058823529411765
 40
0.7058823529411765
 40
0.7058823529411765
 40
0.7647058823529411
 40
0.7647058823529411
 40
0.7647058823529411
 40
0.7647058823529411
 40
0.8235294117647058
 40
0.8235294117647058
 40
0.8235294117647058
 40
0.8235294117647058
 40
0.8823529411764706
 40
0.8823529411764706
 40
0.8823529411764706
 40
0.8823529411764706
 40
1.0
 40
1.0
 40
1.0
 40
1.0
 10
-17.83565
 20
1.54108
 30
0.0
 10
-17.84031
 20
1.52831
 30
0.0
 10
-17.84696
 20
1.51886
 30
0.0
 10
-17.85566
 20
1.51267
 30
0.0
 10
-17.85566
 20
1.51267
 30
0.0
 10
-17.86429
 20
1.50655
 30
0.0
 10
-17.87467
 20
1.50346
 30
0.0
 10
-17.88675
 20
1.50346
 30
0.0
 10
-17.88675
 20
1.50346
 30
0.0
 10
-17.90501
 20
1.50346
 30
0.0
 10
-17.92029
 20
1.50999
 30
0.0
 10
-17.93271
 20
1.52311
 30
0.0
 10
-17.93271
 20
1.52311
 30
0.0
 10
-17.94514
 20
1.53624
 30
0.0
 10
-17.95132
 20
1.55362
 30
0.0
 10
-17.95132
 20
1.57538
 30
0.0
 10
-17.95132
 20
1.57538
 30
0.0
 10
-17.95132
 20
1.59726
 30
0.0
 10
-17.94502
 20
1.61487
 30
0.0
 10
-17.93231
 20
1.62823
 30
0.0
 10
-17.93231
 20
1.62823
 30
0.0
 10
-17.91959
 20
1.64153
 30
0.0
 10
-17.90413
 20
1.64818
 30
0.0
 10
-17.88587
 20
1.64818
 30
0.0
 10
-17.88587
 20
1.64818
 30
0.0
 10
-17.87426
 20
1.64818
 30
0.0
 10
-17.86417
 20
1.64515
 30
0.0
 10
-17.85554
 20
1.63908
 30
0.0
 10
-17.85554
 20
1.63908
 30
0.0
 10
-17.84696
 20
1.63296
 30
0.0
 10
-17.84031
 20
1.62374
 30
0.0
 10
-17.83565
 20
1.61131
 30
0.0
 10
-17.83565
 20
1.61131
 30
0.0
 10
-17.83063
 20
1.62666
 30
0.0
 10
-17.82252
 20
1.63838
 30
0.0
 10
-17.81138
 20
1.64643
 30
0.0
 10
-17.81138
 20
1.64643
 30
0.0
 10
-17.80024
 20
1.65442
 30
0.0
 10
-17.78688
 20
1.65845
 30
0.0
 10
-17.77142
 20
1.65845
 30
0.0
 10
-17.77142
 20
1.65845
 30
0.0
 10
-17.74996
 20
1.65845
 30
0.0
 10
-17.73199
 20
1.65086
 30
0.0
 10
-17.71741
 20
1.63576
 30
0.0
 10
-17.71741
 20
1.63576
 30
0.0
 10
-17.70282
 20
1.62059
 30
0.0
 10
-17.69553
 20
1.60064
 30
0.0
 10
-17.69553
 20
1.57591
 30
0.0
 10
-17.69553
 20
1.57591
 30
0.0
 10
-17.69553
 20
1.55117
 30
0.0
 10
-17.70282
 20
1.53128
 30
0.0
 10
-17.71746
 20
1.51611
 30
0.0
 10
-17.71746
 20
1.51611
 30
0.0
 10
-17.73211
 20
1.50095
 30
0.0
 10
-17.75036
 20
1.49336
 30
0.0
 10
-17.77224
 20
1.49336
 30
0.0
 10
-17.77224
 20
1.49336
 30
0.0
 10
-17.78851
 20
1.49336
 30
0.0
 10
-17.80216
 20
1.49751
 30
0.0
 10
-17.81319
 20
1.50579
 30
0.0
 10
-17.81319
 20
1.50579
 30
0.0
 10
-17.82416
 20
1.51401
 30
0.0
 10
-17.83168
 20
1.5258
 30
0.0
 10
-17.83565
 20
1.54108
 30
0.0
  0
SPLINE
  5
13E
330
1F
100
AcDbEntity
  8
0
100
AcDbSpline
210
0.0
220
0.0
230
1.0
 70
    11
 71
     3
 72
    36
 73
    32
 74
     0
 42
0.0000000001
 43
0.0000000001
 40
0.0
 40
0.0
 40
0.0
 40
0.0
 40
0.1111111111111111
 40
0.1111111111111111
 40
0.1111111111111111
 40
0.1111111111111111
 40
0.2222222222222222
 40
0.2222222222222222
 40
0.2222222222222222
 40
0.2222222222222222
 40
0.3333333333333333
 40
0.3333333333333333
 40
0.3333333333333333
 40
0.3333333333333333
 40
0.4444444444444444
 40
0.4444444444444444
 40
0.4444444444444444
 40
0.4444444444444444
 40
0.5555555555555556
 40
0.5555555555555556
 40
0.5555555555555556
 40
0.5555555555555556
 40
0.6666666666666666
 40
0.6666666666666666
 40
0.6666666666666666
 40
0.6666666666666666
 40
0.7777777777777778
 40
0.7777777777777778
 40
0.7777777777777778
 40
0.7777777777777778
 40
1.0
 40
1.0
 40
1.0
 40
1.0
 10
-17.8878
 20
1.5349
 30
0.0
 10
-17.87596
 20
1.5349
 30
0.0
 10
-17.86627
 20
1.53875
 30
0.0
 10
-17.85875
 20
1.54633
 30
0.0
 10
-17.85875
 20
1.54633
 30
0.0
 10
-17.85122
 20
1.55397
 30
0.0
 10
-17.84743
 20
1.56389
 30
0.0
 10
-17.84743
 20
1.57608
 30
0.0
 10
-17.84743
 20
1.57608
 30
0.0
 10
-17.84743
 20
1.58792
 30
0.0
 10
-17.85116
 20
1.59766
 30
0.0
 10
-17.85863
 20
1.60525
 30
0.0
 10
-17.85863
 20
1.60525
 30
0.0
 10
-17.8661
 20
1.61283
 30
0.0
 10
-17.87526
 20
1.61656
 30
0.0
 10
-17.88605
 20
1.61656
 30
0.0
 10
-17.88605
 20
1.61656
 30
0.0
 10
-17.89736
 20
1.61656
 30
0.0
 10
-17.90681
 20
1.61271
 30
0.0
 10
-17.91451
 20
1.6049
 30
0.0
 10
-17.91451
 20
1.6049
 30
0.0
 10
-17.92221
 20
1.59708
 30
0.0
 10
-17.92606
 20
1.5874
 30
0.0
 10
-17.92606
 20
1.57573
 30
0.0
 10
-17.92606
 20
1.57573
 30
0.0
 10
-17.92606
 20
1.56401
 30
0.0
 10
-17.92227
 20
1.55426
 30
0.0
 10
-17.91481
 20
1.54651
 30
0.0
 10
-17.91481
 20
1.54651
 30
0.0
 10
-17.90728
 20
1.53875
 30
0.0
 10
-17.89824
 20
1.5349
 30
0.0
 10
-17.8878
 20
1.5349
 30
0.0
  0
SPLINE
  5
13F
330
1F
100
AcDbEntity
  8
0
100
AcDbSpline
210
0.0
220
0.0
230
1.0
 70
    11
 71
     3
 72
    40
 73
    36
 74
     0
 42
0.0000000001
 43
0.0000000001
 40
0.0
 40
0.0
 40
0.0
 40
0.0
 40
0.1
 40
0.1
 40
0.1
 40
0.1
 40
0.2
 40
0.2
 40
0.2
 40
0.2
 40
0.3
 40
0.3
 40
0.3
 40
0.3
 40
0.4
 40
0.4
 40
0.4
 40
0.4
 40
0.5
 40
0.5
 40
0.5
 40
0.5
 40
0.6
 40
0.6
 40
0.6
 40
0.6
 40
0.7
 40
0.7
 40
0.7
 40
0.7
 40
0.8
 40
0.8
 40
0.8
 40
0.8
 40
1.0
 40
1.0
 40
1.0
 40
1.0
 10
-17.77206
 20
1.52498
 30
0.0
 10
-17.76331
 20
1.52498
 30
0.0
 10
-17.7548
 20
1.52708
 30
0.0
 10
-17.74663
 20
1.53122
 30
0.0
 10
-17.74663
 20
1.53122
 30
0.0
 10
-17.73841
 20
1.53536
 30
0.0
 10
-17.73205
 20
1.54155
 30
0.0
 10
-17.72756
 20
1.54977
 30
0.0
 10
-17.72756
 20
1.54977
 30
0.0
 10
-17.72306
 20
1.558
 30
0.0
 10
-17.72079
 20
1.56681
 30
0.0
 10
-17.72079
 20
1.57626
 30
0.0
 10
-17.72079
 20
1.57626
 30
0.0
 10
-17.72079
 20
1.59096
 30
0.0
 10
-17.72551
 20
1.60309
 30
0.0
 10
-17.73502
 20
1.61266
 30
0.0
 10
-17.73502
 20
1.61266
 30
0.0
 10
-17.74447
 20
1.62222
 30
0.0
 10
-17.75649
 20
1.62701
 30
0.0
 10
-17.77107
 20
1.62701
 30
0.0
 10
-17.77107
 20
1.62701
 30
0.0
 10
-17.78589
 20
1.62701
 30
0.0
 10
-17.79814
 20
1.62211
 30
0.0
 10
-17.80782
 20
1.61225
 30
0.0
 10
-17.80782
 20
1.61225
 30
0.0
 10
-17.81751
 20
1.60239
 30
0.0
 10
-17.82235
 20
1.59002
 30
0.0
 10
-17.82235
 20
1.57521
 30
0.0
 10
-17.82235
 20
1.57521
 30
0.0
 10
-17.82235
 20
1.56074
 30
0.0
 10
-17.81756
 20
1.54878
 30
0.0
 10
-17.80794
 20
1.53927
 30
0.0
 10
-17.80794
 20
1.53927
 30
0.0
 10
-17.79837
 20
1.52976
 30
0.0
 10
-17.78641
 20
1.52498
 30
0.0
 10
-17.77206
 20
1.52498
 30
0.0
  0
SPLINE
  5
140
330
1F
100
AcDbEntity
  8
0
100
AcDbSpline
210
0.0
220
0.0
230
1.0
 70
    27
 71
     3
 72
    12
 73
     8
 74
     0
 42
0.0000000001
 43
0.0000000001
 40
0.0
 40
0.0
 40
0.0
 40
0.0
 40
0.3333333333333333
 40
0.3333333333333333
 40
0.3333333333333333
 40
0.3333333333333333
 40
1.0
 40
1.0
 40
1.0
 40
1.0
 10
-14.11126
 20
3.17347
 30
0.0
 10
-14.11126
 20
3.17347
 30
0.0
 10
-14.06046
 20
2.84327
 30
0.0
 10
-14.06046
 20
2.84327
 30
0.0
 10
-14.06046
 20
2.84327
 30
0.0
 10
-14.06046
 20
2.84327
 30
0.0
 10
-14.11126
 20
3.17347
 30
0.0
 10
-14.11126
 20
3.17347
 30
0.0
  0
SPLINE
  5
141
330
1F
100
AcDbEntity
  8
0
100
AcDbSpline
210
0.0
220
0.0
230
1.0
 70
     8
 71
     3
 72
    12
 73
     8
 74
     0
 42
0.0000000001
 43
0.0000000001
 40
0.0
 40
0.0
 40
0.0
 40
0.0
 40
0.3333333333333333
 40
0.3333333333333333
 40
0.3333333333333333
 40
0.3333333333333333
 40
1.0
 40
1.0
 40
1.0
 40
1.0
 10
-14.06046
 20
2.84327
 30
0.0
 10
-14.06046
 20
2.84327
 30
0.0
 10
-14.16206
 20
2.84327
 30
0.0
 10
-14.16206
 20
2.84327
 30
0.0
 10
-14.16206
 20
2.84327
 30
0.0
 10
-14.16206
 20
2.84327
 30
0.0
 10
-14.11126
 20
3.17347
 30
0.0
 10
-14.11126
 20
3.17347
 30
0.0
  0
SPLINE
  5
142
330
1F
100
AcDbEntity
  8
0
370
     9
100
AcDbSpline
210
0.0
220
0.0
230
1.0
 70
    24
 71
     3
 72
     8
 73
     4
 74
     0
 42
0.0000000001
 43
0.0000000001
 40
0.0
 40
0.0
 40
0.0
 40
0.0
 40
1.0
 40
1.0
 40
1.0
 40
1.0
 10
-14.11126
 20
3.17347
 30
0.0
 10
-14.11126
 20
3.17347
 30
0.0
 10
-14.06046
 20
2.84327
 30
0.0
 10
-14.06046
 20
2.84327
 30
0.0
  0
SPLINE
  5
143
330
1F
100
AcDbEntity
  8
0
370
     9
100
AcDbSpline
210
0.0
220
0.0
230
1.0
 70
     8
 71
     3
 72
    12
 73
     8
 74
     0
 42
0.0000000001
 43
0.0000000001
 40
0.0
 40
0.0
 40
0.0
 40
0.0
 40
0.3333333333333333
 40
0.3333333333333333
 40
0.3333333333333333
 40
0.3333333333333333
 40
1.0
 40
1.0
 40
1.0
 40
1.0
 10
-14.06046
 20
2.84327
 30
0.0
 10
-14.06046
 20
2.84327
 30
0.0
 10
-14.16206
 20
2.84327
 30
0.0
 10
-14.16206
 20
2.84327
 30
0.0
 10
-14.16206
 20
2.84327
 30
0.0
 10
-14.16206
 20
2.84327
 30
0.0
 10
-14.11126
 20
3.17347
 30
0.0
 10
-14.11126
 20
3.17347
 30
0.0
  0
SPLINE
  5
144
330
1F
100
AcDbEntity
  8
0
100
AcDbSpline
210
0.0
220
0.0
230
1.0
 70
    27
 71
     3
 72
    12
 73
     8
 74
     0
 42
0.0000000001
 43
0.0000000001
 40
0.0
 40
0.0
 40
0.0
 40
0.0
 40
0.3333333333333333
 40
0.3333333333333333
 40
0.3333333333333333
 40
0.3333333333333333
 40
1.0
 40
1.0
 40
1.0
 40
1.0
 10
-14.11126
 20
-0.32653
 30
0.0
 10
-14.11126
 20
-0.32653
 30
0.0
 10
-14.16206
 20
0.00367
 30
0.0
 10
-14.16206
 20
0.00367
 30
0.0
 10
-14.16206
 20
0.00367
 30
0.0
 10
-14.16206
 20
0.00367
 30
0.0
 10
-14.11126
 20
-0.32653
 30
0.0
 10
-14.11126
 20
-0.32653
 30
0.0
  0
SPLINE
  5
145
330
1F
100
AcDbEntity
  8
0
100
AcDbSpline
210
0.0
220
0.0
230
1.0
 70
     8
 71
     3
 72
    12
 73
     8
 74
     0
 42
0.0000000001
 43
0.0000000001
 40
0.0
 40
0.0
 40
0.0
 40
0.0
 40
0.3333333333333333
 40
0.3333333333333333
 40
0.3333333333333333
 40
0.3333333333333333
 40
1.0
 40
1.0
 40
1.0
 40
1.0
 10
-14.16206
 20
0.00367
 30
0.0
 10
-14.16206
 20
0.00367
 30
0.0
 10
-14.06046
 20
0.00367
 30
0.0
 10
-14.06046
 20
0.00367
 30
0.0
 10
-14.06046
 20
0.00367
 30
0.0
 10
-14.06046
 20
0.00367
 30
0.0
 10
-14.11126
 20
-0.32653
 30
0.0
 10
-14.11126
 20
-0.32653
 30
0.0
  0
SPLINE
  5
146
330
1F
100
AcDbEntity
  8
0
370
     9
100
AcDbSpline
210
0.0
220
0.0
230
1.0
 70
    24
 71
     3
 72
     8
 73
     4
 74
     0
 42
0.0000000001
 43
0.0000000001
 40
0.0
 40
0.0
 40
0.0
 40
0.0
 40
1.0
 40
1.0
 40
1.0
 40
1.0
 10
-14.11126
 20
-0.32653
 30
0.0
 10
-14.11126
 20
-0.32653
 30
0.0
 10
-14.16206
 20
0.00367
 30
0.0
 10
-14.16206
 20
0.00367
 30
0.0
  0
SPLINE
  5
147
330
1F
100
AcDbEntity
  8
0
370
     9
100
AcDbSpline
210
0.0
220
0.0
230
1.0
 70
     8
 71
     3
 72
    12
 73
     8
 74
     0
 42
0.0000000001
 43
0.0000000001
 40
0.0
 40
0.0
 40
0.0
 40
0.0
 40
0.3333333333333333
 40
0.3333333333333333
 40
0.3333333333333333
 40
0.3333333333333333
 40
1.0
 40
1.0
 40
1.0
 40
1.0
 10
-14.16206
 20
0.00367
 30
0.0
 10
-14.16206
 20
0.00367
 30
0.0
 10
-14.06046
 20
0.00367
 30
0.0
 10
-14.06046
 20
0.00367
 30
0.0
 10
-14.06046
 20
0.00367
 30
0.0
 10
-14.06046
 20
0.00367
 30
0.0
 10
-14.11126
 20
-0.32653
 30
0.0
 10
-14.11126
 20
-0.32653
 30
0.0
  0
SPLINE
  5
148
330
1F
100
AcDbEntity
  8
0
370
     9
100
AcDbSpline
210
0.0
220
0.0
230
1.0
 70
    24
 71
     3
 72
     8
 73
     4
 74
     0
 42
0.0000000001
 43
0.0000000001
 40
0.0
 40
0.0
 40
0.0
 40
0.0
 40
1.0
 40
1.0
 40
1.0
 40
1.0
 10
-14.11126
 20
3.17347
 30
0.0
 10
-14.11126
 20
3.17347
 30
0.0
 10
-14.11126
 20
-0.32653
 30
0.0
 10
-14.11126
 20
-0.32653
 30
0.0
  0
SPLINE
  5
149
330
1F
100
AcDbEntity
  8
0
100
AcDbSpline
210
0.0
220
0.0
230
1.0
 70
    11
 71
     3
 72
    48
 73
    44
 74
     0
 42
0.0000000001
 43
0.0000000001
 40
0.0
 40
0.0
 40
0.0
 40
0.0
 40
0.0833333333333333
 40
0.0833333333333333
 40
0.0833333333333333
 40
0.0833333333333333
 40
0.1666666666666667
 40
0.1666666666666667
 40
0.1666666666666667
 40
0.1666666666666667
 40
0.25
 40
0.25
 40
0.25
 40
0.25
 40
0.3333333333333333
 40
0.3333333333333333
 40
0.3333333333333333
 40
0.3333333333333333
 40
0.4166666666666667
 40
0.4166666666666667
 40
0.4166666666666667
 40
0.4166666666666667
 40
0.5
 40
0.5
 40
0.5
 40
0.5
 40
0.5833333333333334
 40
0.5833333333333334
 40
0.5833333333333334
 40
0.5833333333333334
 40
0.6666666666666666
 40
0.6666666666666666
 40
0.6666666666666666
 40
0.6666666666666666
 40
0.75
 40
0.75
 40
0.75
 40
0.75
 40
0.8333333333333334
 40
0.8333333333333334
 40
0.8333333333333334
 40
0.8333333333333334
 40
1.0
 40
1.0
 40
1.0
 40
1.0
 10
-14.46326
 20
1.0874
 30
0.0
 10
-14.46326
 20
1.0874
 30
0.0
 10
-14.49283
 20
1.0874
 30
0.0
 10
-14.49283
 20
1.0874
 30
0.0
 10
-14.49283
 20
1.0874
 30
0.0
 10
-14.49283
 20
1.0874
 30
0.0
 10
-14.49283
 20
1.24956
 30
0.0
 10
-14.49283
 20
1.24956
 30
0.0
 10
-14.49283
 20
1.24956
 30
0.0
 10
-14.49283
 20
1.24956
 30
0.0
 10
-14.46892
 20
1.24956
 30
0.0
 10
-14.46892
 20
1.24956
 30
0.0
 10
-14.46892
 20
1.24956
 30
0.0
 10
-14.45194
 20
1.23364
 30
0.0
 10
-14.42937
 20
1.21783
 30
0.0
 10
-14.40125
 20
1.20214
 30
0.0
 10
-14.40125
 20
1.20214
 30
0.0
 10
-14.37313
 20
1.1865
 30
0.0
 10
-14.34414
 20
1.17437
 30
0.0
 10
-14.31445
 20
1.16585
 30
0.0
 10
-14.31445
 20
1.16585
 30
0.0
 10
-14.29345
 20
1.15967
 30
0.0
 10
-14.27053
 20
1.15576
 30
0.0
 10
-14.24556
 20
1.15407
 30
0.0
 10
-14.24556
 20
1.15407
 30
0.0
 10
-14.24556
 20
1.15407
 30
0.0
 10
-14.24556
 20
1.12245
 30
0.0
 10
-14.24556
 20
1.12245
 30
0.0
 10
-14.24556
 20
1.12245
 30
0.0
 10
-14.26528
 20
1.1228
 30
0.0
 10
-14.28908
 20
1.12665
 30
0.0
 10
-14.31702
 20
1.13406
 30
0.0
 10
-14.31702
 20
1.13406
 30
0.0
 10
-14.3449
 20
1.14147
 30
0.0
 10
-14.37185
 20
1.15209
 30
0.0
 10
-14.39775
 20
1.16591
 30
0.0
 10
-14.39775
 20
1.16591
 30
0.0
 10
-14.42365
 20
1.1798
 30
0.0
 10
-14.44553
 20
1.1945
 30
0.0
 10
-14.46326
 20
1.21013
 30
0.0
 10
-14.46326
 20
1.21013
 30
0.0
 10
-14.46326
 20
1.21013
 30
0.0
 10
-14.46326
 20
1.0874
 30
0.0
 10
-14.46326
 20
1.0874
 30
0.0
  0
SPLINE
  5
14A
330
1F
100
AcDbEntity
  8
0
100
AcDbSpline
210
0.0
220
0.0
230
1.0
 70
    11
 71
     3
 72
    52
 73
    48
 74
     0
 42
0.0000000001
 43
0.0000000001
 40
0.0
 40
0.0
 40
0.0
 40
0.0
 40
0.0769230769230769
 40
0.0769230769230769
 40
0.0769230769230769
 40
0.0769230769230769
 40
0.1538461538461539
 40
0.1538461538461539
 40
0.1538461538461539
 40
0.1538461538461539
 40
0.2307692307692308
 40
0.2307692307692308
 40
0.2307692307692308
 40
0.2307692307692308
 40
0.3076923076923077
 40
0.3076923076923077
 40
0.3076923076923077
 40
0.3076923076923077
 40
0.3846153846153846
 40
0.3846153846153846
 40
0.3846153846153846
 40
0.3846153846153846
 40
0.4615384615384616
 40
0.4615384615384616
 40
0.4615384615384616
 40
0.4615384615384616
 40
0.5384615384615384
 40
0.5384615384615384
 40
0.5384615384615384
 40
0.5384615384615384
 40
0.6153846153846154
 40
0.6153846153846154
 40
0.6153846153846154
 40
0.6153846153846154
 40
0.6923076923076923
 40
0.6923076923076923
 40
0.6923076923076923
 40
0.6923076923076923
 40
0.7692307692307693
 40
0.7692307692307693
 40
0.7692307692307693
 40
0.7692307692307693
 40
0.8461538461538461
 40
0.8461538461538461
 40
0.8461538461538461
 40
0.8461538461538461
 40
1.0
 40
1.0
 40
1.0
 40
1.0
 10
-14.36911
 20
1.28001
 30
0.0
 10
-14.39874
 20
1.28001
 30
0.0
 10
-14.4226
 20
1.28305
 30
0.0
 10
-14.44063
 20
1.28917
 30
0.0
 10
-14.44063
 20
1.28917
 30
0.0
 10
-14.45871
 20
1.29524
 30
0.0
 10
-14.47265
 20
1.30434
 30
0.0
 10
-14.48245
 20
1.31636
 30
0.0
 10
-14.48245
 20
1.31636
 30
0.0
 10
-14.49225
 20
1.32837
 30
0.0
 10
-14.49709
 20
1.34348
 30
0.0
 10
-14.49709
 20
1.36168
 30
0.0
 10
-14.49709
 20
1.36168
 30
0.0
 10
-14.49709
 20
1.37516
 30
0.0
 10
-14.49441
 20
1.38694
 30
0.0
 10
-14.48898
 20
1.39709
 30
0.0
 10
-14.48898
 20
1.39709
 30
0.0
 10
-14.48362
 20
1.40724
 30
0.0
 10
-14.4758
 20
1.41558
 30
0.0
 10
-14.46559
 20
1.42223
 30
0.0
 10
-14.46559
 20
1.42223
 30
0.0
 10
-14.45538
 20
1.42882
 30
0.0
 10
-14.44296
 20
1.43401
 30
0.0
 10
-14.42832
 20
1.43775
 30
0.0
 10
-14.42832
 20
1.43775
 30
0.0
 10
-14.41368
 20
1.44154
 30
0.0
 10
-14.39396
 20
1.44341
 30
0.0
 10
-14.36911
 20
1.44341
 30
0.0
 10
-14.36911
 20
1.44341
 30
0.0
 10
-14.33971
 20
1.44341
 30
0.0
 10
-14.31603
 20
1.44037
 30
0.0
 10
-14.29794
 20
1.43436
 30
0.0
 10
-14.29794
 20
1.43436
 30
0.0
 10
-14.27986
 20
1.4283
 30
0.0
 10
-14.26592
 20
1.41926
 30
0.0
 10
-14.25606
 20
1.40724
 30
0.0
 10
-14.25606
 20
1.40724
 30
0.0
 10
-14.2462
 20
1.39522
 30
0.0
 10
-14.2413
 20
1.38006
 30
0.0
 10
-14.2413
 20
1.36168
 30
0.0
 10
-14.2413
 20
1.36168
 30
0.0
 10
-14.2413
 20
1.33753
 30
0.0
 10
-14.24993
 20
1.31857
 30
0.0
 10
-14.26726
 20
1.30481
 30
0.0
 10
-14.26726
 20
1.30481
 30
0.0
 10
-14.28808
 20
1.2883
 30
0.0
 10
-14.32209
 20
1.28001
 30
0.0
 10
-14.36911
 20
1.28001
 30
0.0
  0
SPLINE
  5
14B
330
1F
100
AcDbEntity
  8
0
100
AcDbSpline
210
0.0
220
0.0
230
1.0
 70
    11
 71
     3
 72
    36
 73
    32
 74
     0
 42
0.0000000001
 43
0.0000000001
 40
0.0
 40
0.0
 40
0.0
 40
0.0
 40
0.1111111111111111
 40
0.1111111111111111
 40
0.1111111111111111
 40
0.1111111111111111
 40
0.2222222222222222
 40
0.2222222222222222
 40
0.2222222222222222
 40
0.2222222222222222
 40
0.3333333333333333
 40
0.3333333333333333
 40
0.3333333333333333
 40
0.3333333333333333
 40
0.4444444444444444
 40
0.4444444444444444
 40
0.4444444444444444
 40
0.4444444444444444
 40
0.5555555555555556
 40
0.5555555555555556
 40
0.5555555555555556
 40
0.5555555555555556
 40
0.6666666666666666
 40
0.6666666666666666
 40
0.6666666666666666
 40
0.6666666666666666
 40
0.7777777777777778
 40
0.7777777777777778
 40
0.7777777777777778
 40
0.7777777777777778
 40
1.0
 40
1.0
 40
1.0
 40
1.0
 10
-14.36911
 20
1.31163
 30
0.0
 10
-14.32798
 20
1.31163
 30
0.0
 10
-14.30063
 20
1.31647
 30
0.0
 10
-14.28698
 20
1.3261
 30
0.0
 10
-14.28698
 20
1.3261
 30
0.0
 10
-14.27338
 20
1.33572
 30
0.0
 10
-14.26656
 20
1.34756
 30
0.0
 10
-14.26656
 20
1.36168
 30
0.0
 10
-14.26656
 20
1.36168
 30
0.0
 10
-14.26656
 20
1.37586
 30
0.0
 10
-14.27344
 20
1.3877
 30
0.0
 10
-14.28709
 20
1.39732
 30
0.0
 10
-14.28709
 20
1.39732
 30
0.0
 10
-14.30074
 20
1.40695
 30
0.0
 10
-14.3281
 20
1.41179
 30
0.0
 10
-14.36911
 20
1.41179
 30
0.0
 10
-14.36911
 20
1.41179
 30
0.0
 10
-14.41035
 20
1.41179
 30
0.0
 10
-14.43777
 20
1.40695
 30
0.0
 10
-14.4513
 20
1.39732
 30
0.0
 10
-14.4513
 20
1.39732
 30
0.0
 10
-14.46489
 20
1.3877
 30
0.0
 10
-14.47166
 20
1.37574
 30
0.0
 10
-14.47166
 20
1.36139
 30
0.0
 10
-14.47166
 20
1.36139
 30
0.0
 10
-14.47166
 20
1.34721
 30
0.0
 10
-14.46565
 20
1.33596
 30
0.0
 10
-14.45369
 20
1.3275
 30
0.0
 10
-14.45369
 20
1.3275
 30
0.0
 10
-14.43847
 20
1.31694
 30
0.0
 10
-14.41023
 20
1.31163
 30
0.0
 10
-14.36911
 20
1.31163
 30
0.0
  0
ENDSEC
  0
SECTION
  2
OBJECTS
  0
DICTIONARY
  5
C
330
0
100
AcDbDictionary
281
     1
  3
ACAD_GROUP
350
D
  3
ACAD_LAYOUT
350
1A
  3
ACAD_MATERIAL
350
3B
  3
ACAD_MLEADERSTYLE
350
16D
  3
ACAD_MLINESTYLE
350
17
  3
ACAD_PLOTSETTINGS
350
19
  3
ACAD_PLOTSTYLENAME
350
E
  3
ACAD_TABLESTYLE
350
16C
  3
ACAD_VISUALSTYLE
350
2A
  0
DICTIONARY
  5
D
102
{ACAD_REACTORS
330
C
102
}
330
C
100
AcDbDictionary
281
     1
  0
DICTIONARY
  5
1A
102
{ACAD_REACTORS
330
C
102
}
330
C
100
AcDbDictionary
281
     1
  3
Layout1
350
1E
  3
Layout2
350
26
  3
Model
350
22
  0
DICTIONARY
  5
3B
102
{ACAD_REACTORS
330
C
102
}
330
C
100
AcDbDictionary
281
     1
  3
ByBlock
350
3D
  3
ByLayer
350
3C
  3
Global
350
3E
  0
DICTIONARY
  5
16D
102
{ACAD_REACTORS
330
C
102
}
330
C
100
AcDbDictionary
281
     1
  0
DICTIONARY
  5
17
102
{ACAD_REACTORS
330
C
102
}
330
C
100
AcDbDictionary
281
     1
  3
Standard
350
18
  0
DICTIONARY
  5
19
102
{ACAD_REACTORS
330
C
102
}
330
C
100
AcDbDictionary
281
     1
  0
ACDBDICTIONARYWDFLT
  5
E
102
{ACAD_REACTORS
330
C
102
}
330
C
100
AcDbDictionary
281
     1
  3
Normal
350
F
100
AcDbDictionaryWithDefault
340
F
  0
DICTIONARY
  5
16C
102
{ACAD_REACTORS
330
C
102
}
330
C
100
AcDbDictionary
281
     1
  0
DICTIONARY
  5
2A
102
{ACAD_REACTORS
330
C
102
}
330
C
100
AcDbDictionary
281
     1
  3
2dWireframe
350
2F
  3
3D Hidden
350
31
  3
3dWireframe
350
30
  3
Basic
350
32
  3
Brighten
350
36
  3
ColorChange
350
3A
  3
Conceptual
350
34
  3
Dim
350
35
  3
Facepattern
350
39
  3
Flat
350
2B
  3
FlatWithEdges
350
2C
  3
Gouraud
350
2D
  3
GouraudWithEdges
350
2E
  3
Linepattern
350
38
  3
Realistic
350
33
  3
Thicken
350
37
  0
LAYOUT
  5
1E
102
{ACAD_REACTORS
330
1A
102
}
330
1A
100
AcDbPlotSettings
  1

  2
none_device
  4

  6

 40
0.0
 41
0.0
 42
0.0
 43
0.0
 44
0.0
 45
0.0
 46
0.0
 47
0.0
 48
0.0
 49
0.0
140
0.0
141
0.0
142
1.0
143
1.0
 70
   688
 72
     0
 73
     0
 74
     5
  7

 75
    16
 76
     0
 77
     2
 78
   300
147
1.0
148
0.0
149
0.0
100
AcDbLayout
  1
Layout1
 70
     1
 71
     1
 10
0.0
 20
0.0
 11
12.0
 21
9.0
 12
0.0
 22
0.0
 32
0.0
 14
1.000000000000000E+20
 24
1.000000000000000E+20
 34
1.000000000000000E+20
 15
-1.000000000000000E+20
 25
-1.000000000000000E+20
 35
-1.000000000000000E+20
146
0.0
 13
0.0
 23
0.0
 33
0.0
 16
1.0
 26
0.0
 36
0.0
 17
0.0
 27
1.0
 37
0.0
 76
     0
330
1B
  0
LAYOUT
  5
26
102
{ACAD_REACTORS
330
1A
102
}
330
1A
100
AcDbPlotSettings
  1

  2
none_device
  4

  6

 40
0.0
 41
0.0
 42
0.0
 43
0.0
 44
0.0
 45
0.0
 46
0.0
 47
0.0
 48
0.0
 49
0.0
140
0.0
141
0.0
142
1.0
143
1.0
 70
   688
 72
     0
 73
     0
 74
     5
  7

 75
    16
 76
     0
 77
     2
 78
   300
147
1.0
148
0.0
149
0.0
100
AcDbLayout
  1
Layout2
 70
     1
 71
     2
 10
0.0
 20
0.0
 11
0.0
 21
0.0
 12
0.0
 22
0.0
 32
0.0
 14
0.0
 24
0.0
 34
0.0
 15
0.0
 25
0.0
 35
0.0
146
0.0
 13
0.0
 23
0.0
 33
0.0
 16
1.0
 26
0.0
 36
0.0
 17
0.0
 27
1.0
 37
0.0
 76
     0
330
23
  0
LAYOUT
  5
22
102
{ACAD_REACTORS
330
1A
102
}
330
1A
100
AcDbPlotSettings
  1

  2
none_device
  4

  6

 40
0.0
 41
0.0
 42
0.0
 43
0.0
 44
0.0
 45
0.0
 46
0.0
 47
0.0
 48
0.0
 49
0.0
140
0.0
141
0.0
142
1.0
143
1.0
 70
  1712
 72
     0
 73
     0
 74
     0
  7

 75
     0
 76
     0
 77
     2
 78
   300
147
1.0
148
0.0
149
0.0
100
AcDbLayout
  1
Model
 70
     1
 71
     0
 10
0.0
 20
0.0
 11
12.0
 21
9.0
 12
0.0
 22
0.0
 32
0.0
 14
-18.01666
 24
-0.53403
 34
0.0
 15
3.61972
 25
12.78378
 35
0.0
146
0.0
 13
0.0
 23
0.0
 33
0.0
 16
1.0
 26
0.0
 36
0.0
 17
0.0
 27
1.0
 37
0.0
 76
     0
330
1F
331
29
  0
MATERIAL
  5
3D
102
{ACAD_REACTORS
330
3B
102
}
330
3B
100
AcDbMaterial
  1
ByBlock
 72
     1
 94
      127
  0
MATERIAL
  5
3C
102
{ACAD_REACTORS
330
3B
102
}
330
3B
100
AcDbMaterial
  1
ByLayer
 72
     1
 94
      127
  0
MATERIAL
  5
3E
102
{ACAD_REACTORS
330
3B
102
}
330
3B
100
AcDbMaterial
  1
Global
 72
     1
 94
      127
  0
MLINESTYLE
  5
18
102
{ACAD_REACTORS
330
17
102
}
330
17
100
AcDbMlineStyle
  2
Standard
 70
     0
  3

 62
   256
 51
90.0
 52
90.0
 71
     2
 49
0.5
 62
   256
  6
BYLAYER
 49
-0.5
 62
   256
  6
BYLAYER
  0
ACDBPLACEHOLDER
  5
F
102
{ACAD_REACTORS
330
E
102
}
330
E
  0
VISUALSTYLE
  5
2F
102
{ACAD_REACTORS
330
2A
102
}
102
{ACAD_XDICTIONARY
360
154
102
}
330
2A
100
AcDbVisualStyle
  2
2dWireframe
 70
     4
 71
     0
 72
     2
 73
     0
 90
        0
 40
-0.6
 41
-30.0
 62
     5
 63
     7
421
 16777215
 74
     1
 91
        4
 64
     7
 65
   257
 75
     1
175
     1
 42
1.0
 92
        0
 66
   257
 43
1.0
 76
     1
 77
     6
 78
     2
 67
     7
 79
     5
170
     0
171
     0
290
     0
174
     0
 93
        1
 44
0.0
173
     0
291
     0
 45
0.0
  0
VISUALSTYLE
  5
31
102
{ACAD_REACTORS
330
2A
102
}
102
{ACAD_XDICTIONARY
360
158
102
}
330
2A
100
AcDbVisualStyle
  2
3D Hidden
 70
     6
 71
     1
 72
     2
 73
     2
 90
        0
 40
-0.6
 41
-30.0
 62
     5
 63
     7
421
 16777215
 74
     2
 91
        2
 64
     7
 65
   257
 75
     2
175
     1
 42
40.0
 92
        0
 66
   257
 43
1.0
 76
     1
 77
     6
 78
     2
 67
     7
 79
     3
170
     0
171
     0
290
     0
174
     0
 93
        1
 44
0.0
173
     0
291
     0
 45
0.0
  0
VISUALSTYLE
  5
30
102
{ACAD_REACTORS
330
2A
102
}
102
{ACAD_XDICTIONARY
360
156
102
}
330
2A
100
AcDbVisualStyle
  2
3dWireframe
 70
     5
 71
     0
 72
     2
 73
     0
 90
        0
 40
-0.6
 41
-30.0
 62
     5
 63
     7
421
 16777215
 74
     1
 91
        4
 64
     7
 65
   257
 75
     1
175
     1
 42
1.0
 92
        0
 66
   257
 43
1.0
 76
     1
 77
     6
 78
     2
 67
     7
 79
     5
170
     0
171
     0
290
     0
174
     0
 93
        1
 44
0.0
173
     0
291
     0
 45
0.0
  0
VISUALSTYLE
  5
32
102
{ACAD_REACTORS
330
2A
102
}
102
{ACAD_XDICTIONARY
360
15A
102
}
330
2A
100
AcDbVisualStyle
  2
Basic
 70
     7
 71
     1
 72
     0
 73
     1
 90
        0
 40
-0.6
 41
-30.0
 62
     5
 63
     7
421
 16777215
 74
     0
 91
        4
 64
     7
 65
   257
 75
     1
175
     1
 42
1.0
 92
        8
 66
     7
 43
1.0
 76
     1
 77
     6
 78
     2
 67
     7
 79
     5
170
     0
171
     0
290
     0
174
     0
 93
        1
 44
0.0
173
     0
291
     1
 45
0.0
  0
VISUALSTYLE
  5
36
102
{ACAD_REACTORS
330
2A
102
}
102
{ACAD_XDICTIONARY
360
162
102
}
330
2A
100
AcDbVisualStyle
  2
Brighten
 70
    12
 71
     2
 72
     2
 73
     0
 90
        0
 40
-0.6
 41
-30.0
 62
     5
 63
     7
421
 16777215
 74
     1
 91
        4
 64
     7
 65
   257
 75
     1
175
     1
 42
1.0
 92
        8
 66
     7
 43
1.0
 76
     1
 77
     6
 78
     2
 67
     7
 79
     5
170
     0
171
     0
290
     0
174
     0
 93
        1
 44
50.0
173
     0
291
     1
 45
0.0
  0
VISUALSTYLE
  5
3A
102
{ACAD_REACTORS
330
2A
102
}
102
{ACAD_XDICTIONARY
360
16A
102
}
330
2A
100
AcDbVisualStyle
  2
ColorChange
 70
    16
 71
     2
 72
     2
 73
     3
 90
        0
 40
-0.6
 41
-30.0
 62
     5
 63
     8
421
  8421504
 74
     1
 91
        4
 64
     7
 65
   257
 75
     1
175
     1
 42
1.0
 92
        8
 66
     8
424
  8421504
 43
1.0
 76
     1
 77
     6
 78
     2
 67
     7
 79
     5
170
     0
171
     0
290
     0
174
     0
 93
        1
 44
0.0
173
     0
291
     1
 45
0.0
  0
VISUALSTYLE
  5
34
102
{ACAD_REACTORS
330
2A
102
}
102
{ACAD_XDICTIONARY
360
15E
102
}
330
2A
100
AcDbVisualStyle
  2
Conceptual
 70
     9
 71
     3
 72
     2
 73
     0
 90
        0
 40
-0.6
 41
-30.0
 62
     5
 63
     7
421
 16777215
 74
     2
 91
        2
 64
     7
 65
   257
 75
     1
175
     1
 42
40.0
 92
        8
 66
     7
 43
1.0
 76
     1
 77
     6
 78
     2
 67
     7
 79
     3
170
     0
171
     0
290
     0
174
     0
 93
        1
 44
0.0
173
     0
291
     0
 45
0.0
  0
VISUALSTYLE
  5
35
102
{ACAD_REACTORS
330
2A
102
}
102
{ACAD_XDICTIONARY
360
160
102
}
330
2A
100
AcDbVisualStyle
  2
Dim
 70
    11
 71
     2
 72
     2
 73
     0
 90
        0
 40
-0.6
 41
-30.0
 62
     5
 63
     7
421
 16777215
 74
     1
 91
        4
 64
     7
 65
   257
 75
     1
175
     1
 42
1.0
 92
        8
 66
     7
 43
1.0
 76
     1
 77
     6
 78
     2
 67
     7
 79
     5
170
     0
171
     0
290
     0
174
     0
 93
        1
 44
-50.0
173
     0
291
     1
 45
0.0
  0
VISUALSTYLE
  5
39
102
{ACAD_REACTORS
330
2A
102
}
102
{ACAD_XDICTIONARY
360
168
102
}
330
2A
100
AcDbVisualStyle
  2
Facepattern
 70
    15
 71
     2
 72
     2
 73
     0
 90
        0
 40
-0.6
 41
-30.0
 62
     5
 63
     7
421
 16777215
 74
     1
 91
        4
 64
     7
 65
   257
 75
     1
175
     1
 42
1.0
 92
        8
 66
     7
 43
1.0
 76
     1
 77
     6
 78
     2
 67
     7
 79
     5
170
     0
171
     0
290
     0
174
     0
 93
        1
 44
0.0
173
     0
291
     1
 45
0.0
  0
VISUALSTYLE
  5
2B
102
{ACAD_REACTORS
330
2A
102
}
102
{ACAD_XDICTIONARY
360
14C
102
}
330
2A
100
AcDbVisualStyle
  2
Flat
 70
     0
 71
     2
 72
     1
 73
     1
 90
        2
 40
-0.6
 41
30.0
 62
     5
 63
     7
421
 16777215
 74
     0
 91
        4
 64
     7
 65
   257
 75
     1
175
     1
 42
1.0
 92
        8
 66
     7
 43
1.0
 76
     1
 77
     6
 78
     2
 67
     7
 79
     5
170
     0
171
     0
290
     0
174
     0
 93
       13
 44
0.0
173
     0
291
     1
 45
0.0
  0
VISUALSTYLE
  5
2C
102
{ACAD_REACTORS
330
2A
102
}
102
{ACAD_XDICTIONARY
360
14E
102
}
330
2A
100
AcDbVisualStyle
  2
FlatWithEdges
 70
     1
 71
     2
 72
     1
 73
     1
 90
        2
 40
-0.6
 41
30.0
 62
     5
 63
     7
421
 16777215
 74
     1
 91
        4
 64
     7
 65
   257
 75
     1
175
     1
 42
1.0
 92
        0
 66
   257
 43
1.0
 76
     1
 77
     6
 78
     2
 67
     7
 79
     5
170
     0
171
     0
290
     0
174
     0
 93
       13
 44
0.0
173
     0
291
     1
 45
0.0
  0
VISUALSTYLE
  5
2D
102
{ACAD_REACTORS
330
2A
102
}
102
{ACAD_XDICTIONARY
360
150
102
}
330
2A
100
AcDbVisualStyle
  2
Gouraud
 70
     2
 71
     2
 72
     2
 73
     1
 90
        2
 40
-0.6
 41
30.0
 62
     5
 63
     7
421
 16777215
 74
     0
 91
        4
 64
     7
 65
   257
 75
     1
175
     1
 42
1.0
 92
        0
 66
     7
 43
1.0
 76
     1
 77
     6
 78
     2
 67
     7
 79
     5
170
     0
171
     0
290
     0
174
     0
 93
       13
 44
0.0
173
     0
291
     1
 45
0.0
  0
VISUALSTYLE
  5
2E
102
{ACAD_REACTORS
330
2A
102
}
102
{ACAD_XDICTIONARY
360
152
102
}
330
2A
100
AcDbVisualStyle
  2
GouraudWithEdges
 70
     3
 71
     2
 72
     2
 73
     1
 90
        2
 40
-0.6
 41
30.0
 62
     5
 63
     7
421
 16777215
 74
     1
 91
        4
 64
     7
 65
   257
 75
     1
175
     1
 42
1.0
 92
        0
 66
   257
 43
1.0
 76
     1
 77
     6
 78
     2
 67
     7
 79
     5
170
     0
171
     0
290
     0
174
     0
 93
       13
 44
0.0
173
     0
291
     1
 45
0.0
  0
VISUALSTYLE
  5
38
102
{ACAD_REACTORS
330
2A
102
}
102
{ACAD_XDICTIONARY
360
166
102
}
330
2A
100
AcDbVisualStyle
  2
Linepattern
 70
    14
 71
     2
 72
     2
 73
     0
 90
        0
 40
-0.6
 41
-30.0
 62
     5
 63
     7
421
 16777215
 74
     1
 91
        4
 64
     7
 65
   257
 75
     7
175
     7
 42
1.0
 92
        8
 66
     7
 43
1.0
 76
     1
 77
     6
 78
     2
 67
     7
 79
     5
170
     0
171
     0
290
     0
174
     0
 93
        1
 44
0.0
173
     0
291
     1
 45
0.0
  0
VISUALSTYLE
  5
33
102
{ACAD_REACTORS
330
2A
102
}
102
{ACAD_XDICTIONARY
360
15C
102
}
330
2A
100
AcDbVisualStyle
  2
Realistic
 70
     8
 71
     2
 72
     2
 73
     0
 90
        0
 40
-0.6
 41
-30.0
 62
     5
 63
     7
421
 16777215
 74
     1
 91
        0
 64
     7
 65
   257
 75
     1
175
     1
 42
1.0
 92
        8
 66
     8
424
  7895160
 43
1.0
 76
     1
 77
     6
 78
     2
 67
     7
 79
     5
170
     0
171
     0
290
     0
174
     0
 93
       13
 44
0.0
173
     0
291
     0
 45
0.0
  0
VISUALSTYLE
  5
37
102
{ACAD_REACTORS
330
2A
102
}
102
{ACAD_XDICTIONARY
360
164
102
}
330
2A
100
AcDbVisualStyle
  2
Thicken
 70
    13
 71
     2
 72
     2
 73
     0
 90
        0
 40
-0.6
 41
-30.0
 62
     5
 63
     7
421
 16777215
 74
     1
 91
        4
 64
     7
 65
   257
 75
     1
175
     1
 42
1.0
 92
       12
 66
     7
 43
1.0
 76
     1
 77
     6
 78
     2
 67
     7
 79
     5
170
     0
171
     0
290
     0
174
     0
 93
        1
 44
0.0
173
     0
291
     1
 45
0.0
  0
DICTIONARY
  5
154
330
2F
100
AcDbDictionary
280
     1
281
     1
  3
ACAD_XREC_ROUNDTRIP
360
155
  0
DICTIONARY
  5
158
330
31
100
AcDbDictionary
280
     1
281
     1
  3
ACAD_XREC_ROUNDTRIP
360
159
  0
DICTIONARY
  5
156
330
30
100
AcDbDictionary
280
     1
281
     1
  3
ACAD_XREC_ROUNDTRIP
360
157
  0
DICTIONARY
  5
15A
330
32
100
AcDbDictionary
280
     1
281
     1
  3
ACAD_XREC_ROUNDTRIP
360
15B
  0
DICTIONARY
  5
162
330
36
100
AcDbDictionary
280
     1
281
     1
  3
ACAD_XREC_ROUNDTRIP
360
163
  0
DICTIONARY
  5
16A
330
3A
100
AcDbDictionary
280
     1
281
     1
  3
ACAD_XREC_ROUNDTRIP
360
16B
  0
DICTIONARY
  5
15E
330
34
100
AcDbDictionary
280
     1
281
     1
  3
ACAD_XREC_ROUNDTRIP
360
15F
  0
DICTIONARY
  5
160
330
35
100
AcDbDictionary
280
     1
281
     1
  3
ACAD_XREC_ROUNDTRIP
360
161
  0
DICTIONARY
  5
168
330
39
100
AcDbDictionary
280
     1
281
     1
  3
ACAD_XREC_ROUNDTRIP
360
169
  0
DICTIONARY
  5
14C
330
2B
100
AcDbDictionary
280
     1
281
     1
  3
ACAD_XREC_ROUNDTRIP
360
14D
  0
DICTIONARY
  5
14E
330
2C
100
AcDbDictionary
280
     1
281
     1
  3
ACAD_XREC_ROUNDTRIP
360
14F
  0
DICTIONARY
  5
150
330
2D
100
AcDbDictionary
280
     1
281
     1
  3
ACAD_XREC_ROUNDTRIP
360
151
  0
DICTIONARY
  5
152
330
2E
100
AcDbDictionary
280
     1
281
     1
  3
ACAD_XREC_ROUNDTRIP
360
153
  0
DICTIONARY
  5
166
330
38
100
AcDbDictionary
280
     1
281
     1
  3
ACAD_XREC_ROUNDTRIP
360
167
  0
DICTIONARY
  5
15C
330
33
100
AcDbDictionary
280
     1
281
     1
  3
ACAD_XREC_ROUNDTRIP
360
15D
  0
DICTIONARY
  5
164
330
37
100
AcDbDictionary
280
     1
281
     1
  3
ACAD_XREC_ROUNDTRIP
360
165
  0
XRECORD
  5
155
102
{ACAD_REACTORS
330
154
102
}
330
154
100
AcDbXrecord
280
     1
102
RTVSPropertyOp0
 70
     1
102
RTVSPropertyOp1
 70
     1
102
RTVSPropertyOp2
 70
     1
102
RTVSPropertyOp3
 70
     1
102
RTVSPropertyOp4
 70
     1
102
RTVSPropertyOp5
 70
     1
102
RTVSPropertyOp6
 70
     1
102
RTVSPropertyOp7
 70
     1
102
RTVSPropertyOp8
 70
     1
102
RTVSPropertyOp9
 70
     1
102
RTVSPropertyOp10
 70
     1
102
RTVSPropertyOp11
 70
     1
102
RTVSPropertyOp12
 70
     1
102
RTVSPropertyOp13
 70
     1
102
RTVSPropertyOp14
 70
     1
102
RTVSPropertyOp15
 70
     1
102
RTVSPropertyOp16
 70
     1
102
RTVSPropertyOp17
 70
     1
102
RTVSPropertyOp18
 70
     1
102
RTVSPropertyOp19
 70
     1
102
RTVSPropertyOp20
 70
     1
102
RTVSPropertyOp21
 70
     1
102
RTVSPropertyOp22
 70
     1
102
RTVSPropertyOp23
 70
     1
102
RTVSPropertyOp24
 70
     1
102
RTVSPropertyOp25
 70
     1
102
RTVSPropertyOp26
 70
     1
102
RTVSPropertyOp27
 70
     1
  0
XRECORD
  5
159
102
{ACAD_REACTORS
330
158
102
}
330
158
100
AcDbXrecord
280
     1
102
RTVSPropertyOp0
 70
     1
102
RTVSPropertyOp1
 70
     1
102
RTVSPropertyOp2
 70
     1
102
RTVSPropertyOp3
 70
     1
102
RTVSPropertyOp4
 70
     1
102
RTVSPropertyOp5
 70
     1
102
RTVSPropertyOp6
 70
     1
102
RTVSPropertyOp7
 70
     1
102
RTVSPropertyOp8
 70
     1
102
RTVSPropertyOp9
 70
     1
102
RTVSPropertyOp10
 70
     1
102
RTVSPropertyOp11
 70
     1
102
RTVSPropertyOp12
 70
     1
102
RTVSPropertyOp13
 70
     1
102
RTVSPropertyOp14
 70
     1
102
RTVSPropertyOp15
 70
     1
102
RTVSPropertyOp16
 70
     1
102
RTVSPropertyOp17
 70
     1
102
RTVSPropertyOp18
 70
     1
102
RTVSPropertyOp19
 70
     1
102
RTVSPropertyOp20
 70
     1
102
RTVSPropertyOp21
 70
     1
102
RTVSPropertyOp22
 70
     1
102
RTVSPropertyOp23
 70
     1
102
RTVSPropertyOp24
 70
     1
102
RTVSPropertyOp25
 70
     1
102
RTVSPropertyOp26
 70
     1
102
RTVSPropertyOp27
 70
     1
  0
XRECORD
  5
157
102
{ACAD_REACTORS
330
156
102
}
330
156
100
AcDbXrecord
280
     1
102
RTVSPropertyOp0
 70
     1
102
RTVSPropertyOp1
 70
     1
102
RTVSPropertyOp2
 70
     1
102
RTVSPropertyOp3
 70
     1
102
RTVSPropertyOp4
 70
     1
102
RTVSPropertyOp5
 70
     1
102
RTVSPropertyOp6
 70
     1
102
RTVSPropertyOp7
 70
     1
102
RTVSPropertyOp8
 70
     1
102
RTVSPropertyOp9
 70
     1
102
RTVSPropertyOp10
 70
     1
102
RTVSPropertyOp11
 70
     1
102
RTVSPropertyOp12
 70
     1
102
RTVSPropertyOp13
 70
     1
102
RTVSPropertyOp14
 70
     1
102
RTVSPropertyOp15
 70
     1
102
RTVSPropertyOp16
 70
     1
102
RTVSPropertyOp17
 70
     1
102
RTVSPropertyOp18
 70
     1
102
RTVSPropertyOp19
 70
     1
102
RTVSPropertyOp20
 70
     1
102
RTVSPropertyOp21
 70
     1
102
RTVSPropertyOp22
 70
     1
102
RTVSPropertyOp23
 70
     1
102
RTVSPropertyOp24
 70
     1
102
RTVSPropertyOp25
 70
     1
102
RTVSPropertyOp26
 70
     1
102
RTVSPropertyOp27
 70
     1
  0
XRECORD
  5
15B
102
{ACAD_REACTORS
330
15A
102
}
330
15A
100
AcDbXrecord
280
     1
102
RTVSPropertyOp0
 70
     1
102
RTVSPropertyOp1
 70
     1
102
RTVSPropertyOp2
 70
     1
102
RTVSPropertyOp3
 70
     1
102
RTVSPropertyOp4
 70
     1
102
RTVSPropertyOp5
 70
     1
102
RTVSPropertyOp6
 70
     1
102
RTVSPropertyOp7
 70
     1
102
RTVSPropertyOp8
 70
     1
102
RTVSPropertyOp9
 70
     1
102
RTVSPropertyOp10
 70
     1
102
RTVSPropertyOp11
 70
     1
102
RTVSPropertyOp12
 70
     1
102
RTVSPropertyOp13
 70
     1
102
RTVSPropertyOp14
 70
     1
102
RTVSPropertyOp15
 70
     1
102
RTVSPropertyOp16
 70
     1
102
RTVSPropertyOp17
 70
     1
102
RTVSPropertyOp18
 70
     1
102
RTVSPropertyOp19
 70
     1
102
RTVSPropertyOp20
 70
     1
102
RTVSPropertyOp21
 70
     1
102
RTVSPropertyOp22
 70
     1
102
RTVSPropertyOp23
 70
     1
102
RTVSPropertyOp24
 70
     1
102
RTVSPropertyOp25
 70
     1
102
RTVSPropertyOp26
 70
     1
102
RTVSPropertyOp27
 70
     1
  0
XRECORD
  5
163
102
{ACAD_REACTORS
330
162
102
}
330
162
100
AcDbXrecord
280
     1
102
RTVSPropertyOp0
 70
     1
102
RTVSPropertyOp1
 70
     1
102
RTVSPropertyOp2
 70
     1
102
RTVSPropertyOp3
 70
     1
102
RTVSPropertyOp4
 70
     1
102
RTVSPropertyOp5
 70
     1
102
RTVSPropertyOp6
 70
     1
102
RTVSPropertyOp7
 70
     1
102
RTVSPropertyOp8
 70
     1
102
RTVSPropertyOp9
 70
     1
102
RTVSPropertyOp10
 70
     1
102
RTVSPropertyOp11
 70
     1
102
RTVSPropertyOp12
 70
     1
102
RTVSPropertyOp13
 70
     1
102
RTVSPropertyOp14
 70
     1
102
RTVSPropertyOp15
 70
     1
102
RTVSPropertyOp16
 70
     1
102
RTVSPropertyOp17
 70
     1
102
RTVSPropertyOp18
 70
     1
102
RTVSPropertyOp19
 70
     1
102
RTVSPropertyOp20
 70
     1
102
RTVSPropertyOp21
 70
     1
102
RTVSPropertyOp22
 70
     1
102
RTVSPropertyOp23
 70
     1
102
RTVSPropertyOp24
 70
     1
102
RTVSPropertyOp25
 70
     1
102
RTVSPropertyOp26
 70
     1
102
RTVSPropertyOp27
 70
     1
  0
XRECORD
  5
16B
102
{ACAD_REACTORS
330
16A
102
}
330
16A
100
AcDbXrecord
280
     1
102
RTVSPropertyOp0
 70
     1
102
RTVSPropertyOp1
 70
     1
102
RTVSPropertyOp2
 70
     1
102
RTVSPropertyOp3
 70
     1
102
RTVSPropertyOp4
 70
     1
102
RTVSPropertyOp5
 70
     1
102
RTVSPropertyOp6
 70
     1
102
RTVSPropertyOp7
 70
     1
102
RTVSPropertyOp8
 70
     1
102
RTVSPropertyOp9
 70
     1
102
RTVSPropertyOp10
 70
     1
102
RTVSPropertyOp11
 70
     1
102
RTVSPropertyOp12
 70
     1
102
RTVSPropertyOp13
 70
     1
102
RTVSPropertyOp14
 70
     1
102
RTVSPropertyOp15
 70
     1
102
RTVSPropertyOp16
 70
     1
102
RTVSPropertyOp17
 70
     1
102
RTVSPropertyOp18
 70
     1
102
RTVSPropertyOp19
 70
     1
102
RTVSPropertyOp20
 70
     1
102
RTVSPropertyOp21
 70
     1
102
RTVSPropertyOp22
 70
     1
102
RTVSPropertyOp23
 70
     1
102
RTVSPropertyOp24
 70
     1
102
RTVSPropertyOp25
 70
     1
102
RTVSPropertyOp26
 70
     1
102
RTVSPropertyOp27
 70
     1
  0
XRECORD
  5
15F
102
{ACAD_REACTORS
330
15E
102
}
330
15E
100
AcDbXrecord
280
     1
102
RTVSPropertyOp0
 70
     1
102
RTVSPropertyOp1
 70
     1
102
RTVSPropertyOp2
 70
     1
102
RTVSPropertyOp3
 70
     1
102
RTVSPropertyOp4
 70
     1
102
RTVSPropertyOp5
 70
     1
102
RTVSPropertyOp6
 70
     1
102
RTVSPropertyOp7
 70
     1
102
RTVSPropertyOp8
 70
     1
102
RTVSPropertyOp9
 70
     1
102
RTVSPropertyOp10
 70
     1
102
RTVSPropertyOp11
 70
     1
102
RTVSPropertyOp12
 70
     1
102
RTVSPropertyOp13
 70
     1
102
RTVSPropertyOp14
 70
     1
102
RTVSPropertyOp15
 70
     1
102
RTVSPropertyOp16
 70
     1
102
RTVSPropertyOp17
 70
     1
102
RTVSPropertyOp18
 70
     1
102
RTVSPropertyOp19
 70
     1
102
RTVSPropertyOp20
 70
     1
102
RTVSPropertyOp21
 70
     1
102
RTVSPropertyOp22
 70
     1
102
RTVSPropertyOp23
 70
     1
102
RTVSPropertyOp24
 70
     1
102
RTVSPropertyOp25
 70
     1
102
RTVSPropertyOp26
 70
     1
102
RTVSPropertyOp27
 70
     1
  0
XRECORD
  5
161
102
{ACAD_REACTORS
330
160
102
}
330
160
100
AcDbXrecord
280
     1
102
RTVSPropertyOp0
 70
     1
102
RTVSPropertyOp1
 70
     1
102
RTVSPropertyOp2
 70
     1
102
RTVSPropertyOp3
 70
     1
102
RTVSPropertyOp4
 70
     1
102
RTVSPropertyOp5
 70
     1
102
RTVSPropertyOp6
 70
     1
102
RTVSPropertyOp7
 70
     1
102
RTVSPropertyOp8
 70
     1
102
RTVSPropertyOp9
 70
     1
102
RTVSPropertyOp10
 70
     1
102
RTVSPropertyOp11
 70
     1
102
RTVSPropertyOp12
 70
     1
102
RTVSPropertyOp13
 70
     1
102
RTVSPropertyOp14
 70
     1
102
RTVSPropertyOp15
 70
     1
102
RTVSPropertyOp16
 70
     1
102
RTVSPropertyOp17
 70
     1
102
RTVSPropertyOp18
 70
     1
102
RTVSPropertyOp19
 70
     1
102
RTVSPropertyOp20
 70
     1
102
RTVSPropertyOp21
 70
     1
102
RTVSPropertyOp22
 70
     1
102
RTVSPropertyOp23
 70
     1
102
RTVSPropertyOp24
 70
     1
102
RTVSPropertyOp25
 70
     1
102
RTVSPropertyOp26
 70
     1
102
RTVSPropertyOp27
 70
     1
  0
XRECORD
  5
169
102
{ACAD_REACTORS
330
168
102
}
330
168
100
AcDbXrecord
280
     1
102
RTVSPropertyOp0
 70
     1
102
RTVSPropertyOp1
 70
     1
102
RTVSPropertyOp2
 70
     1
102
RTVSPropertyOp3
 70
     1
102
RTVSPropertyOp4
 70
     1
102
RTVSPropertyOp5
 70
     1
102
RTVSPropertyOp6
 70
     1
102
RTVSPropertyOp7
 70
     1
102
RTVSPropertyOp8
 70
     1
102
RTVSPropertyOp9
 70
     1
102
RTVSPropertyOp10
 70
     1
102
RTVSPropertyOp11
 70
     1
102
RTVSPropertyOp12
 70
     1
102
RTVSPropertyOp13
 70
     1
102
RTVSPropertyOp14
 70
     1
102
RTVSPropertyOp15
 70
     1
102
RTVSPropertyOp16
 70
     1
102
RTVSPropertyOp17
 70
     1
102
RTVSPropertyOp18
 70
     1
102
RTVSPropertyOp19
 70
     1
102
RTVSPropertyOp20
 70
     1
102
RTVSPropertyOp21
 70
     1
102
RTVSPropertyOp22
 70
     1
102
RTVSPropertyOp23
 70
     1
102
RTVSPropertyOp24
 70
     1
102
RTVSPropertyOp25
 70
     1
102
RTVSPropertyOp26
 70
     1
102
RTVSPropertyOp27
 70
     1
  0
XRECORD
  5
14D
102
{ACAD_REACTORS
330
14C
102
}
330
14C
100
AcDbXrecord
280
     1
102
RTVSPropertyOp0
 70
     1
102
RTVSPropertyOp1
 70
     1
102
RTVSPropertyOp2
 70
     1
102
RTVSPropertyOp3
 70
     1
102
RTVSPropertyOp4
 70
     1
102
RTVSPropertyOp5
 70
     1
102
RTVSPropertyOp6
 70
     1
102
RTVSPropertyOp7
 70
     1
102
RTVSPropertyOp8
 70
     1
102
RTVSPropertyOp9
 70
     1
102
RTVSPropertyOp10
 70
     1
102
RTVSPropertyOp11
 70
     1
102
RTVSPropertyOp12
 70
     1
102
RTVSPropertyOp13
 70
     1
102
RTVSPropertyOp14
 70
     1
102
RTVSPropertyOp15
 70
     1
102
RTVSPropertyOp16
 70
     1
102
RTVSPropertyOp17
 70
     1
102
RTVSPropertyOp18
 70
     1
102
RTVSPropertyOp19
 70
     1
102
RTVSPropertyOp20
 70
     1
102
RTVSPropertyOp21
 70
     1
102
RTVSPropertyOp22
 70
     1
102
RTVSPropertyOp23
 70
     1
102
RTVSPropertyOp24
 70
     1
102
RTVSPropertyOp25
 70
     1
102
RTVSPropertyOp26
 70
     1
102
RTVSPropertyOp27
 70
     1
  0
XRECORD
  5
14F
102
{ACAD_REACTORS
330
14E
102
}
330
14E
100
AcDbXrecord
280
     1
102
RTVSPropertyOp0
 70
     1
102
RTVSPropertyOp1
 70
     1
102
RTVSPropertyOp2
 70
     1
102
RTVSPropertyOp3
 70
     1
102
RTVSPropertyOp4
 70
     1
102
RTVSPropertyOp5
 70
     1
102
RTVSPropertyOp6
 70
     1
102
RTVSPropertyOp7
 70
     1
102
RTVSPropertyOp8
 70
     1
102
RTVSPropertyOp9
 70
     1
102
RTVSPropertyOp10
 70
     1
102
RTVSPropertyOp11
 70
     1
102
RTVSPropertyOp12
 70
     1
102
RTVSPropertyOp13
 70
     1
102
RTVSPropertyOp14
 70
     1
102
RTVSPropertyOp15
 70
     1
102
RTVSPropertyOp16
 70
     1
102
RTVSPropertyOp17
 70
     1
102
RTVSPropertyOp18
 70
     1
102
RTVSPropertyOp19
 70
     1
102
RTVSPropertyOp20
 70
     1
102
RTVSPropertyOp21
 70
     1
102
RTVSPropertyOp22
 70
     1
102
RTVSPropertyOp23
 70
     1
102
RTVSPropertyOp24
 70
     1
102
RTVSPropertyOp25
 70
     1
102
RTVSPropertyOp26
 70
     1
102
RTVSPropertyOp27
 70
     1
  0
XRECORD
  5
151
102
{ACAD_REACTORS
330
150
102
}
330
150
100
AcDbXrecord
280
     1
102
RTVSPropertyOp0
 70
     1
102
RTVSPropertyOp1
 70
     1
102
RTVSPropertyOp2
 70
     1
102
RTVSPropertyOp3
 70
     1
102
RTVSPropertyOp4
 70
     1
102
RTVSPropertyOp5
 70
     1
102
RTVSPropertyOp6
 70
     1
102
RTVSPropertyOp7
 70
     1
102
RTVSPropertyOp8
 70
     1
102
RTVSPropertyOp9
 70
     1
102
RTVSPropertyOp10
 70
     1
102
RTVSPropertyOp11
 70
     1
102
RTVSPropertyOp12
 70
     1
102
RTVSPropertyOp13
 70
     1
102
RTVSPropertyOp14
 70
     1
102
RTVSPropertyOp15
 70
     1
102
RTVSPropertyOp16
 70
     1
102
RTVSPropertyOp17
 70
     1
102
RTVSPropertyOp18
 70
     1
102
RTVSPropertyOp19
 70
     1
102
RTVSPropertyOp20
 70
     1
102
RTVSPropertyOp21
 70
     1
102
RTVSPropertyOp22
 70
     1
102
RTVSPropertyOp23
 70
     1
102
RTVSPropertyOp24
 70
     1
102
RTVSPropertyOp25
 70
     1
102
RTVSPropertyOp26
 70
     1
102
RTVSPropertyOp27
 70
     1
  0
XRECORD
  5
153
102
{ACAD_REACTORS
330
152
102
}
330
152
100
AcDbXrecord
280
     1
102
RTVSPropertyOp0
 70
     1
102
RTVSPropertyOp1
 70
     1
102
RTVSPropertyOp2
 70
     1
102
RTVSPropertyOp3
 70
     1
102
RTVSPropertyOp4
 70
     1
102
RTVSPropertyOp5
 70
     1
102
RTVSPropertyOp6
 70
     1
102
RTVSPropertyOp7
 70
     1
102
RTVSPropertyOp8
 70
     1
102
RTVSPropertyOp9
 70
     1
102
RTVSPropertyOp10
 70
     1
102
RTVSPropertyOp11
 70
     1
102
RTVSPropertyOp12
 70
     1
102
RTVSPropertyOp13
 70
     1
102
RTVSPropertyOp14
 70
     1
102
RTVSPropertyOp15
 70
     1
102
RTVSPropertyOp16
 70
     1
102
RTVSPropertyOp17
 70
     1
102
RTVSPropertyOp18
 70
     1
102
RTVSPropertyOp19
 70
     1
102
RTVSPropertyOp20
 70
     1
102
RTVSPropertyOp21
 70
     1
102
RTVSPropertyOp22
 70
     1
102
RTVSPropertyOp23
 70
     1
102
RTVSPropertyOp24
 70
     1
102
RTVSPropertyOp25
 70
     1
102
RTVSPropertyOp26
 70
     1
102
RTVSPropertyOp27
 70
     1
  0
XRECORD
  5
167
102
{ACAD_REACTORS
330
166
102
}
330
166
100
AcDbXrecord
280
     1
102
RTVSPropertyOp0
 70
     1
102
RTVSPropertyOp1
 70
     1
102
RTVSPropertyOp2
 70
     1
102
RTVSPropertyOp3
 70
     1
102
RTVSPropertyOp4
 70
     1
102
RTVSPropertyOp5
 70
     1
102
RTVSPropertyOp6
 70
     1
102
RTVSPropertyOp7
 70
     1
102
RTVSPropertyOp8
 70
     1
102
RTVSPropertyOp9
 70
     1
102
RTVSPropertyOp10
 70
     1
102
RTVSPropertyOp11
 70
     1
102
RTVSPropertyOp12
 70
     1
102
RTVSPropertyOp13
 70
     1
102
RTVSPropertyOp14
 70
     1
102
RTVSPropertyOp15
 70
     1
102
RTVSPropertyOp16
 70
     1
102
RTVSPropertyOp17
 70
     1
102
RTVSPropertyOp18
 70
     1
102
RTVSPropertyOp19
 70
     1
102
RTVSPropertyOp20
 70
     1
102
RTVSPropertyOp21
 70
     1
102
RTVSPropertyOp22
 70
     1
102
RTVSPropertyOp23
 70
     1
102
RTVSPropertyOp24
 70
     1
102
RTVSPropertyOp25
 70
     1
102
RTVSPropertyOp26
 70
     1
102
RTVSPropertyOp27
 70
     1
  0
XRECORD
  5
15D
102
{ACAD_REACTORS
330
15C
102
}
330
15C
100
AcDbXrecord
280
     1
102
RTVSPropertyOp0
 70
     1
102
RTVSPropertyOp1
 70
     1
102
RTVSPropertyOp2
 70
     1
102
RTVSPropertyOp3
 70
     1
102
RTVSPropertyOp4
 70
     1
102
RTVSPropertyOp5
 70
     1
102
RTVSPropertyOp6
 70
     1
102
RTVSPropertyOp7
 70
     1
102
RTVSPropertyOp8
 70
     1
102
RTVSPropertyOp9
 70
     1
102
RTVSPropertyOp10
 70
     1
102
RTVSPropertyOp11
 70
     1
102
RTVSPropertyOp12
 70
     1
102
RTVSPropertyOp13
 70
     1
102
RTVSPropertyOp14
 70
     1
102
RTVSPropertyOp15
 70
     1
102
RTVSPropertyOp16
 70
     1
102
RTVSPropertyOp17
 70
     1
102
RTVSPropertyOp18
 70
     1
102
RTVSPropertyOp19
 70
     1
102
RTVSPropertyOp20
 70
     1
102
RTVSPropertyOp21
 70
     1
102
RTVSPropertyOp22
 70
     1
102
RTVSPropertyOp23
 70
     1
102
RTVSPropertyOp24
 70
     1
102
RTVSPropertyOp25
 70
     1
102
RTVSPropertyOp26
 70
     1
102
RTVSPropertyOp27
 70
     1
  0
XRECORD
  5
165
102
{ACAD_REACTORS
330
164
102
}
330
164
100
AcDbXrecord
280
     1
102
RTVSPropertyOp0
 70
     1
102
RTVSPropertyOp1
 70
     1
102
RTVSPropertyOp2
 70
     1
102
RTVSPropertyOp3
 70
     1
102
RTVSPropertyOp4
 70
     1
102
RTVSPropertyOp5
 70
     1
102
RTVSPropertyOp6
 70
     1
102
RTVSPropertyOp7
 70
     1
102
RTVSPropertyOp8
 70
     1
102
RTVSPropertyOp9
 70
     1
102
RTVSPropertyOp10
 70
     1
102
RTVSPropertyOp11
 70
     1
102
RTVSPropertyOp12
 70
     1
102
RTVSPropertyOp13
 70
     1
102
RTVSPropertyOp14
 70
     1
102
RTVSPropertyOp15
 70
     1
102
RTVSPropertyOp16
 70
     1
102
RTVSPropertyOp17
 70
     1
102
RTVSPropertyOp18
 70
     1
102
RTVSPropertyOp19
 70
     1
102
RTVSPropertyOp20
 70
     1
102
RTVSPropertyOp21
 70
     1
102
RTVSPropertyOp22
 70
     1
102
RTVSPropertyOp23
 70
     1
102
RTVSPropertyOp24
 70
     1
102
RTVSPropertyOp25
 70
     1
102
RTVSPropertyOp26
 70
     1
102
RTVSPropertyOp27
 70
     1
  0
ENDSEC
  0
EOF
