  0
SECTION
  2
HEADER
  9
$ACADVER
  1
AC1021
  9
$ACADMAINTVER
 70
    25
  9
$DWGCODEPAGE
  3
ANSI_1252
  9
$INSBASE
 10
0.0
 20
0.0
 30
0.0
  9
$EXTMIN
 10
-7.76227
 20
-4.20996
 30
0.0
  9
$EXTMAX
 10
7.77248
 20
12.27654
 30
0.0
  9
$LIMMIN
 10
0.0
 20
0.0
  9
$LIMMAX
 10
12.0
 20
9.0
  9
$ORTHOMODE
 70
     0
  9
$REGENMODE
 70
     1
  9
$FILLMODE
 70
     1
  9
$QTEXTMODE
 70
     0
  9
$MIRRTEXT
 70
     1
  9
$LTSCALE
 40
1.0
  9
$ATTMODE
 70
     1
  9
$TEXTSIZE
 40
0.2
  9
$TRACEWID
 40
0.05
  9
$TEXTSTYLE
  7
Standard
  9
$CLAYER
  8
0
  9
$CELTYPE
  6
ByLayer
  9
$CECOLOR
 62
   256
  9
$CELTSCALE
 40
1.0
  9
$DISPSILH
 70
     0
  9
$DIMSCALE
 40
1.0
  9
$DIMASZ
 40
0.18
  9
$DIMEXO
 40
0.0625
  9
$DIMDLI
 40
0.38
  9
$DIMRND
 40
0.0
  9
$DIMDLE
 40
0.0
  9
$DIMEXE
 40
0.18
  9
$DIMTP
 40
0.0
  9
$DIMTM
 40
0.0
  9
$DIMTXT
 40
0.18
  9
$DIMCEN
 40
0.09
  9
$DIMTSZ
 40
0.0
  9
$DIMTOL
 70
     0
  9
$DIMLIM
 70
     0
  9
$DIMTIH
 70
     1
  9
$DIMTOH
 70
     1
  9
$DIMSE1
 70
     0
  9
$DIMSE2
 70
     0
  9
$DIMTAD
 70
     0
  9
$DIMZIN
 70
     0
  9
$DIMBLK
  1

  9
$DIMASO
 70
     1
  9
$DIMSHO
 70
     1
  9
$DIMPOST
  1

  9
$DIMAPOST
  1

  9
$DIMALT
 70
     0
  9
$DIMALTD
 70
     2
  9
$DIMALTF
 40
25.4
  9
$DIMLFAC
 40
1.0
  9
$DIMTOFL
 70
     0
  9
$DIMTVP
 40
0.0
  9
$DIMTIX
 70
     0
  9
$DIMSOXD
 70
     0
  9
$DIMSAH
 70
     0
  9
$DIMBLK1
  1

  9
$DIMBLK2
  1

  9
$DIMSTYLE
  2
Standard
  9
$DIMCLRD
 70
     0
  9
$DIMCLRE
 70
     0
  9
$DIMCLRT
 70
     0
  9
$DIMTFAC
 40
1.0
  9
$DIMGAP
 40
0.09
  9
$DIMJUST
 70
     0
  9
$DIMSD1
 70
     0
  9
$DIMSD2
 70
     0
  9
$DIMTOLJ
 70
     1
  9
$DIMTZIN
 70
     0
  9
$DIMALTZ
 70
     0
  9
$DIMALTTZ
 70
     0
  9
$DIMUPT
 70
     0
  9
$DIMDEC
 70
     4
  9
$DIMTDEC
 70
     4
  9
$DIMALTU
 70
     2
  9
$DIMALTTD
 70
     2
  9
$DIMTXSTY
  7
Standard
  9
$DIMAUNIT
 70
     0
  9
$DIMADEC
 70
     0
  9
$DIMALTRND
 40
0.0
  9
$DIMAZIN
 70
     0
  9
$DIMDSEP
 70
    46
  9
$DIMATFIT
 70
     3
  9
$DIMFRAC
 70
     0
  9
$DIMLDRBLK
  1

  9
$DIMLUNIT
 70
     2
  9
$DIMLWD
 70
    -2
  9
$DIMLWE
 70
    -2
  9
$DIMTMOVE
 70
     0
  9
$DIMFXL
 40
1.0
  9
$DIMFXLON
 70
     0
  9
$DIMJOGANG
 40
0.7853981633974483
  9
$DIMTFILL
 70
     0
  9
$DIMTFILLCLR
 70
     0
  9
$DIMARCSYM
 70
     0
  9
$DIMLTYPE
  6

  9
$DIMLTEX1
  6

  9
$DIMLTEX2
  6

  9
$LUNITS
 70
     2
  9
$LUPREC
 70
     4
  9
$SKETCHINC
 40
0.1
  9
$FILLETRAD
 40
0.5
  9
$AUNITS
 70
     0
  9
$AUPREC
 70
     0
  9
$MENU
  1
.
  9
$ELEVATION
 40
0.0
  9
$PELEVATION
 40
0.0
  9
$THICKNESS
 40
0.0
  9
$LIMCHECK
 70
     0
  9
$CHAMFERA
 40
0.5
  9
$CHAMFERB
 40
0.5
  9
$CHAMFERC
 40
1.0
  9
$CHAMFERD
 40
0.0
  9
$SKPOLY
 70
     0
  9
$TDCREATE
 40
2456615.363473634
  9
$TDUCREATE
 40
2456615.321806968
  9
$TDUPDATE
 40
2456615.363473646
  9
$TDUUPDATE
 40
2456615.321806979
  9
$TDINDWG
 40
0.0000000116
  9
$TDUSRTIMER
 40
0.0000000116
  9
$USRTIMER
 70
     1
  9
$ANGBASE
 50
0.0
  9
$ANGDIR
 70
     0
  9
$PDMODE
 70
     0
  9
$PDSIZE
 40
0.0
  9
$PLINEWID
 40
0.0
  9
$SPLFRAME
 70
     0
  9
$SPLINETYPE
 70
     6
  9
$SPLINESEGS
 70
     8
  9
$HANDSEED
  5
19D
  9
$SURFTAB1
 70
     6
  9
$SURFTAB2
 70
     6
  9
$SURFTYPE
 70
     6
  9
$SURFU
 70
     6
  9
$SURFV
 70
     6
  9
$UCSBASE
  2

  9
$UCSNAME
  2

  9
$UCSORG
 10
0.0
 20
0.0
 30
0.0
  9
$UCSXDIR
 10
1.0
 20
0.0
 30
0.0
  9
$UCSYDIR
 10
0.0
 20
1.0
 30
0.0
  9
$UCSORTHOREF
  2

  9
$UCSORTHOVIEW
 70
     0
  9
$UCSORGTOP
 10
0.0
 20
0.0
 30
0.0
  9
$UCSORGBOTTOM
 10
0.0
 20
0.0
 30
0.0
  9
$UCSORGLEFT
 10
0.0
 20
0.0
 30
0.0
  9
$UCSORGRIGHT
 10
0.0
 20
0.0
 30
0.0
  9
$UCSORGFRONT
 10
0.0
 20
0.0
 30
0.0
  9
$UCSORGBACK
 10
0.0
 20
0.0
 30
0.0
  9
$PUCSBASE
  2

  9
$PUCSNAME
  2

  9
$PUCSORG
 10
0.0
 20
0.0
 30
0.0
  9
$PUCSXDIR
 10
1.0
 20
0.0
 30
0.0
  9
$PUCSYDIR
 10
0.0
 20
1.0
 30
0.0
  9
$PUCSORTHOREF
  2

  9
$PUCSORTHOVIEW
 70
     0
  9
$PUCSORGTOP
 10
0.0
 20
0.0
 30
0.0
  9
$PUCSORGBOTTOM
 10
0.0
 20
0.0
 30
0.0
  9
$PUCSORGLEFT
 10
0.0
 20
0.0
 30
0.0
  9
$PUCSORGRIGHT
 10
0.0
 20
0.0
 30
0.0
  9
$PUCSORGFRONT
 10
0.0
 20
0.0
 30
0.0
  9
$PUCSORGBACK
 10
0.0
 20
0.0
 30
0.0
  9
$USERI1
 70
     0
  9
$USERI2
 70
     0
  9
$USERI3
 70
     0
  9
$USERI4
 70
     0
  9
$USERI5
 70
     0
  9
$USERR1
 40
0.0
  9
$USERR2
 40
0.0
  9
$USERR3
 40
0.0
  9
$USERR4
 40
0.0
  9
$USERR5
 40
0.0
  9
$WORLDVIEW
 70
     1
  9
$SHADEDGE
 70
     3
  9
$SHADEDIF
 70
    70
  9
$TILEMODE
 70
     1
  9
$MAXACTVP
 70
    64
  9
$PINSBASE
 10
0.0
 20
0.0
 30
0.0
  9
$PLIMCHECK
 70
     0
  9
$PEXTMIN
 10
1.000000000000000E+20
 20
1.000000000000000E+20
 30
1.000000000000000E+20
  9
$PEXTMAX
 10
-1.000000000000000E+20
 20
-1.000000000000000E+20
 30
-1.000000000000000E+20
  9
$PLIMMIN
 10
0.0
 20
0.0
  9
$PLIMMAX
 10
12.0
 20
9.0
  9
$UNITMODE
 70
     0
  9
$VISRETAIN
 70
     1
  9
$PLINEGEN
 70
     0
  9
$PSLTSCALE
 70
     1
  9
$TREEDEPTH
 70
  3020
  9
$CMLSTYLE
  2
Standard
  9
$CMLJUST
 70
     0
  9
$CMLSCALE
 40
1.0
  9
$PROXYGRAPHICS
 70
     1
  9
$MEASUREMENT
 70
     0
  9
$CELWEIGHT
370
    -1
  9
$ENDCAPS
280
     0
  9
$JOINSTYLE
280
     0
  9
$LWDISPLAY
290
     0
  9
$INSUNITS
 70
     5
  9
$HYPERLINKBASE
  1

  9
$STYLESHEET
  1

  9
$XEDIT
290
     1
  9
$CEPSNTYPE
380
     0
  9
$PSTYLEMODE
290
     1
  9
$FINGERPRINTGUID
  2
{94CEA5EF-82DF-4054-8915-0155F109ED4F}
  9
$VERSIONGUID
  2
{FAEB1C32-E019-11D5-929B-00C0DF256EC4}
  9
$EXTNAMES
290
     1
  9
$PSVPSCALE
 40
0.0
  9
$OLESTARTUP
290
     0
  9
$SORTENTS
280
   127
  9
$INDEXCTL
280
     0
  9
$HIDETEXT
280
     1
  9
$XCLIPFRAME
290
     0
  9
$HALOGAP
280
     0
  9
$OBSCOLOR
 70
   257
  9
$OBSLTYPE
280
     0
  9
$INTERSECTIONDISPLAY
280
     0
  9
$INTERSECTIONCOLOR
 70
   257
  9
$DIMASSOC
280
     2
  9
$PROJECTNAME
  1

  9
$CAMERADISPLAY
290
     0
  9
$LENSLENGTH
 40
50.0
  9
$CAMERAHEIGHT
 40
0.0
  9
$STEPSPERSEC
 40
2.0
  9
$STEPSIZE
 40
6.0
  9
$3DDWFPREC
 40
2.0
  9
$PSOLWIDTH
 40
0.25
  9
$PSOLHEIGHT
 40
4.0
  9
$LOFTANG1
 40
1.570796326794897
  9
$LOFTANG2
 40
1.570796326794897
  9
$LOFTMAG1
 40
0.0
  9
$LOFTMAG2
 40
0.0
  9
$LOFTPARAM
 70
     7
  9
$LOFTNORMALS
280
     1
  9
$LATITUDE
 40
37.795
  9
$LONGITUDE
 40
-122.394
  9
$NORTHDIRECTION
 40
0.0
  9
$TIMEZONE
 70
 -8000
  9
$LIGHTGLYPHDISPLAY
280
     1
  9
$TILEMODELIGHTSYNCH
280
     1
  9
$SOLIDHIST
280
     1
  9
$SHOWHIST
280
     1
  9
$DWFFRAME
280
     2
  9
$DGNFRAME
280
     2
  9
$REALWORLDSCALE
290
     1
  9
$INTERFERECOLOR
 62
   256
  9
$CSHADOW
280
     0
  9
$SHADOWPLANELOCATION
 40
0.0
  0
ENDSEC
  0
SECTION
  2
CLASSES
  0
CLASS
  1
ACDBDICTIONARYWDFLT
  2
AcDbDictionaryWithDefault
  3
ObjectDBX Classes
 90
        0
 91
        4
280
     0
281
     0
  0
CLASS
  1
VISUALSTYLE
  2
AcDbVisualStyle
  3
ObjectDBX Classes
 90
     4095
 91
        4
280
     0
281
     0
  0
CLASS
  1
MATERIAL
  2
AcDbMaterial
  3
ObjectDBX Classes
 90
     1153
 91
        4
280
     0
281
     0
  0
ENDSEC
  0
SECTION
  2
TABLES
  0
TABLE
  2
VPORT
  5
8
330
0
100
AcDbSymbolTable
 70
     1
  0
VPORT
  5
29
330
8
100
AcDbSymbolTableRecord
100
AcDbViewportTableRecord
  2
*Active
 70
     0
 10
0.0
 20
0.0
 11
1.0
 21
1.0
 12
10.42990654205607
 22
4.5
 13
0.0
 23
0.0
 14
0.5
 24
0.5
 15
0.5
 25
0.5
 16
0.0
 26
0.0
 36
1.0
 17
0.0
 27
0.0
 37
0.0
 40
9.0
 41
1.972972972850329
 42
50.0
 43
0.0
 44
0.0
 50
0.0
 51
0.0
 71
     0
 72
   100
 73
     1
 74
     3
 75
     0
 76
     0
 77
     0
 78
     0
281
     0
 65
     1
110
0.0
120
0.0
130
0.0
111
1.0
121
0.0
131
0.0
112
0.0
122
1.0
132
0.0
 79
     0
146
0.0
 60
     3
 61
     5
292
     1
282
     1
141
0.0
142
0.0
 63
   250
  0
ENDTAB
  0
TABLE
  2
LTYPE
  5
5
330
0
100
AcDbSymbolTable
 70
     1
  0
LTYPE
  5
14
330
5
100
AcDbSymbolTableRecord
100
AcDbLinetypeTableRecord
  2
ByBlock
 70
     0
  3

 72
    65
 73
     0
 40
0.0
  0
LTYPE
  5
15
330
5
100
AcDbSymbolTableRecord
100
AcDbLinetypeTableRecord
  2
ByLayer
 70
     0
  3

 72
    65
 73
     0
 40
0.0
  0
LTYPE
  5
16
330
5
100
AcDbSymbolTableRecord
100
AcDbLinetypeTableRecord
  2
Continuous
 70
     0
  3
Solid line
 72
    65
 73
     0
 40
0.0
  0
ENDTAB
  0
TABLE
  2
LAYER
  5
2
330
0
100
AcDbSymbolTable
 70
     1
  0
LAYER
  5
10
330
2
100
AcDbSymbolTableRecord
100
AcDbLayerTableRecord
  2
0
 70
     0
 62
     7
  6
Continuous
370
    -3
390
F
347
3E
  0
ENDTAB
  0
TABLE
  2
STYLE
  5
3
330
0
100
AcDbSymbolTable
 70
     1
  0
STYLE
  5
11
330
3
100
AcDbSymbolTableRecord
100
AcDbTextStyleTableRecord
  2
Standard
 70
     0
 40
0.0
 41
1.0
 50
0.0
 71
     0
 42
0.2
  3
txt
  4

  0
ENDTAB
  0
TABLE
  2
VIEW
  5
6
330
0
100
AcDbSymbolTable
 70
     0
  0
ENDTAB
  0
TABLE
  2
UCS
  5
7
330
0
100
AcDbSymbolTable
 70
     0
  0
ENDTAB
  0
TABLE
  2
APPID
  5
9
330
0
100
AcDbSymbolTable
 70
     2
  0
APPID
  5
12
330
9
100
AcDbSymbolTableRecord
100
AcDbRegAppTableRecord
  2
ACAD
 70
     0
  0
APPID
  5
3F
330
9
100
AcDbSymbolTableRecord
100
AcDbRegAppTableRecord
  2
ODA
 70
     0
  0
ENDTAB
  0
TABLE
  2
DIMSTYLE
  5
A
330
0
100
AcDbSymbolTable
 70
     1
100
AcDbDimStyleTable
  0
DIMSTYLE
105
27
330
A
100
AcDbSymbolTableRecord
100
AcDbDimStyleTableRecord
  2
Standard
 70
     0
178
     0
340
11
  0
ENDTAB
  0
TABLE
  2
BLOCK_RECORD
  5
1
330
0
100
AcDbSymbolTable
 70
     1
  0
BLOCK_RECORD
  5
1F
330
1
100
AcDbSymbolTableRecord
100
AcDbBlockTableRecord
  2
*Model_Space
340
22
 70
     0
280
     1
281
     0
  0
BLOCK_RECORD
  5
1B
330
1
100
AcDbSymbolTableRecord
100
AcDbBlockTableRecord
  2
*Paper_Space
340
1E
 70
     0
280
     1
281
     0
  0
BLOCK_RECORD
  5
23
330
1
100
AcDbSymbolTableRecord
100
AcDbBlockTableRecord
  2
*Paper_Space0
340
26
 70
     0
280
     1
281
     0
  0
ENDTAB
  0
ENDSEC
  0
SECTION
  2
BLOCKS
  0
BLOCK
  5
20
330
1F
100
AcDbEntity
  8
0
100
AcDbBlockBegin
  2
*Model_Space
 70
     0
 10
0.0
 20
0.0
 30
0.0
  3
*Model_Space
  1

  0
ENDBLK
  5
21
330
1F
100
AcDbEntity
  8
0
100
AcDbBlockEnd
  0
BLOCK
  5
1C
330
1B
100
AcDbEntity
 67
     1
  8
0
100
AcDbBlockBegin
  2
*Paper_Space
 70
     0
 10
0.0
 20
0.0
 30
0.0
  3
*Paper_Space
  1

  0
ENDBLK
  5
1D
330
1B
100
AcDbEntity
 67
     1
  8
0
100
AcDbBlockEnd
  0
BLOCK
  5
24
330
23
100
AcDbEntity
  8
0
100
AcDbBlockBegin
  2
*Paper_Space0
 70
     0
 10
0.0
 20
0.0
 30
0.0
  3
*Paper_Space0
  1

  0
ENDBLK
  5
25
330
23
100
AcDbEntity
  8
0
100
AcDbBlockEnd
  0
ENDSEC
  0
SECTION
  2
ENTITIES
  0
SPLINE
  5
40
330
1F
100
AcDbEntity
  8
0
370
    15
100
AcDbSpline
210
0.0
220
0.0
230
1.0
 70
     8
 71
     3
 72
     8
 73
     4
 74
     0
 42
0.0000000001
 43
0.0000000001
 40
0.0
 40
0.0
 40
0.0
 40
0.0
 40
1.0
 40
1.0
 40
1.0
 40
1.0
 10
-7.7354
 20
10.14289
 30
0.0
 10
-7.73551
 20
10.12703
 30
0.0
 10
-7.73411
 20
10.11118
 30
0.0
 10
-7.73122
 20
10.09558
 30
0.0
  0
SPLINE
  5
41
330
1F
100
AcDbEntity
  8
0
370
    15
100
AcDbSpline
210
0.0
220
0.0
230
1.0
 70
     8
 71
     3
 72
     8
 73
     4
 74
     0
 42
0.0000000001
 43
0.0000000001
 40
0.0
 40
0.0
 40
0.0
 40
0.0
 40
1.0
 40
1.0
 40
1.0
 40
1.0
 10
-4.00968
 20
10.09558
 30
0.0
 10
-4.00679
 20
10.11118
 30
0.0
 10
-4.00539
 20
10.12702
 30
0.0
 10
-4.0055
 20
10.14289
 30
0.0
  0
SPLINE
  5
42
330
1F
100
AcDbEntity
  8
0
370
    15
100
AcDbSpline
210
0.0
220
0.0
230
1.0
 70
    24
 71
     3
 72
     8
 73
     4
 74
     0
 42
0.0000000001
 43
0.0000000001
 40
0.0
 40
0.0
 40
0.0
 40
0.0
 40
1.0
 40
1.0
 40
1.0
 40
1.0
 10
-4.0055
 20
10.14289
 30
0.0
 10
-4.0055
 20
10.14289
 30
0.0
 10
-4.0201
 20
12.21939
 30
0.0
 10
-4.0201
 20
12.21939
 30
0.0
  0
SPLINE
  5
43
330
1F
100
AcDbEntity
  8
0
370
    15
100
AcDbSpline
210
0.0
220
0.0
230
1.0
 70
    24
 71
     3
 72
     8
 73
     4
 74
     0
 42
0.0000000001
 43
0.0000000001
 40
0.0
 40
0.0
 40
0.0
 40
0.0
 40
1.0
 40
1.0
 40
1.0
 40
1.0
 10
-7.7208
 20
12.21939
 30
0.0
 10
-7.7208
 20
12.21939
 30
0.0
 10
-7.7354
 20
10.14289
 30
0.0
 10
-7.7354
 20
10.14289
 30
0.0
  0
SPLINE
  5
44
330
1F
100
AcDbEntity
  8
0
370
    15
100
AcDbSpline
210
0.0
220
0.0
230
1.0
 70
    24
 71
     3
 72
     8
 73
     4
 74
     0
 42
0.0000000001
 43
0.0000000001
 40
0.0
 40
0.0
 40
0.0
 40
0.0
 40
1.0
 40
1.0
 40
1.0
 40
1.0
 10
-7.73122
 20
10.09558
 30
0.0
 10
-7.73122
 20
10.09558
 30
0.0
 10
-7.57045
 20
9.22814
 30
0.0
 10
-7.57045
 20
9.22814
 30
0.0
  0
SPLINE
  5
45
330
1F
100
AcDbEntity
  8
0
370
    15
100
AcDbSpline
210
0.0
220
0.0
230
1.0
 70
    24
 71
     3
 72
     8
 73
     4
 74
     0
 42
0.0000000001
 43
0.0000000001
 40
0.0
 40
0.0
 40
0.0
 40
0.0
 40
1.0
 40
1.0
 40
1.0
 40
1.0
 10
-4.17045
 20
9.22814
 30
0.0
 10
-4.17045
 20
9.22814
 30
0.0
 10
-4.00968
 20
10.09558
 30
0.0
 10
-4.00968
 20
10.09558
 30
0.0
  0
SPLINE
  5
46
330
1F
100
AcDbEntity
  8
0
370
    15
100
AcDbSpline
210
0.0
220
0.0
230
1.0
 70
     8
 71
     3
 72
     8
 73
     4
 74
     0
 42
0.0000000001
 43
0.0000000001
 40
0.0
 40
0.0
 40
0.0
 40
0.0
 40
1.0
 40
1.0
 40
1.0
 40
1.0
 10
-7.6708
 20
12.26904
 30
0.0
 10
-7.69828
 20
12.26904
 30
0.0
 10
-7.72061
 20
12.24687
 30
0.0
 10
-7.7208
 20
12.21939
 30
0.0
  0
SPLINE
  5
47
330
1F
100
AcDbEntity
  8
0
370
    15
100
AcDbSpline
210
0.0
220
0.0
230
1.0
 70
     8
 71
     3
 72
     8
 73
     4
 74
     0
 42
0.0000000001
 43
0.0000000001
 40
0.0
 40
0.0
 40
0.0
 40
0.0
 40
1.0
 40
1.0
 40
1.0
 40
1.0
 10
-4.0201
 20
12.21939
 30
0.0
 10
-4.02029
 20
12.24687
 30
0.0
 10
-4.04262
 20
12.26904
 30
0.0
 10
-4.0701
 20
12.26904
 30
0.0
  0
SPLINE
  5
48
330
1F
100
AcDbEntity
  8
0
370
    15
100
AcDbSpline
210
0.0
220
0.0
230
1.0
 70
     8
 71
     3
 72
     8
 73
     4
 74
     0
 42
0.0000000001
 43
0.0000000001
 40
0.0
 40
0.0
 40
0.0
 40
0.0
 40
1.0
 40
1.0
 40
1.0
 40
1.0
 10
-7.57045
 20
9.22814
 30
0.0
 10
-7.5609
 20
9.17659
 30
0.0
 10
-7.53538
 20
9.12935
 30
0.0
 10
-7.4975
 20
9.0931
 30
0.0
  0
SPLINE
  5
49
330
1F
100
AcDbEntity
  8
0
370
    15
100
AcDbSpline
210
0.0
220
0.0
230
1.0
 70
     8
 71
     3
 72
     8
 73
     4
 74
     0
 42
0.0000000001
 43
0.0000000001
 40
0.0
 40
0.0
 40
0.0
 40
0.0
 40
1.0
 40
1.0
 40
1.0
 40
1.0
 10
-4.2434
 20
9.0931
 30
0.0
 10
-4.20552
 20
9.12935
 30
0.0
 10
-4.18001
 20
9.17659
 30
0.0
 10
-4.17045
 20
9.22814
 30
0.0
  0
SPLINE
  5
4A
330
1F
100
AcDbEntity
  8
0
370
    15
100
AcDbSpline
210
0.0
220
0.0
230
1.0
 70
     8
 71
     3
 72
    12
 73
     8
 74
     0
 42
0.0000000001
 43
0.0000000001
 40
0.0
 40
0.0
 40
0.0
 40
0.0
 40
0.3333333333333333
 40
0.3333333333333333
 40
0.3333333333333333
 40
0.3333333333333333
 40
1.0
 40
1.0
 40
1.0
 40
1.0
 10
-7.4975
 20
9.0931
 30
0.0
 10
-7.4975
 20
9.0931
 30
0.0
 10
-7.48072
 20
9.07539
 30
0.0
 10
-7.48072
 20
9.07539
 30
0.0
 10
-7.48072
 20
9.07539
 30
0.0
 10
-7.48072
 20
9.07539
 30
0.0
 10
-7.47544
 20
9.06904
 30
0.0
 10
-7.47544
 20
9.06904
 30
0.0
  0
SPLINE
  5
4B
330
1F
100
AcDbEntity
  8
0
370
    15
100
AcDbSpline
210
0.0
220
0.0
230
1.0
 70
     8
 71
     3
 72
    12
 73
     8
 74
     0
 42
0.0000000001
 43
0.0000000001
 40
0.0
 40
0.0
 40
0.0
 40
0.0
 40
0.3333333333333333
 40
0.3333333333333333
 40
0.3333333333333333
 40
0.3333333333333333
 40
1.0
 40
1.0
 40
1.0
 40
1.0
 10
-4.26546
 20
9.06904
 30
0.0
 10
-4.26546
 20
9.06904
 30
0.0
 10
-4.26018
 20
9.07539
 30
0.0
 10
-4.26018
 20
9.07539
 30
0.0
 10
-4.26018
 20
9.07539
 30
0.0
 10
-4.26018
 20
9.07539
 30
0.0
 10
-4.2434
 20
9.0931
 30
0.0
 10
-4.2434
 20
9.0931
 30
0.0
  0
SPLINE
  5
4C
330
1F
100
AcDbEntity
  8
0
370
    15
100
AcDbSpline
210
0.0
220
0.0
230
1.0
 70
    24
 71
     3
 72
     8
 73
     4
 74
     0
 42
0.0000000001
 43
0.0000000001
 40
0.0
 40
0.0
 40
0.0
 40
0.0
 40
1.0
 40
1.0
 40
1.0
 40
1.0
 10
-7.40998
 20
8.51904
 30
0.0
 10
-7.40998
 20
8.51904
 30
0.0
 10
-7.39017
 20
7.76249
 30
0.0
 10
-7.39017
 20
7.76249
 30
0.0
  0
SPLINE
  5
4D
330
1F
100
AcDbEntity
  8
0
370
    15
100
AcDbSpline
210
0.0
220
0.0
230
1.0
 70
    24
 71
     3
 72
     8
 73
     4
 74
     0
 42
0.0000000001
 43
0.0000000001
 40
0.0
 40
0.0
 40
0.0
 40
0.0
 40
1.0
 40
1.0
 40
1.0
 40
1.0
 10
-4.35074
 20
7.76249
 30
0.0
 10
-4.35074
 20
7.76249
 30
0.0
 10
-4.33093
 20
8.51904
 30
0.0
 10
-4.33093
 20
8.51904
 30
0.0
  0
SPLINE
  5
4E
330
1F
100
AcDbEntity
  8
0
370
    15
100
AcDbSpline
210
0.0
220
0.0
230
1.0
 70
     8
 71
     3
 72
     8
 73
     4
 74
     0
 42
0.0000000001
 43
0.0000000001
 40
0.0
 40
0.0
 40
0.0
 40
0.0
 40
1.0
 40
1.0
 40
1.0
 40
1.0
 10
-7.39017
 20
7.76249
 30
0.0
 10
-7.38662
 20
7.62702
 30
0.0
 10
-7.27577
 20
7.51904
 30
0.0
 10
-7.14025
 20
7.51904
 30
0.0
  0
SPLINE
  5
4F
330
1F
100
AcDbEntity
  8
0
370
    15
100
AcDbSpline
210
0.0
220
0.0
230
1.0
 70
     8
 71
     3
 72
     8
 73
     4
 74
     0
 42
0.0000000001
 43
0.0000000001
 40
0.0
 40
0.0
 40
0.0
 40
0.0
 40
1.0
 40
1.0
 40
1.0
 40
1.0
 10
-4.60065
 20
7.51904
 30
0.0
 10
-4.46513
 20
7.51904
 30
0.0
 10
-4.35428
 20
7.62702
 30
0.0
 10
-4.35074
 20
7.76249
 30
0.0
  0
SPLINE
  5
50
330
1F
100
AcDbEntity
  8
0
370
    15
100
AcDbSpline
210
0.0
220
0.0
230
1.0
 70
     8
 71
     3
 72
     8
 73
     4
 74
     0
 42
0.0000000001
 43
0.0000000001
 40
0.0
 40
0.0
 40
0.0
 40
0.0
 40
1.0
 40
1.0
 40
1.0
 40
1.0
 10
-3.7354
 20
10.14289
 30
0.0
 10
-3.73551
 20
10.12703
 30
0.0
 10
-3.73411
 20
10.11118
 30
0.0
 10
-3.73122
 20
10.09558
 30
0.0
  0
SPLINE
  5
51
330
1F
100
AcDbEntity
  8
0
370
    15
100
AcDbSpline
210
0.0
220
0.0
230
1.0
 70
     8
 71
     3
 72
     8
 73
     4
 74
     0
 42
0.0000000001
 43
0.0000000001
 40
0.0
 40
0.0
 40
0.0
 40
0.0
 40
1.0
 40
1.0
 40
1.0
 40
1.0
 10
-0.00968
 20
10.09558
 30
0.0
 10
-0.00679
 20
10.11118
 30
0.0
 10
-0.00539
 20
10.12702
 30
0.0
 10
-0.0055
 20
10.14289
 30
0.0
  0
SPLINE
  5
52
330
1F
100
AcDbEntity
  8
0
370
    15
100
AcDbSpline
210
0.0
220
0.0
230
1.0
 70
    24
 71
     3
 72
     8
 73
     4
 74
     0
 42
0.0000000001
 43
0.0000000001
 40
0.0
 40
0.0
 40
0.0
 40
0.0
 40
1.0
 40
1.0
 40
1.0
 40
1.0
 10
-0.0055
 20
10.14289
 30
0.0
 10
-0.0055
 20
10.14289
 30
0.0
 10
-0.0201
 20
12.21939
 30
0.0
 10
-0.0201
 20
12.21939
 30
0.0
  0
SPLINE
  5
53
330
1F
100
AcDbEntity
  8
0
370
    15
100
AcDbSpline
210
0.0
220
0.0
230
1.0
 70
    24
 71
     3
 72
     8
 73
     4
 74
     0
 42
0.0000000001
 43
0.0000000001
 40
0.0
 40
0.0
 40
0.0
 40
0.0
 40
1.0
 40
1.0
 40
1.0
 40
1.0
 10
-3.7208
 20
12.21939
 30
0.0
 10
-3.7208
 20
12.21939
 30
0.0
 10
-3.7354
 20
10.14289
 30
0.0
 10
-3.7354
 20
10.14289
 30
0.0
  0
SPLINE
  5
54
330
1F
100
AcDbEntity
  8
0
370
    15
100
AcDbSpline
210
0.0
220
0.0
230
1.0
 70
    24
 71
     3
 72
     8
 73
     4
 74
     0
 42
0.0000000001
 43
0.0000000001
 40
0.0
 40
0.0
 40
0.0
 40
0.0
 40
1.0
 40
1.0
 40
1.0
 40
1.0
 10
-3.73122
 20
10.09558
 30
0.0
 10
-3.73122
 20
10.09558
 30
0.0
 10
-3.57045
 20
9.22814
 30
0.0
 10
-3.57045
 20
9.22814
 30
0.0
  0
SPLINE
  5
55
330
1F
100
AcDbEntity
  8
0
370
    15
100
AcDbSpline
210
0.0
220
0.0
230
1.0
 70
    24
 71
     3
 72
     8
 73
     4
 74
     0
 42
0.0000000001
 43
0.0000000001
 40
0.0
 40
0.0
 40
0.0
 40
0.0
 40
1.0
 40
1.0
 40
1.0
 40
1.0
 10
-0.17045
 20
9.22814
 30
0.0
 10
-0.17045
 20
9.22814
 30
0.0
 10
-0.00968
 20
10.09558
 30
0.0
 10
-0.00968
 20
10.09558
 30
0.0
  0
SPLINE
  5
56
330
1F
100
AcDbEntity
  8
0
370
    15
100
AcDbSpline
210
0.0
220
0.0
230
1.0
 70
     8
 71
     3
 72
     8
 73
     4
 74
     0
 42
0.0000000001
 43
0.0000000001
 40
0.0
 40
0.0
 40
0.0
 40
0.0
 40
1.0
 40
1.0
 40
1.0
 40
1.0
 10
-3.6708
 20
12.26904
 30
0.0
 10
-3.69828
 20
12.26904
 30
0.0
 10
-3.72061
 20
12.24687
 30
0.0
 10
-3.7208
 20
12.21939
 30
0.0
  0
SPLINE
  5
57
330
1F
100
AcDbEntity
  8
0
370
    15
100
AcDbSpline
210
0.0
220
0.0
230
1.0
 70
     8
 71
     3
 72
     8
 73
     4
 74
     0
 42
0.0000000001
 43
0.0000000001
 40
0.0
 40
0.0
 40
0.0
 40
0.0
 40
1.0
 40
1.0
 40
1.0
 40
1.0
 10
-0.0201
 20
12.21939
 30
0.0
 10
-0.02029
 20
12.24687
 30
0.0
 10
-0.04262
 20
12.26904
 30
0.0
 10
-0.0701
 20
12.26904
 30
0.0
  0
SPLINE
  5
58
330
1F
100
AcDbEntity
  8
0
370
    15
100
AcDbSpline
210
0.0
220
0.0
230
1.0
 70
     8
 71
     3
 72
     8
 73
     4
 74
     0
 42
0.0000000001
 43
0.0000000001
 40
0.0
 40
0.0
 40
0.0
 40
0.0
 40
1.0
 40
1.0
 40
1.0
 40
1.0
 10
-3.57045
 20
9.22814
 30
0.0
 10
-3.5609
 20
9.17659
 30
0.0
 10
-3.53538
 20
9.12935
 30
0.0
 10
-3.4975
 20
9.0931
 30
0.0
  0
SPLINE
  5
59
330
1F
100
AcDbEntity
  8
0
370
    15
100
AcDbSpline
210
0.0
220
0.0
230
1.0
 70
     8
 71
     3
 72
     8
 73
     4
 74
     0
 42
0.0000000001
 43
0.0000000001
 40
0.0
 40
0.0
 40
0.0
 40
0.0
 40
1.0
 40
1.0
 40
1.0
 40
1.0
 10
-0.2434
 20
9.0931
 30
0.0
 10
-0.20552
 20
9.12935
 30
0.0
 10
-0.18001
 20
9.17659
 30
0.0
 10
-0.17045
 20
9.22814
 30
0.0
  0
SPLINE
  5
5A
330
1F
100
AcDbEntity
  8
0
370
    15
100
AcDbSpline
210
0.0
220
0.0
230
1.0
 70
     8
 71
     3
 72
    12
 73
     8
 74
     0
 42
0.0000000001
 43
0.0000000001
 40
0.0
 40
0.0
 40
0.0
 40
0.0
 40
0.3333333333333333
 40
0.3333333333333333
 40
0.3333333333333333
 40
0.3333333333333333
 40
1.0
 40
1.0
 40
1.0
 40
1.0
 10
-3.4975
 20
9.0931
 30
0.0
 10
-3.4975
 20
9.0931
 30
0.0
 10
-3.48072
 20
9.07539
 30
0.0
 10
-3.48072
 20
9.07539
 30
0.0
 10
-3.48072
 20
9.07539
 30
0.0
 10
-3.48072
 20
9.07539
 30
0.0
 10
-3.47544
 20
9.06904
 30
0.0
 10
-3.47544
 20
9.06904
 30
0.0
  0
SPLINE
  5
5B
330
1F
100
AcDbEntity
  8
0
370
    15
100
AcDbSpline
210
0.0
220
0.0
230
1.0
 70
     8
 71
     3
 72
    12
 73
     8
 74
     0
 42
0.0000000001
 43
0.0000000001
 40
0.0
 40
0.0
 40
0.0
 40
0.0
 40
0.3333333333333333
 40
0.3333333333333333
 40
0.3333333333333333
 40
0.3333333333333333
 40
1.0
 40
1.0
 40
1.0
 40
1.0
 10
-0.26546
 20
9.06904
 30
0.0
 10
-0.26546
 20
9.06904
 30
0.0
 10
-0.26018
 20
9.07539
 30
0.0
 10
-0.26018
 20
9.07539
 30
0.0
 10
-0.26018
 20
9.07539
 30
0.0
 10
-0.26018
 20
9.07539
 30
0.0
 10
-0.2434
 20
9.0931
 30
0.0
 10
-0.2434
 20
9.0931
 30
0.0
  0
SPLINE
  5
5C
330
1F
100
AcDbEntity
  8
0
370
    15
100
AcDbSpline
210
0.0
220
0.0
230
1.0
 70
    24
 71
     3
 72
     8
 73
     4
 74
     0
 42
0.0000000001
 43
0.0000000001
 40
0.0
 40
0.0
 40
0.0
 40
0.0
 40
1.0
 40
1.0
 40
1.0
 40
1.0
 10
-3.40998
 20
8.51904
 30
0.0
 10
-3.40998
 20
8.51904
 30
0.0
 10
-3.39017
 20
7.76249
 30
0.0
 10
-3.39017
 20
7.76249
 30
0.0
  0
SPLINE
  5
5D
330
1F
100
AcDbEntity
  8
0
370
    15
100
AcDbSpline
210
0.0
220
0.0
230
1.0
 70
    24
 71
     3
 72
     8
 73
     4
 74
     0
 42
0.0000000001
 43
0.0000000001
 40
0.0
 40
0.0
 40
0.0
 40
0.0
 40
1.0
 40
1.0
 40
1.0
 40
1.0
 10
-0.35074
 20
7.76249
 30
0.0
 10
-0.35074
 20
7.76249
 30
0.0
 10
-0.33093
 20
8.51904
 30
0.0
 10
-0.33093
 20
8.51904
 30
0.0
  0
SPLINE
  5
5E
330
1F
100
AcDbEntity
  8
0
370
    15
100
AcDbSpline
210
0.0
220
0.0
230
1.0
 70
     8
 71
     3
 72
     8
 73
     4
 74
     0
 42
0.0000000001
 43
0.0000000001
 40
0.0
 40
0.0
 40
0.0
 40
0.0
 40
1.0
 40
1.0
 40
1.0
 40
1.0
 10
-3.39017
 20
7.76249
 30
0.0
 10
-3.38662
 20
7.62702
 30
0.0
 10
-3.27577
 20
7.51904
 30
0.0
 10
-3.14025
 20
7.51904
 30
0.0
  0
SPLINE
  5
5F
330
1F
100
AcDbEntity
  8
0
370
    15
100
AcDbSpline
210
0.0
220
0.0
230
1.0
 70
     8
 71
     3
 72
     8
 73
     4
 74
     0
 42
0.0000000001
 43
0.0000000001
 40
0.0
 40
0.0
 40
0.0
 40
0.0
 40
1.0
 40
1.0
 40
1.0
 40
1.0
 10
-0.60065
 20
7.51904
 30
0.0
 10
-0.46513
 20
7.51904
 30
0.0
 10
-0.35428
 20
7.62702
 30
0.0
 10
-0.35074
 20
7.76249
 30
0.0
  0
SPLINE
  5
60
330
1F
100
AcDbEntity
  8
0
370
    15
100
AcDbSpline
210
0.0
220
0.0
230
1.0
 70
    24
 71
     3
 72
     8
 73
     4
 74
     0
 42
0.0000000001
 43
0.0000000001
 40
0.0
 40
0.0
 40
0.0
 40
0.0
 40
1.0
 40
1.0
 40
1.0
 40
1.0
 10
-3.52314
 20
8.66904
 30
0.0
 10
-3.52314
 20
8.66904
 30
0.0
 10
-3.48295
 20
8.51904
 30
0.0
 10
-3.48295
 20
8.51904
 30
0.0
  0
SPLINE
  5
61
330
1F
100
AcDbEntity
  8
0
370
    15
100
AcDbSpline
210
0.0
220
0.0
230
1.0
 70
    24
 71
     3
 72
     8
 73
     4
 74
     0
 42
0.0000000001
 43
0.0000000001
 40
0.0
 40
0.0
 40
0.0
 40
0.0
 40
1.0
 40
1.0
 40
1.0
 40
1.0
 10
-0.25795
 20
8.51904
 30
0.0
 10
-0.25795
 20
8.51904
 30
0.0
 10
-0.21776
 20
8.66904
 30
0.0
 10
-0.21776
 20
8.66904
 30
0.0
  0
SPLINE
  5
62
330
1F
100
AcDbEntity
  8
0
370
    15
100
AcDbSpline
210
0.0
220
0.0
230
1.0
 70
    24
 71
     3
 72
     8
 73
     4
 74
     0
 42
0.0000000001
 43
0.0000000001
 40
0.0
 40
0.0
 40
0.0
 40
0.0
 40
1.0
 40
1.0
 40
1.0
 40
1.0
 10
-7.52314
 20
8.66904
 30
0.0
 10
-7.52314
 20
8.66904
 30
0.0
 10
-7.48295
 20
8.51904
 30
0.0
 10
-7.48295
 20
8.51904
 30
0.0
  0
SPLINE
  5
63
330
1F
100
AcDbEntity
  8
0
370
    15
100
AcDbSpline
210
0.0
220
0.0
230
1.0
 70
    24
 71
     3
 72
     8
 73
     4
 74
     0
 42
0.0000000001
 43
0.0000000001
 40
0.0
 40
0.0
 40
0.0
 40
0.0
 40
1.0
 40
1.0
 40
1.0
 40
1.0
 10
-4.25795
 20
8.51904
 30
0.0
 10
-4.25795
 20
8.51904
 30
0.0
 10
-4.21776
 20
8.66904
 30
0.0
 10
-4.21776
 20
8.66904
 30
0.0
  0
SPLINE
  5
64
330
1F
100
AcDbEntity
  8
0
370
    15
100
AcDbSpline
210
0.0
220
0.0
230
1.0
 70
     8
 71
     3
 72
     8
 73
     4
 74
     0
 42
0.0000000001
 43
0.0000000001
 40
0.0
 40
0.0
 40
0.0
 40
0.0
 40
1.0
 40
1.0
 40
1.0
 40
1.0
 10
-7.72045
 20
9.06904
 30
0.0
 10
-7.7662
 20
8.93963
 30
0.0
 10
-7.7662
 20
8.79845
 30
0.0
 10
-7.72045
 20
8.66904
 30
0.0
  0
SPLINE
  5
65
330
1F
100
AcDbEntity
  8
0
370
    15
100
AcDbSpline
210
0.0
220
0.0
230
1.0
 70
     8
 71
     3
 72
     8
 73
     4
 74
     0
 42
0.0000000001
 43
0.0000000001
 40
0.0
 40
0.0
 40
0.0
 40
0.0
 40
1.0
 40
1.0
 40
1.0
 40
1.0
 10
-0.02045
 20
8.66904
 30
0.0
 10
0.0253
 20
8.79844
 30
0.0
 10
0.0253
 20
8.93963
 30
0.0
 10
-0.02045
 20
9.06903
 30
0.0
  0
SPLINE
  5
66
330
1F
100
AcDbEntity
  8
0
370
    15
100
AcDbSpline
210
0.0
220
0.0
230
1.0
 70
    24
 71
     3
 72
     8
 73
     4
 74
     0
 42
0.0000000001
 43
0.0000000001
 40
0.0
 40
0.0
 40
0.0
 40
0.0
 40
1.0
 40
1.0
 40
1.0
 40
1.0
 10
-2.18614
 20
7.01904
 30
0.0
 10
-2.18614
 20
7.01904
 30
0.0
 10
-2.18614
 20
7.51904
 30
0.0
 10
-2.18614
 20
7.51904
 30
0.0
  0
SPLINE
  5
67
330
1F
100
AcDbEntity
  8
0
370
    15
100
AcDbSpline
210
0.0
220
0.0
230
1.0
 70
    24
 71
     3
 72
     8
 73
     4
 74
     0
 42
0.0000000001
 43
0.0000000001
 40
0.0
 40
0.0
 40
0.0
 40
0.0
 40
1.0
 40
1.0
 40
1.0
 40
1.0
 10
-5.55477
 20
7.51904
 30
0.0
 10
-5.55477
 20
7.51904
 30
0.0
 10
-5.55477
 20
7.01904
 30
0.0
 10
-5.55477
 20
7.01904
 30
0.0
  0
SPLINE
  5
68
330
1F
100
AcDbEntity
  8
0
370
    15
100
AcDbSpline
210
0.0
220
0.0
230
1.0
 70
    24
 71
     3
 72
     8
 73
     4
 74
     0
 42
0.0000000001
 43
0.0000000001
 40
0.0
 40
0.0
 40
0.0
 40
0.0
 40
1.0
 40
1.0
 40
1.0
 40
1.0
 10
-4.6952
 20
12.26904
 30
0.0
 10
-4.6952
 20
12.26904
 30
0.0
 10
-4.0701
 20
12.26904
 30
0.0
 10
-4.0701
 20
12.26904
 30
0.0
  0
SPLINE
  5
69
330
1F
100
AcDbEntity
  8
0
370
    15
100
AcDbSpline
210
0.0
220
0.0
230
1.0
 70
    24
 71
     3
 72
     8
 73
     4
 74
     0
 42
0.0000000001
 43
0.0000000001
 40
0.0
 40
0.0
 40
0.0
 40
0.0
 40
1.0
 40
1.0
 40
1.0
 40
1.0
 10
-7.6708
 20
12.26904
 30
0.0
 10
-7.6708
 20
12.26904
 30
0.0
 10
-4.6952
 20
12.26904
 30
0.0
 10
-4.6952
 20
12.26904
 30
0.0
  0
SPLINE
  5
6A
330
1F
100
AcDbEntity
  8
0
370
    15
100
AcDbSpline
210
0.0
220
0.0
230
1.0
 70
    24
 71
     3
 72
     8
 73
     4
 74
     0
 42
0.0000000001
 43
0.0000000001
 40
0.0
 40
0.0
 40
0.0
 40
0.0
 40
1.0
 40
1.0
 40
1.0
 40
1.0
 10
-5.04154
 20
7.51904
 30
0.0
 10
-5.04154
 20
7.51904
 30
0.0
 10
-4.60065
 20
7.51904
 30
0.0
 10
-4.60065
 20
7.51904
 30
0.0
  0
SPLINE
  5
6B
330
1F
100
AcDbEntity
  8
0
370
    15
100
AcDbSpline
210
0.0
220
0.0
230
1.0
 70
    24
 71
     3
 72
     8
 73
     4
 74
     0
 42
0.0000000001
 43
0.0000000001
 40
0.0
 40
0.0
 40
0.0
 40
0.0
 40
1.0
 40
1.0
 40
1.0
 40
1.0
 10
-7.14025
 20
7.51904
 30
0.0
 10
-7.14025
 20
7.51904
 30
0.0
 10
-5.04154
 20
7.51904
 30
0.0
 10
-5.04154
 20
7.51904
 30
0.0
  0
SPLINE
  5
6C
330
1F
100
AcDbEntity
  8
0
370
    15
100
AcDbSpline
210
0.0
220
0.0
230
1.0
 70
    24
 71
     3
 72
     8
 73
     4
 74
     0
 42
0.0000000001
 43
0.0000000001
 40
0.0
 40
0.0
 40
0.0
 40
0.0
 40
1.0
 40
1.0
 40
1.0
 40
1.0
 10
-3.6708
 20
12.26904
 30
0.0
 10
-3.6708
 20
12.26904
 30
0.0
 10
-0.0701
 20
12.26904
 30
0.0
 10
-0.0701
 20
12.26904
 30
0.0
  0
SPLINE
  5
6D
330
1F
100
AcDbEntity
  8
0
370
    15
100
AcDbSpline
210
0.0
220
0.0
230
1.0
 70
    24
 71
     3
 72
     8
 73
     4
 74
     0
 42
0.0000000001
 43
0.0000000001
 40
0.0
 40
0.0
 40
0.0
 40
0.0
 40
1.0
 40
1.0
 40
1.0
 40
1.0
 10
-3.14025
 20
7.51904
 30
0.0
 10
-3.14025
 20
7.51904
 30
0.0
 10
-0.60065
 20
7.51904
 30
0.0
 10
-0.60065
 20
7.51904
 30
0.0
  0
SPLINE
  5
6E
330
1F
100
AcDbEntity
  8
0
370
    15
100
AcDbSpline
210
0.0
220
0.0
230
1.0
 70
    24
 71
     3
 72
     8
 73
     4
 74
     0
 42
0.0000000001
 43
0.0000000001
 40
0.0
 40
0.0
 40
0.0
 40
0.0
 40
1.0
 40
1.0
 40
1.0
 40
1.0
 10
-0.25795
 20
8.51904
 30
0.0
 10
-0.25795
 20
8.51904
 30
0.0
 10
-3.48295
 20
8.51904
 30
0.0
 10
-3.48295
 20
8.51904
 30
0.0
  0
SPLINE
  5
6F
330
1F
100
AcDbEntity
  8
0
370
    15
100
AcDbSpline
210
0.0
220
0.0
230
1.0
 70
    24
 71
     3
 72
     8
 73
     4
 74
     0
 42
0.0000000001
 43
0.0000000001
 40
0.0
 40
0.0
 40
0.0
 40
0.0
 40
1.0
 40
1.0
 40
1.0
 40
1.0
 10
-4.25795
 20
8.51904
 30
0.0
 10
-4.25795
 20
8.51904
 30
0.0
 10
-7.48295
 20
8.51904
 30
0.0
 10
-7.48295
 20
8.51904
 30
0.0
  0
SPLINE
  5
70
330
1F
100
AcDbEntity
  8
0
370
    15
100
AcDbSpline
210
0.0
220
0.0
230
1.0
 70
    24
 71
     3
 72
     8
 73
     4
 74
     0
 42
0.0000000001
 43
0.0000000001
 40
0.0
 40
0.0
 40
0.0
 40
0.0
 40
1.0
 40
1.0
 40
1.0
 40
1.0
 10
-4.43106
 20
8.66904
 30
0.0
 10
-4.43106
 20
8.66904
 30
0.0
 10
-7.72045
 20
8.66904
 30
0.0
 10
-7.72045
 20
8.66904
 30
0.0
  0
SPLINE
  5
71
330
1F
100
AcDbEntity
  8
0
370
    15
100
AcDbSpline
210
0.0
220
0.0
230
1.0
 70
    24
 71
     3
 72
     8
 73
     4
 74
     0
 42
0.0000000001
 43
0.0000000001
 40
0.0
 40
0.0
 40
0.0
 40
0.0
 40
1.0
 40
1.0
 40
1.0
 40
1.0
 10
-7.72045
 20
9.06904
 30
0.0
 10
-7.72045
 20
9.06904
 30
0.0
 10
-4.43106
 20
9.06904
 30
0.0
 10
-4.43106
 20
9.06904
 30
0.0
  0
SPLINE
  5
72
330
1F
100
AcDbEntity
  8
0
370
    15
100
AcDbSpline
210
0.0
220
0.0
230
1.0
 70
     8
 71
     3
 72
     8
 73
     4
 74
     0
 42
0.0000000001
 43
0.0000000001
 40
0.0
 40
0.0
 40
0.0
 40
0.0
 40
1.0
 40
1.0
 40
1.0
 40
1.0
 10
-4.43106
 20
8.66904
 30
0.0
 10
-4.3954
 20
8.79998
 30
0.0
 10
-4.3954
 20
8.93809
 30
0.0
 10
-4.43106
 20
9.06903
 30
0.0
  0
SPLINE
  5
73
330
1F
100
AcDbEntity
  8
0
370
    15
100
AcDbSpline
210
0.0
220
0.0
230
1.0
 70
    24
 71
     3
 72
     8
 73
     4
 74
     0
 42
0.0000000001
 43
0.0000000001
 40
0.0
 40
0.0
 40
0.0
 40
0.0
 40
1.0
 40
1.0
 40
1.0
 40
1.0
 10
-0.02045
 20
8.66904
 30
0.0
 10
-0.02045
 20
8.66904
 30
0.0
 10
-3.30984
 20
8.66904
 30
0.0
 10
-3.30984
 20
8.66904
 30
0.0
  0
SPLINE
  5
74
330
1F
100
AcDbEntity
  8
0
370
    15
100
AcDbSpline
210
0.0
220
0.0
230
1.0
 70
     8
 71
     3
 72
     8
 73
     4
 74
     0
 42
0.0000000001
 43
0.0000000001
 40
0.0
 40
0.0
 40
0.0
 40
0.0
 40
1.0
 40
1.0
 40
1.0
 40
1.0
 10
-3.30984
 20
9.06904
 30
0.0
 10
-3.34551
 20
8.93809
 30
0.0
 10
-3.34551
 20
8.79999
 30
0.0
 10
-3.30984
 20
8.66904
 30
0.0
  0
SPLINE
  5
75
330
1F
100
AcDbEntity
  8
0
370
    15
100
AcDbSpline
210
0.0
220
0.0
230
1.0
 70
    24
 71
     3
 72
     8
 73
     4
 74
     0
 42
0.0000000001
 43
0.0000000001
 40
0.0
 40
0.0
 40
0.0
 40
0.0
 40
1.0
 40
1.0
 40
1.0
 40
1.0
 10
-3.30984
 20
9.06904
 30
0.0
 10
-3.30984
 20
9.06904
 30
0.0
 10
-0.02045
 20
9.06904
 30
0.0
 10
-0.02045
 20
9.06904
 30
0.0
  0
SPLINE
  5
76
330
1F
100
AcDbEntity
  8
0
370
    15
100
AcDbSpline
210
0.0
220
0.0
230
1.0
 70
    24
 71
     3
 72
     8
 73
     4
 74
     0
 42
0.0000000001
 43
0.0000000001
 40
0.0
 40
0.0
 40
0.0
 40
0.0
 40
1.0
 40
1.0
 40
1.0
 40
1.0
 10
-4.35326
 20
9.06904
 30
0.0
 10
-4.35326
 20
9.06904
 30
0.0
 10
-4.35326
 20
8.66904
 30
0.0
 10
-4.35326
 20
8.66904
 30
0.0
  0
SPLINE
  5
77
330
1F
100
AcDbEntity
  8
0
370
    15
100
AcDbSpline
210
0.0
220
0.0
230
1.0
 70
    24
 71
     3
 72
     8
 73
     4
 74
     0
 42
0.0000000001
 43
0.0000000001
 40
0.0
 40
0.0
 40
0.0
 40
0.0
 40
1.0
 40
1.0
 40
1.0
 40
1.0
 10
-4.35326
 20
8.66904
 30
0.0
 10
-4.35326
 20
8.66904
 30
0.0
 10
-4.43106
 20
8.66904
 30
0.0
 10
-4.43106
 20
8.66904
 30
0.0
  0
SPLINE
  5
78
330
1F
100
AcDbEntity
  8
0
370
    15
100
AcDbSpline
210
0.0
220
0.0
230
1.0
 70
    24
 71
     3
 72
     8
 73
     4
 74
     0
 42
0.0000000001
 43
0.0000000001
 40
0.0
 40
0.0
 40
0.0
 40
0.0
 40
1.0
 40
1.0
 40
1.0
 40
1.0
 10
-4.43106
 20
9.06904
 30
0.0
 10
-4.43106
 20
9.06904
 30
0.0
 10
-4.35326
 20
9.06904
 30
0.0
 10
-4.35326
 20
9.06904
 30
0.0
  0
SPLINE
  5
79
330
1F
100
AcDbEntity
  8
0
370
    15
100
AcDbSpline
210
0.0
220
0.0
230
1.0
 70
    24
 71
     3
 72
     8
 73
     4
 74
     0
 42
0.0000000001
 43
0.0000000001
 40
0.0
 40
0.0
 40
0.0
 40
0.0
 40
1.0
 40
1.0
 40
1.0
 40
1.0
 10
-3.38764
 20
9.06904
 30
0.0
 10
-3.38764
 20
9.06904
 30
0.0
 10
-3.38764
 20
8.66904
 30
0.0
 10
-3.38764
 20
8.66904
 30
0.0
  0
SPLINE
  5
7A
330
1F
100
AcDbEntity
  8
0
370
    15
100
AcDbSpline
210
0.0
220
0.0
230
1.0
 70
    24
 71
     3
 72
     8
 73
     4
 74
     0
 42
0.0000000001
 43
0.0000000001
 40
0.0
 40
0.0
 40
0.0
 40
0.0
 40
1.0
 40
1.0
 40
1.0
 40
1.0
 10
-3.30984
 20
8.66904
 30
0.0
 10
-3.30984
 20
8.66904
 30
0.0
 10
-3.38764
 20
8.66904
 30
0.0
 10
-3.38764
 20
8.66904
 30
0.0
  0
SPLINE
  5
7B
330
1F
100
AcDbEntity
  8
0
370
    15
100
AcDbSpline
210
0.0
220
0.0
230
1.0
 70
    24
 71
     3
 72
     8
 73
     4
 74
     0
 42
0.0000000001
 43
0.0000000001
 40
0.0
 40
0.0
 40
0.0
 40
0.0
 40
1.0
 40
1.0
 40
1.0
 40
1.0
 10
-3.38764
 20
9.06904
 30
0.0
 10
-3.38764
 20
9.06904
 30
0.0
 10
-3.30984
 20
9.06904
 30
0.0
 10
-3.30984
 20
9.06904
 30
0.0
  0
SPLINE
  5
7C
330
1F
100
AcDbEntity
  8
0
370
    15
100
AcDbSpline
210
0.0
220
0.0
230
1.0
 70
    24
 71
     3
 72
     8
 73
     4
 74
     0
 42
0.0000000001
 43
0.0000000001
 40
0.0
 40
0.0
 40
0.0
 40
0.0
 40
1.0
 40
1.0
 40
1.0
 40
1.0
 10
-3.38764
 20
8.66904
 30
0.0
 10
-3.38764
 20
8.66904
 30
0.0
 10
-4.35326
 20
8.66904
 30
0.0
 10
-4.35326
 20
8.66904
 30
0.0
  0
SPLINE
  5
7D
330
1F
100
AcDbEntity
  8
0
370
    15
100
AcDbSpline
210
0.0
220
0.0
230
1.0
 70
    24
 71
     3
 72
     8
 73
     4
 74
     0
 42
0.0000000001
 43
0.0000000001
 40
0.0
 40
0.0
 40
0.0
 40
0.0
 40
1.0
 40
1.0
 40
1.0
 40
1.0
 10
-4.35326
 20
9.06904
 30
0.0
 10
-4.35326
 20
9.06904
 30
0.0
 10
-3.38764
 20
9.06904
 30
0.0
 10
-3.38764
 20
9.06904
 30
0.0
  0
SPLINE
  5
7E
330
1F
100
AcDbEntity
  8
0
370
    15
100
AcDbSpline
210
0.0
220
0.0
230
1.0
 70
     8
 71
     3
 72
    12
 73
     8
 74
     0
 42
0.0000000001
 43
0.0000000001
 40
0.0
 40
0.0
 40
0.0
 40
0.0
 40
0.3333333333333333
 40
0.3333333333333333
 40
0.3333333333333333
 40
0.3333333333333333
 40
1.0
 40
1.0
 40
1.0
 40
1.0
 10
-3.50787
 20
8.61205
 30
0.0
 10
-3.51264
 20
8.61214
 30
0.0
 10
-3.5174
 20
8.61223
 30
0.0
 10
-3.52217
 20
8.61231
 30
0.0
 10
-3.52217
 20
8.61231
 30
0.0
 10
-3.75913
 20
8.61654
 30
0.0
 10
-3.99618
 20
8.61392
 30
0.0
 10
-4.23323
 20
8.6113
 30
0.0
  0
SPLINE
  5
7F
330
1F
100
AcDbEntity
  8
0
370
    15
100
AcDbSpline
210
0.0
220
0.0
230
1.0
 70
    24
 71
     3
 72
     8
 73
     4
 74
     0
 42
0.0000000001
 43
0.0000000001
 40
0.0
 40
0.0
 40
0.0
 40
0.0
 40
1.0
 40
1.0
 40
1.0
 40
1.0
 10
-5.52045
 20
7.51904
 30
0.0
 10
-5.52045
 20
7.51904
 30
0.0
 10
-5.52045
 20
7.01904
 30
0.0
 10
-5.52045
 20
7.01904
 30
0.0
  0
SPLINE
  5
80
330
1F
100
AcDbEntity
  8
0
370
    15
100
AcDbSpline
210
0.0
220
0.0
230
1.0
 70
    24
 71
     3
 72
     8
 73
     4
 74
     0
 42
0.0000000001
 43
0.0000000001
 40
0.0
 40
0.0
 40
0.0
 40
0.0
 40
1.0
 40
1.0
 40
1.0
 40
1.0
 10
-2.22045
 20
7.51904
 30
0.0
 10
-2.22045
 20
7.51904
 30
0.0
 10
-2.22045
 20
7.01904
 30
0.0
 10
-2.22045
 20
7.01904
 30
0.0
  0
SPLINE
  5
81
330
1F
100
AcDbEntity
  8
0
370
    15
100
AcDbSpline
210
0.0
220
0.0
230
1.0
 70
    24
 71
     3
 72
     8
 73
     4
 74
     0
 42
0.0000000001
 43
0.0000000001
 40
0.0
 40
0.0
 40
0.0
 40
0.0
 40
1.0
 40
1.0
 40
1.0
 40
1.0
 10
-2.22045
 20
7.01904
 30
0.0
 10
-2.22045
 20
7.01904
 30
0.0
 10
-5.52045
 20
7.01904
 30
0.0
 10
-5.52045
 20
7.01904
 30
0.0
  0
SPLINE
  5
82
330
1F
100
AcDbEntity
  8
0
370
    15
100
AcDbSpline
210
0.0
220
0.0
230
1.0
 70
    24
 71
     3
 72
     8
 73
     4
 74
     0
 42
0.0000000001
 43
0.0000000001
 40
0.0
 40
0.0
 40
0.0
 40
0.0
 40
1.0
 40
1.0
 40
1.0
 40
1.0
 10
-2.18614
 20
7.01904
 30
0.0
 10
-2.18614
 20
7.01904
 30
0.0
 10
-2.22045
 20
7.01904
 30
0.0
 10
-2.22045
 20
7.01904
 30
0.0
  0
SPLINE
  5
83
330
1F
100
AcDbEntity
  8
0
370
    15
100
AcDbSpline
210
0.0
220
0.0
230
1.0
 70
    24
 71
     3
 72
     8
 73
     4
 74
     0
 42
0.0000000001
 43
0.0000000001
 40
0.0
 40
0.0
 40
0.0
 40
0.0
 40
1.0
 40
1.0
 40
1.0
 40
1.0
 10
-5.55477
 20
7.01904
 30
0.0
 10
-5.55477
 20
7.01904
 30
0.0
 10
-5.52045
 20
7.01904
 30
0.0
 10
-5.52045
 20
7.01904
 30
0.0
  0
SPLINE
  5
84
330
1F
100
AcDbEntity
  8
0
370
    15
100
AcDbSpline
210
0.0
220
0.0
230
1.0
 70
    24
 71
     3
 72
     8
 73
     4
 74
     0
 42
0.0000000001
 43
0.0000000001
 40
0.0
 40
0.0
 40
0.0
 40
0.0
 40
1.0
 40
1.0
 40
1.0
 40
1.0
 10
-2.34545
 20
7.01904
 30
0.0
 10
-2.34545
 20
7.01904
 30
0.0
 10
-2.34545
 20
7.01895
 30
0.0
 10
-2.34545
 20
7.01895
 30
0.0
  0
SPLINE
  5
85
330
1F
100
AcDbEntity
  8
0
370
    15
100
AcDbSpline
210
0.0
220
0.0
230
1.0
 70
    24
 71
     3
 72
     8
 73
     4
 74
     0
 42
0.0000000001
 43
0.0000000001
 40
0.0
 40
0.0
 40
0.0
 40
0.0
 40
1.0
 40
1.0
 40
1.0
 40
1.0
 10
-2.34545
 20
7.01895
 30
0.0
 10
-2.34545
 20
7.01895
 30
0.0
 10
-2.39545
 20
7.01895
 30
0.0
 10
-2.39545
 20
7.01895
 30
0.0
  0
SPLINE
  5
86
330
1F
100
AcDbEntity
  8
0
370
    15
100
AcDbSpline
210
0.0
220
0.0
230
1.0
 70
    24
 71
     3
 72
     8
 73
     4
 74
     0
 42
0.0000000001
 43
0.0000000001
 40
0.0
 40
0.0
 40
0.0
 40
0.0
 40
1.0
 40
1.0
 40
1.0
 40
1.0
 10
-5.34545
 20
7.01895
 30
0.0
 10
-5.34545
 20
7.01895
 30
0.0
 10
-2.39545
 20
7.01895
 30
0.0
 10
-2.39545
 20
7.01895
 30
0.0
  0
SPLINE
  5
87
330
1F
100
AcDbEntity
  8
0
370
    15
100
AcDbSpline
210
0.0
220
0.0
230
1.0
 70
    24
 71
     3
 72
     8
 73
     4
 74
     0
 42
0.0000000001
 43
0.0000000001
 40
0.0
 40
0.0
 40
0.0
 40
0.0
 40
1.0
 40
1.0
 40
1.0
 40
1.0
 10
-5.39545
 20
7.01895
 30
0.0
 10
-5.39545
 20
7.01895
 30
0.0
 10
-5.39545
 20
7.01904
 30
0.0
 10
-5.39545
 20
7.01904
 30
0.0
  0
SPLINE
  5
88
330
1F
100
AcDbEntity
  8
0
370
    15
100
AcDbSpline
210
0.0
220
0.0
230
1.0
 70
    24
 71
     3
 72
     8
 73
     4
 74
     0
 42
0.0000000001
 43
0.0000000001
 40
0.0
 40
0.0
 40
0.0
 40
0.0
 40
1.0
 40
1.0
 40
1.0
 40
1.0
 10
-5.34545
 20
7.01895
 30
0.0
 10
-5.34545
 20
7.01895
 30
0.0
 10
-5.39545
 20
7.01895
 30
0.0
 10
-5.39545
 20
7.01895
 30
0.0
  0
SPLINE
  5
89
330
1F
100
AcDbEntity
  8
0
 62
     8
370
    15
100
AcDbSpline
210
0.0
220
0.0
230
1.0
 70
    24
 71
     3
 72
     8
 73
     4
 74
     0
 42
0.0000000001
 43
0.0000000001
 40
0.0
 40
0.0
 40
0.0
 40
0.0
 40
1.0
 40
1.0
 40
1.0
 40
1.0
 10
-4.65303
 20
10.14289
 30
0.0
 10
-4.65303
 20
10.14289
 30
0.0
 10
-4.0055
 20
10.14289
 30
0.0
 10
-4.0055
 20
10.14289
 30
0.0
  0
SPLINE
  5
8A
330
1F
100
AcDbEntity
  8
0
 62
     8
370
    15
100
AcDbSpline
210
0.0
220
0.0
230
1.0
 70
    24
 71
     3
 72
     8
 73
     4
 74
     0
 42
0.0000000001
 43
0.0000000001
 40
0.0
 40
0.0
 40
0.0
 40
0.0
 40
1.0
 40
1.0
 40
1.0
 40
1.0
 10
-7.7354
 20
10.14289
 30
0.0
 10
-7.7354
 20
10.14289
 30
0.0
 10
-4.65303
 20
10.14289
 30
0.0
 10
-4.65303
 20
10.14289
 30
0.0
  0
SPLINE
  5
8B
330
1F
100
AcDbEntity
  8
0
 62
     8
370
    15
100
AcDbSpline
210
0.0
220
0.0
230
1.0
 70
    24
 71
     3
 72
     8
 73
     4
 74
     0
 42
0.0000000001
 43
0.0000000001
 40
0.0
 40
0.0
 40
0.0
 40
0.0
 40
1.0
 40
1.0
 40
1.0
 40
1.0
 10
-4.65576
 20
10.09558
 30
0.0
 10
-4.65576
 20
10.09558
 30
0.0
 10
-4.00968
 20
10.09558
 30
0.0
 10
-4.00968
 20
10.09558
 30
0.0
  0
SPLINE
  5
8C
330
1F
100
AcDbEntity
  8
0
 62
     8
370
    15
100
AcDbSpline
210
0.0
220
0.0
230
1.0
 70
    24
 71
     3
 72
     8
 73
     4
 74
     0
 42
0.0000000001
 43
0.0000000001
 40
0.0
 40
0.0
 40
0.0
 40
0.0
 40
1.0
 40
1.0
 40
1.0
 40
1.0
 10
-7.73122
 20
10.09558
 30
0.0
 10
-7.73122
 20
10.09558
 30
0.0
 10
-4.65576
 20
10.09558
 30
0.0
 10
-4.65576
 20
10.09558
 30
0.0
  0
SPLINE
  5
8D
330
1F
100
AcDbEntity
  8
0
 62
     8
370
    15
100
AcDbSpline
210
0.0
220
0.0
230
1.0
 70
    24
 71
     3
 72
     8
 73
     4
 74
     0
 42
0.0000000001
 43
0.0000000001
 40
0.0
 40
0.0
 40
0.0
 40
0.0
 40
1.0
 40
1.0
 40
1.0
 40
1.0
 10
-4.66256
 20
12.21939
 30
0.0
 10
-4.66256
 20
12.21939
 30
0.0
 10
-7.7208
 20
12.21939
 30
0.0
 10
-7.7208
 20
12.21939
 30
0.0
  0
SPLINE
  5
8E
330
1F
100
AcDbEntity
  8
0
 62
     8
370
    15
100
AcDbSpline
210
0.0
220
0.0
230
1.0
 70
    24
 71
     3
 72
     8
 73
     4
 74
     0
 42
0.0000000001
 43
0.0000000001
 40
0.0
 40
0.0
 40
0.0
 40
0.0
 40
1.0
 40
1.0
 40
1.0
 40
1.0
 10
-4.0201
 20
12.21939
 30
0.0
 10
-4.0201
 20
12.21939
 30
0.0
 10
-4.66256
 20
12.21939
 30
0.0
 10
-4.66256
 20
12.21939
 30
0.0
  0
SPLINE
  5
8F
330
1F
100
AcDbEntity
  8
0
 62
     8
370
    15
100
AcDbSpline
210
0.0
220
0.0
230
1.0
 70
    24
 71
     3
 72
     8
 73
     4
 74
     0
 42
0.0000000001
 43
0.0000000001
 40
0.0
 40
0.0
 40
0.0
 40
0.0
 40
1.0
 40
1.0
 40
1.0
 40
1.0
 10
-4.76071
 20
9.22814
 30
0.0
 10
-4.76071
 20
9.22814
 30
0.0
 10
-4.17045
 20
9.22814
 30
0.0
 10
-4.17045
 20
9.22814
 30
0.0
  0
SPLINE
  5
90
330
1F
100
AcDbEntity
  8
0
 62
     8
370
    15
100
AcDbSpline
210
0.0
220
0.0
230
1.0
 70
    24
 71
     3
 72
     8
 73
     4
 74
     0
 42
0.0000000001
 43
0.0000000001
 40
0.0
 40
0.0
 40
0.0
 40
0.0
 40
1.0
 40
1.0
 40
1.0
 40
1.0
 10
-7.57045
 20
9.22814
 30
0.0
 10
-7.57045
 20
9.22814
 30
0.0
 10
-4.76071
 20
9.22814
 30
0.0
 10
-4.76071
 20
9.22814
 30
0.0
  0
SPLINE
  5
91
330
1F
100
AcDbEntity
  8
0
 62
     8
370
    15
100
AcDbSpline
210
0.0
220
0.0
230
1.0
 70
    24
 71
     3
 72
     8
 73
     4
 74
     0
 42
0.0000000001
 43
0.0000000001
 40
0.0
 40
0.0
 40
0.0
 40
0.0
 40
1.0
 40
1.0
 40
1.0
 40
1.0
 10
-4.80833
 20
9.0931
 30
0.0
 10
-4.80833
 20
9.0931
 30
0.0
 10
-4.2434
 20
9.0931
 30
0.0
 10
-4.2434
 20
9.0931
 30
0.0
  0
SPLINE
  5
92
330
1F
100
AcDbEntity
  8
0
 62
     8
370
    15
100
AcDbSpline
210
0.0
220
0.0
230
1.0
 70
    24
 71
     3
 72
     8
 73
     4
 74
     0
 42
0.0000000001
 43
0.0000000001
 40
0.0
 40
0.0
 40
0.0
 40
0.0
 40
1.0
 40
1.0
 40
1.0
 40
1.0
 10
-7.4975
 20
9.0931
 30
0.0
 10
-7.4975
 20
9.0931
 30
0.0
 10
-4.80833
 20
9.0931
 30
0.0
 10
-4.80833
 20
9.0931
 30
0.0
  0
SPLINE
  5
93
330
1F
100
AcDbEntity
  8
0
 62
     8
370
    15
100
AcDbSpline
210
0.0
220
0.0
230
1.0
 70
    24
 71
     3
 72
     8
 73
     4
 74
     0
 42
0.0000000001
 43
0.0000000001
 40
0.0
 40
0.0
 40
0.0
 40
0.0
 40
1.0
 40
1.0
 40
1.0
 40
1.0
 10
-4.8784
 20
7.76249
 30
0.0
 10
-4.8784
 20
7.76249
 30
0.0
 10
-4.35074
 20
7.76249
 30
0.0
 10
-4.35074
 20
7.76249
 30
0.0
  0
SPLINE
  5
94
330
1F
100
AcDbEntity
  8
0
 62
     8
370
    15
100
AcDbSpline
210
0.0
220
0.0
230
1.0
 70
    24
 71
     3
 72
     8
 73
     4
 74
     0
 42
0.0000000001
 43
0.0000000001
 40
0.0
 40
0.0
 40
0.0
 40
0.0
 40
1.0
 40
1.0
 40
1.0
 40
1.0
 10
-7.39017
 20
7.76249
 30
0.0
 10
-7.39017
 20
7.76249
 30
0.0
 10
-4.8784
 20
7.76249
 30
0.0
 10
-4.8784
 20
7.76249
 30
0.0
  0
SPLINE
  5
95
330
1F
100
AcDbEntity
  8
0
 62
     8
370
    15
100
AcDbSpline
210
0.0
220
0.0
230
1.0
 70
    24
 71
     3
 72
     8
 73
     4
 74
     0
 42
0.0000000001
 43
0.0000000001
 40
0.0
 40
0.0
 40
0.0
 40
0.0
 40
1.0
 40
1.0
 40
1.0
 40
1.0
 10
-3.7354
 20
10.14289
 30
0.0
 10
-3.7354
 20
10.14289
 30
0.0
 10
-0.0055
 20
10.14289
 30
0.0
 10
-0.0055
 20
10.14289
 30
0.0
  0
SPLINE
  5
96
330
1F
100
AcDbEntity
  8
0
 62
     8
370
    15
100
AcDbSpline
210
0.0
220
0.0
230
1.0
 70
    24
 71
     3
 72
     8
 73
     4
 74
     0
 42
0.0000000001
 43
0.0000000001
 40
0.0
 40
0.0
 40
0.0
 40
0.0
 40
1.0
 40
1.0
 40
1.0
 40
1.0
 10
-3.73122
 20
10.09558
 30
0.0
 10
-3.73122
 20
10.09558
 30
0.0
 10
-0.00968
 20
10.09558
 30
0.0
 10
-0.00968
 20
10.09558
 30
0.0
  0
SPLINE
  5
97
330
1F
100
AcDbEntity
  8
0
 62
     8
370
    15
100
AcDbSpline
210
0.0
220
0.0
230
1.0
 70
    24
 71
     3
 72
     8
 73
     4
 74
     0
 42
0.0000000001
 43
0.0000000001
 40
0.0
 40
0.0
 40
0.0
 40
0.0
 40
1.0
 40
1.0
 40
1.0
 40
1.0
 10
-0.0201
 20
12.21939
 30
0.0
 10
-0.0201
 20
12.21939
 30
0.0
 10
-3.7208
 20
12.21939
 30
0.0
 10
-3.7208
 20
12.21939
 30
0.0
  0
SPLINE
  5
98
330
1F
100
AcDbEntity
  8
0
 62
     8
370
    15
100
AcDbSpline
210
0.0
220
0.0
230
1.0
 70
    24
 71
     3
 72
     8
 73
     4
 74
     0
 42
0.0000000001
 43
0.0000000001
 40
0.0
 40
0.0
 40
0.0
 40
0.0
 40
1.0
 40
1.0
 40
1.0
 40
1.0
 10
-3.57045
 20
9.22814
 30
0.0
 10
-3.57045
 20
9.22814
 30
0.0
 10
-0.17045
 20
9.22814
 30
0.0
 10
-0.17045
 20
9.22814
 30
0.0
  0
SPLINE
  5
99
330
1F
100
AcDbEntity
  8
0
 62
     8
370
    15
100
AcDbSpline
210
0.0
220
0.0
230
1.0
 70
    24
 71
     3
 72
     8
 73
     4
 74
     0
 42
0.0000000001
 43
0.0000000001
 40
0.0
 40
0.0
 40
0.0
 40
0.0
 40
1.0
 40
1.0
 40
1.0
 40
1.0
 10
-3.4975
 20
9.0931
 30
0.0
 10
-3.4975
 20
9.0931
 30
0.0
 10
-0.2434
 20
9.0931
 30
0.0
 10
-0.2434
 20
9.0931
 30
0.0
  0
SPLINE
  5
9A
330
1F
100
AcDbEntity
  8
0
 62
     8
370
    15
100
AcDbSpline
210
0.0
220
0.0
230
1.0
 70
    24
 71
     3
 72
     8
 73
     4
 74
     0
 42
0.0000000001
 43
0.0000000001
 40
0.0
 40
0.0
 40
0.0
 40
0.0
 40
1.0
 40
1.0
 40
1.0
 40
1.0
 10
-3.39017
 20
7.76249
 30
0.0
 10
-3.39017
 20
7.76249
 30
0.0
 10
-0.35074
 20
7.76249
 30
0.0
 10
-0.35074
 20
7.76249
 30
0.0
  0
SPLINE
  5
9B
330
1F
100
AcDbEntity
  8
0
 62
     8
370
    15
100
AcDbSpline
210
0.0
220
0.0
230
1.0
 70
    24
 71
     3
 72
     8
 73
     4
 74
     0
 42
0.0000000001
 43
0.0000000001
 40
0.0
 40
0.0
 40
0.0
 40
0.0
 40
1.0
 40
1.0
 40
1.0
 40
1.0
 10
-2.39545
 20
7.01895
 30
0.0
 10
-2.39545
 20
7.01895
 30
0.0
 10
-2.39545
 20
7.01904
 30
0.0
 10
-2.39545
 20
7.01904
 30
0.0
  0
SPLINE
  5
9C
330
1F
100
AcDbEntity
  8
0
 62
     8
370
    15
100
AcDbSpline
210
0.0
220
0.0
230
1.0
 70
    24
 71
     3
 72
     8
 73
     4
 74
     0
 42
0.0000000001
 43
0.0000000001
 40
0.0
 40
0.0
 40
0.0
 40
0.0
 40
1.0
 40
1.0
 40
1.0
 40
1.0
 10
-5.34545
 20
7.01904
 30
0.0
 10
-5.34545
 20
7.01904
 30
0.0
 10
-5.34545
 20
7.01895
 30
0.0
 10
-5.34545
 20
7.01895
 30
0.0
  0
SPLINE
  5
9D
330
1F
100
AcDbEntity
  8
0
100
AcDbSpline
210
0.0
220
0.0
230
1.0
 70
    27
 71
     3
 72
    12
 73
     8
 74
     0
 42
0.0000000001
 43
0.0000000001
 40
0.0
 40
0.0
 40
0.0
 40
0.0
 40
0.3333333333333333
 40
0.3333333333333333
 40
0.3333333333333333
 40
0.3333333333333333
 40
1.0
 40
1.0
 40
1.0
 40
1.0
 10
-7.75477
 20
6.01895
 30
0.0
 10
-7.75477
 20
6.01895
 30
0.0
 10
-7.42457
 20
6.06975
 30
0.0
 10
-7.42457
 20
6.06975
 30
0.0
 10
-7.42457
 20
6.06975
 30
0.0
 10
-7.42457
 20
6.06975
 30
0.0
 10
-7.75477
 20
6.01895
 30
0.0
 10
-7.75477
 20
6.01895
 30
0.0
  0
SPLINE
  5
9E
330
1F
100
AcDbEntity
  8
0
100
AcDbSpline
210
0.0
220
0.0
230
1.0
 70
     8
 71
     3
 72
    12
 73
     8
 74
     0
 42
0.0000000001
 43
0.0000000001
 40
0.0
 40
0.0
 40
0.0
 40
0.0
 40
0.3333333333333333
 40
0.3333333333333333
 40
0.3333333333333333
 40
0.3333333333333333
 40
1.0
 40
1.0
 40
1.0
 40
1.0
 10
-7.42457
 20
6.06975
 30
0.0
 10
-7.42457
 20
6.06975
 30
0.0
 10
-7.42457
 20
5.96815
 30
0.0
 10
-7.42457
 20
5.96815
 30
0.0
 10
-7.42457
 20
5.96815
 30
0.0
 10
-7.42457
 20
5.96815
 30
0.0
 10
-7.75477
 20
6.01895
 30
0.0
 10
-7.75477
 20
6.01895
 30
0.0
  0
SPLINE
  5
9F
330
1F
100
AcDbEntity
  8
0
370
     9
100
AcDbSpline
210
0.0
220
0.0
230
1.0
 70
    24
 71
     3
 72
     8
 73
     4
 74
     0
 42
0.0000000001
 43
0.0000000001
 40
0.0
 40
0.0
 40
0.0
 40
0.0
 40
1.0
 40
1.0
 40
1.0
 40
1.0
 10
-7.75477
 20
6.01895
 30
0.0
 10
-7.75477
 20
6.01895
 30
0.0
 10
-7.42457
 20
6.06975
 30
0.0
 10
-7.42457
 20
6.06975
 30
0.0
  0
SPLINE
  5
A0
330
1F
100
AcDbEntity
  8
0
370
     9
100
AcDbSpline
210
0.0
220
0.0
230
1.0
 70
     8
 71
     3
 72
    12
 73
     8
 74
     0
 42
0.0000000001
 43
0.0000000001
 40
0.0
 40
0.0
 40
0.0
 40
0.0
 40
0.3333333333333333
 40
0.3333333333333333
 40
0.3333333333333333
 40
0.3333333333333333
 40
1.0
 40
1.0
 40
1.0
 40
1.0
 10
-7.42457
 20
6.06975
 30
0.0
 10
-7.42457
 20
6.06975
 30
0.0
 10
-7.42457
 20
5.96815
 30
0.0
 10
-7.42457
 20
5.96815
 30
0.0
 10
-7.42457
 20
5.96815
 30
0.0
 10
-7.42457
 20
5.96815
 30
0.0
 10
-7.75477
 20
6.01895
 30
0.0
 10
-7.75477
 20
6.01895
 30
0.0
  0
SPLINE
  5
A1
330
1F
100
AcDbEntity
  8
0
100
AcDbSpline
210
0.0
220
0.0
230
1.0
 70
    27
 71
     3
 72
    12
 73
     8
 74
     0
 42
0.0000000001
 43
0.0000000001
 40
0.0
 40
0.0
 40
0.0
 40
0.0
 40
0.3333333333333333
 40
0.3333333333333333
 40
0.3333333333333333
 40
0.3333333333333333
 40
1.0
 40
1.0
 40
1.0
 40
1.0
 10
0.01386
 20
6.01895
 30
0.0
 10
0.01386
 20
6.01895
 30
0.0
 10
-0.31634
 20
5.96815
 30
0.0
 10
-0.31634
 20
5.96815
 30
0.0
 10
-0.31634
 20
5.96815
 30
0.0
 10
-0.31634
 20
5.96815
 30
0.0
 10
0.01386
 20
6.01895
 30
0.0
 10
0.01386
 20
6.01895
 30
0.0
  0
SPLINE
  5
A2
330
1F
100
AcDbEntity
  8
0
100
AcDbSpline
210
0.0
220
0.0
230
1.0
 70
     8
 71
     3
 72
    12
 73
     8
 74
     0
 42
0.0000000001
 43
0.0000000001
 40
0.0
 40
0.0
 40
0.0
 40
0.0
 40
0.3333333333333333
 40
0.3333333333333333
 40
0.3333333333333333
 40
0.3333333333333333
 40
1.0
 40
1.0
 40
1.0
 40
1.0
 10
-0.31634
 20
5.96815
 30
0.0
 10
-0.31634
 20
5.96815
 30
0.0
 10
-0.31634
 20
6.06975
 30
0.0
 10
-0.31634
 20
6.06975
 30
0.0
 10
-0.31634
 20
6.06975
 30
0.0
 10
-0.31634
 20
6.06975
 30
0.0
 10
0.01386
 20
6.01895
 30
0.0
 10
0.01386
 20
6.01895
 30
0.0
  0
SPLINE
  5
A3
330
1F
100
AcDbEntity
  8
0
370
     9
100
AcDbSpline
210
0.0
220
0.0
230
1.0
 70
    24
 71
     3
 72
     8
 73
     4
 74
     0
 42
0.0000000001
 43
0.0000000001
 40
0.0
 40
0.0
 40
0.0
 40
0.0
 40
1.0
 40
1.0
 40
1.0
 40
1.0
 10
0.01386
 20
6.01895
 30
0.0
 10
0.01386
 20
6.01895
 30
0.0
 10
-0.31634
 20
5.96815
 30
0.0
 10
-0.31634
 20
5.96815
 30
0.0
  0
SPLINE
  5
A4
330
1F
100
AcDbEntity
  8
0
370
     9
100
AcDbSpline
210
0.0
220
0.0
230
1.0
 70
     8
 71
     3
 72
    12
 73
     8
 74
     0
 42
0.0000000001
 43
0.0000000001
 40
0.0
 40
0.0
 40
0.0
 40
0.0
 40
0.3333333333333333
 40
0.3333333333333333
 40
0.3333333333333333
 40
0.3333333333333333
 40
1.0
 40
1.0
 40
1.0
 40
1.0
 10
-0.31634
 20
5.96815
 30
0.0
 10
-0.31634
 20
5.96815
 30
0.0
 10
-0.31634
 20
6.06975
 30
0.0
 10
-0.31634
 20
6.06975
 30
0.0
 10
-0.31634
 20
6.06975
 30
0.0
 10
-0.31634
 20
6.06975
 30
0.0
 10
0.01386
 20
6.01895
 30
0.0
 10
0.01386
 20
6.01895
 30
0.0
  0
SPLINE
  5
A5
330
1F
100
AcDbEntity
  8
0
370
     9
100
AcDbSpline
210
0.0
220
0.0
230
1.0
 70
    24
 71
     3
 72
     8
 73
     4
 74
     0
 42
0.0000000001
 43
0.0000000001
 40
0.0
 40
0.0
 40
0.0
 40
0.0
 40
1.0
 40
1.0
 40
1.0
 40
1.0
 10
-7.75477
 20
8.76904
 30
0.0
 10
-7.75477
 20
8.76904
 30
0.0
 10
-7.75477
 20
5.91895
 30
0.0
 10
-7.75477
 20
5.91895
 30
0.0
  0
SPLINE
  5
A6
330
1F
100
AcDbEntity
  8
0
370
     9
100
AcDbSpline
210
0.0
220
0.0
230
1.0
 70
    24
 71
     3
 72
     8
 73
     4
 74
     0
 42
0.0000000001
 43
0.0000000001
 40
0.0
 40
0.0
 40
0.0
 40
0.0
 40
1.0
 40
1.0
 40
1.0
 40
1.0
 10
0.01386
 20
8.76904
 30
0.0
 10
0.01386
 20
8.76904
 30
0.0
 10
0.01386
 20
5.91895
 30
0.0
 10
0.01386
 20
5.91895
 30
0.0
  0
SPLINE
  5
A7
330
1F
100
AcDbEntity
  8
0
370
     9
100
AcDbSpline
210
0.0
220
0.0
230
1.0
 70
    24
 71
     3
 72
     8
 73
     4
 74
     0
 42
0.0000000001
 43
0.0000000001
 40
0.0
 40
0.0
 40
0.0
 40
0.0
 40
1.0
 40
1.0
 40
1.0
 40
1.0
 10
-7.75477
 20
6.01895
 30
0.0
 10
-7.75477
 20
6.01895
 30
0.0
 10
0.01386
 20
6.01895
 30
0.0
 10
0.01386
 20
6.01895
 30
0.0
  0
SPLINE
  5
A8
330
1F
100
AcDbEntity
  8
0
100
AcDbSpline
210
0.0
220
0.0
230
1.0
 70
    11
 71
     3
 72
    40
 73
    36
 74
     0
 42
0.0000000001
 43
0.0000000001
 40
0.0
 40
0.0
 40
0.0
 40
0.0
 40
0.1
 40
0.1
 40
0.1
 40
0.1
 40
0.2
 40
0.2
 40
0.2
 40
0.2
 40
0.3
 40
0.3
 40
0.3
 40
0.3
 40
0.4
 40
0.4
 40
0.4
 40
0.4
 40
0.5
 40
0.5
 40
0.5
 40
0.5
 40
0.6
 40
0.6
 40
0.6
 40
0.6
 40
0.7
 40
0.7
 40
0.7
 40
0.7
 40
0.8
 40
0.8
 40
0.8
 40
0.8
 40
1.0
 40
1.0
 40
1.0
 40
1.0
 10
-4.21298
 20
6.15326
 30
0.0
 10
-4.21298
 20
6.15326
 30
0.0
 10
-4.24372
 20
6.15326
 30
0.0
 10
-4.24372
 20
6.15326
 30
0.0
 10
-4.24372
 20
6.15326
 30
0.0
 10
-4.24372
 20
6.15326
 30
0.0
 10
-4.24372
 20
6.34926
 30
0.0
 10
-4.24372
 20
6.34926
 30
0.0
 10
-4.24372
 20
6.34926
 30
0.0
 10
-4.25113
 20
6.3422
 30
0.0
 10
-4.26081
 20
6.33514
 30
0.0
 10
-4.27283
 20
6.32808
 30
0.0
 10
-4.27283
 20
6.32808
 30
0.0
 10
-4.2849
 20
6.32103
 30
0.0
 10
-4.29569
 20
6.31572
 30
0.0
 10
-4.30526
 20
6.31222
 30
0.0
 10
-4.30526
 20
6.31222
 30
0.0
 10
-4.30526
 20
6.31222
 30
0.0
 10
-4.30526
 20
6.34191
 30
0.0
 10
-4.30526
 20
6.34191
 30
0.0
 10
-4.30526
 20
6.34191
 30
0.0
 10
-4.28805
 20
6.35002
 30
0.0
 10
-4.273
 20
6.35982
 30
0.0
 10
-4.26011
 20
6.37131
 30
0.0
 10
-4.26011
 20
6.37131
 30
0.0
 10
-4.24728
 20
6.38286
 30
0.0
 10
-4.23812
 20
6.394
 30
0.0
 10
-4.23275
 20
6.40485
 30
0.0
 10
-4.23275
 20
6.40485
 30
0.0
 10
-4.23275
 20
6.40485
 30
0.0
 10
-4.21298
 20
6.40485
 30
0.0
 10
-4.21298
 20
6.40485
 30
0.0
 10
-4.21298
 20
6.40485
 30
0.0
 10
-4.21298
 20
6.40485
 30
0.0
 10
-4.21298
 20
6.15326
 30
0.0
 10
-4.21298
 20
6.15326
 30
0.0
  0
SPLINE
  5
A9
330
1F
100
AcDbEntity
  8
0
100
AcDbSpline
210
0.0
220
0.0
230
1.0
 70
    11
 71
     3
 72
    92
 73
    88
 74
     0
 42
0.0000000001
 43
0.0000000001
 40
0.0
 40
0.0
 40
0.0
 40
0.0
 40
0.0434782608695652
 40
0.0434782608695652
 40
0.0434782608695652
 40
0.0434782608695652
 40
0.0869565217391304
 40
0.0869565217391304
 40
0.0869565217391304
 40
0.0869565217391304
 40
0.1304347826086956
 40
0.1304347826086956
 40
0.1304347826086956
 40
0.1304347826086956
 40
0.1739130434782609
 40
0.1739130434782609
 40
0.1739130434782609
 40
0.1739130434782609
 40
0.2173913043478261
 40
0.2173913043478261
 40
0.2173913043478261
 40
0.2173913043478261
 40
0.2608695652173913
 40
0.2608695652173913
 40
0.2608695652173913
 40
0.2608695652173913
 40
0.3043478260869565
 40
0.3043478260869565
 40
0.3043478260869565
 40
0.3043478260869565
 40
0.3478260869565217
 40
0.3478260869565217
 40
0.3478260869565217
 40
0.3478260869565217
 40
0.391304347826087
 40
0.391304347826087
 40
0.391304347826087
 40
0.391304347826087
 40
0.4347826086956522
 40
0.4347826086956522
 40
0.4347826086956522
 40
0.4347826086956522
 40
0.4782608695652174
 40
0.4782608695652174
 40
0.4782608695652174
 40
0.4782608695652174
 40
0.5217391304347826
 40
0.5217391304347826
 40
0.5217391304347826
 40
0.5217391304347826
 40
0.5652173913043478
 40
0.5652173913043478
 40
0.5652173913043478
 40
0.5652173913043478
 40
0.6086956521739131
 40
0.6086956521739131
 40
0.6086956521739131
 40
0.6086956521739131
 40
0.6521739130434783
 40
0.6521739130434783
 40
0.6521739130434783
 40
0.6521739130434783
 40
0.6956521739130435
 40
0.6956521739130435
 40
0.6956521739130435
 40
0.6956521739130435
 40
0.7391304347826086
 40
0.7391304347826086
 40
0.7391304347826086
 40
0.7391304347826086
 40
0.782608695652174
 40
0.782608695652174
 40
0.782608695652174
 40
0.782608695652174
 40
0.8260869565217391
 40
0.8260869565217391
 40
0.8260869565217391
 40
0.8260869565217391
 40
0.8695652173913043
 40
0.8695652173913043
 40
0.8695652173913043
 40
0.8695652173913043
 40
0.9130434782608695
 40
0.9130434782608695
 40
0.9130434782608695
 40
0.9130434782608695
 40
1.0
 40
1.0
 40
1.0
 40
1.0
 10
-4.13417
 20
6.21888
 30
0.0
 10
-4.13417
 20
6.21888
 30
0.0
 10
-4.10185
 20
6.22163
 30
0.0
 10
-4.10185
 20
6.22163
 30
0.0
 10
-4.10185
 20
6.22163
 30
0.0
 10
-4.09946
 20
6.20588
 30
0.0
 10
-4.09392
 20
6.19409
 30
0.0
 10
-4.08522
 20
6.18616
 30
0.0
 10
-4.08522
 20
6.18616
 30
0.0
 10
-4.07647
 20
6.17823
 30
0.0
 10
-4.06597
 20
6.17426
 30
0.0
 10
-4.05367
 20
6.17426
 30
0.0
 10
-4.05367
 20
6.17426
 30
0.0
 10
-4.03885
 20
6.17426
 30
0.0
 10
-4.02631
 20
6.17986
 30
0.0
 10
-4.0161
 20
6.191
 30
0.0
 10
-4.0161
 20
6.191
 30
0.0
 10
-4.00583
 20
6.2022
 30
0.0
 10
-4.0007
 20
6.21702
 30
0.0
 10
-4.0007
 20
6.23545
 30
0.0
 10
-4.0007
 20
6.23545
 30
0.0
 10
-4.0007
 20
6.25301
 30
0.0
 10
-4.0056
 20
6.26683
 30
0.0
 10
-4.01546
 20
6.27698
 30
0.0
 10
-4.01546
 20
6.27698
 30
0.0
 10
-4.02532
 20
6.28713
 30
0.0
 10
-4.03821
 20
6.29221
 30
0.0
 10
-4.05419
 20
6.29221
 30
0.0
 10
-4.05419
 20
6.29221
 30
0.0
 10
-4.06411
 20
6.29221
 30
0.0
 10
-4.07303
 20
6.28993
 30
0.0
 10
-4.08102
 20
6.28544
 30
0.0
 10
-4.08102
 20
6.28544
 30
0.0
 10
-4.08902
 20
6.28095
 30
0.0
 10
-4.09526
 20
6.27512
 30
0.0
 10
-4.09981
 20
6.26794
 30
0.0
 10
-4.09981
 20
6.26794
 30
0.0
 10
-4.09981
 20
6.26794
 30
0.0
 10
-4.12868
 20
6.27168
 30
0.0
 10
-4.12868
 20
6.27168
 30
0.0
 10
-4.12868
 20
6.27168
 30
0.0
 10
-4.12868
 20
6.27168
 30
0.0
 10
-4.10442
 20
6.40036
 30
0.0
 10
-4.10442
 20
6.40036
 30
0.0
 10
-4.10442
 20
6.40036
 30
0.0
 10
-4.10442
 20
6.40036
 30
0.0
 10
-3.97982
 20
6.40036
 30
0.0
 10
-3.97982
 20
6.40036
 30
0.0
 10
-3.97982
 20
6.40036
 30
0.0
 10
-3.97982
 20
6.40036
 30
0.0
 10
-3.97982
 20
6.37096
 30
0.0
 10
-3.97982
 20
6.37096
 30
0.0
 10
-3.97982
 20
6.37096
 30
0.0
 10
-3.97982
 20
6.37096
 30
0.0
 10
-4.0798
 20
6.37096
 30
0.0
 10
-4.0798
 20
6.37096
 30
0.0
 10
-4.0798
 20
6.37096
 30
0.0
 10
-4.0798
 20
6.37096
 30
0.0
 10
-4.09333
 20
6.30364
 30
0.0
 10
-4.09333
 20
6.30364
 30
0.0
 10
-4.09333
 20
6.30364
 30
0.0
 10
-4.07828
 20
6.31414
 30
0.0
 10
-4.06247
 20
6.31939
 30
0.0
 10
-4.04597
 20
6.31939
 30
0.0
 10
-4.04597
 20
6.31939
 30
0.0
 10
-4.02409
 20
6.31939
 30
0.0
 10
-4.00566
 20
6.31181
 30
0.0
 10
-3.99061
 20
6.29664
 30
0.0
 10
-3.99061
 20
6.29664
 30
0.0
 10
-3.97556
 20
6.28148
 30
0.0
 10
-3.96803
 20
6.26199
 30
0.0
 10
-3.96803
 20
6.23819
 30
0.0
 10
-3.96803
 20
6.23819
 30
0.0
 10
-3.96803
 20
6.2155
 30
0.0
 10
-3.97468
 20
6.1959
 30
0.0
 10
-3.98787
 20
6.17939
 30
0.0
 10
-3.98787
 20
6.17939
 30
0.0
 10
-4.00397
 20
6.15915
 30
0.0
 10
-4.0259
 20
6.149
 30
0.0
 10
-4.05367
 20
6.149
 30
0.0
 10
-4.05367
 20
6.149
 30
0.0
 10
-4.07647
 20
6.149
 30
0.0
 10
-4.09508
 20
6.15536
 30
0.0
 10
-4.10949
 20
6.16813
 30
0.0
 10
-4.10949
 20
6.16813
 30
0.0
 10
-4.1239
 20
6.18091
 30
0.0
 10
-4.13212
 20
6.19783
 30
0.0
 10
-4.13417
 20
6.21888
 30
0.0
  0
SPLINE
  5
AA
330
1F
100
AcDbEntity
  8
0
100
AcDbSpline
210
0.0
220
0.0
230
1.0
 70
    11
 71
     3
 72
    92
 73
    88
 74
     0
 42
0.0000000001
 43
0.0000000001
 40
0.0
 40
0.0
 40
0.0
 40
0.0
 40
0.0434782608695652
 40
0.0434782608695652
 40
0.0434782608695652
 40
0.0434782608695652
 40
0.0869565217391304
 40
0.0869565217391304
 40
0.0869565217391304
 40
0.0869565217391304
 40
0.1304347826086956
 40
0.1304347826086956
 40
0.1304347826086956
 40
0.1304347826086956
 40
0.1739130434782609
 40
0.1739130434782609
 40
0.1739130434782609
 40
0.1739130434782609
 40
0.2173913043478261
 40
0.2173913043478261
 40
0.2173913043478261
 40
0.2173913043478261
 40
0.2608695652173913
 40
0.2608695652173913
 40
0.2608695652173913
 40
0.2608695652173913
 40
0.3043478260869565
 40
0.3043478260869565
 40
0.3043478260869565
 40
0.3043478260869565
 40
0.3478260869565217
 40
0.3478260869565217
 40
0.3478260869565217
 40
0.3478260869565217
 40
0.391304347826087
 40
0.391304347826087
 40
0.391304347826087
 40
0.391304347826087
 40
0.4347826086956522
 40
0.4347826086956522
 40
0.4347826086956522
 40
0.4347826086956522
 40
0.4782608695652174
 40
0.4782608695652174
 40
0.4782608695652174
 40
0.4782608695652174
 40
0.5217391304347826
 40
0.5217391304347826
 40
0.5217391304347826
 40
0.5217391304347826
 40
0.5652173913043478
 40
0.5652173913043478
 40
0.5652173913043478
 40
0.5652173913043478
 40
0.6086956521739131
 40
0.6086956521739131
 40
0.6086956521739131
 40
0.6086956521739131
 40
0.6521739130434783
 40
0.6521739130434783
 40
0.6521739130434783
 40
0.6521739130434783
 40
0.6956521739130435
 40
0.6956521739130435
 40
0.6956521739130435
 40
0.6956521739130435
 40
0.7391304347826086
 40
0.7391304347826086
 40
0.7391304347826086
 40
0.7391304347826086
 40
0.782608695652174
 40
0.782608695652174
 40
0.782608695652174
 40
0.782608695652174
 40
0.8260869565217391
 40
0.8260869565217391
 40
0.8260869565217391
 40
0.8260869565217391
 40
0.8695652173913043
 40
0.8695652173913043
 40
0.8695652173913043
 40
0.8695652173913043
 40
0.9130434782608695
 40
0.9130434782608695
 40
0.9130434782608695
 40
0.9130434782608695
 40
1.0
 40
1.0
 40
1.0
 40
1.0
 10
-3.93951
 20
6.21888
 30
0.0
 10
-3.93951
 20
6.21888
 30
0.0
 10
-3.90719
 20
6.22163
 30
0.0
 10
-3.90719
 20
6.22163
 30
0.0
 10
-3.90719
 20
6.22163
 30
0.0
 10
-3.9048
 20
6.20588
 30
0.0
 10
-3.89926
 20
6.19409
 30
0.0
 10
-3.89056
 20
6.18616
 30
0.0
 10
-3.89056
 20
6.18616
 30
0.0
 10
-3.88181
 20
6.17823
 30
0.0
 10
-3.87131
 20
6.17426
 30
0.0
 10
-3.85901
 20
6.17426
 30
0.0
 10
-3.85901
 20
6.17426
 30
0.0
 10
-3.84419
 20
6.17426
 30
0.0
 10
-3.83165
 20
6.17986
 30
0.0
 10
-3.82144
 20
6.191
 30
0.0
 10
-3.82144
 20
6.191
 30
0.0
 10
-3.81117
 20
6.2022
 30
0.0
 10
-3.80604
 20
6.21702
 30
0.0
 10
-3.80604
 20
6.23545
 30
0.0
 10
-3.80604
 20
6.23545
 30
0.0
 10
-3.80604
 20
6.25301
 30
0.0
 10
-3.81094
 20
6.26683
 30
0.0
 10
-3.8208
 20
6.27698
 30
0.0
 10
-3.8208
 20
6.27698
 30
0.0
 10
-3.83066
 20
6.28713
 30
0.0
 10
-3.84355
 20
6.29221
 30
0.0
 10
-3.85953
 20
6.29221
 30
0.0
 10
-3.85953
 20
6.29221
 30
0.0
 10
-3.86945
 20
6.29221
 30
0.0
 10
-3.87837
 20
6.28993
 30
0.0
 10
-3.88636
 20
6.28544
 30
0.0
 10
-3.88636
 20
6.28544
 30
0.0
 10
-3.89436
 20
6.28095
 30
0.0
 10
-3.9006
 20
6.27512
 30
0.0
 10
-3.90515
 20
6.26794
 30
0.0
 10
-3.90515
 20
6.26794
 30
0.0
 10
-3.90515
 20
6.26794
 30
0.0
 10
-3.93402
 20
6.27168
 30
0.0
 10
-3.93402
 20
6.27168
 30
0.0
 10
-3.93402
 20
6.27168
 30
0.0
 10
-3.93402
 20
6.27168
 30
0.0
 10
-3.90976
 20
6.40036
 30
0.0
 10
-3.90976
 20
6.40036
 30
0.0
 10
-3.90976
 20
6.40036
 30
0.0
 10
-3.90976
 20
6.40036
 30
0.0
 10
-3.78516
 20
6.40036
 30
0.0
 10
-3.78516
 20
6.40036
 30
0.0
 10
-3.78516
 20
6.40036
 30
0.0
 10
-3.78516
 20
6.40036
 30
0.0
 10
-3.78516
 20
6.37096
 30
0.0
 10
-3.78516
 20
6.37096
 30
0.0
 10
-3.78516
 20
6.37096
 30
0.0
 10
-3.78516
 20
6.37096
 30
0.0
 10
-3.88514
 20
6.37096
 30
0.0
 10
-3.88514
 20
6.37096
 30
0.0
 10
-3.88514
 20
6.37096
 30
0.0
 10
-3.88514
 20
6.37096
 30
0.0
 10
-3.89867
 20
6.30364
 30
0.0
 10
-3.89867
 20
6.30364
 30
0.0
 10
-3.89867
 20
6.30364
 30
0.0
 10
-3.88362
 20
6.31414
 30
0.0
 10
-3.86781
 20
6.31939
 30
0.0
 10
-3.85131
 20
6.31939
 30
0.0
 10
-3.85131
 20
6.31939
 30
0.0
 10
-3.82943
 20
6.31939
 30
0.0
 10
-3.811
 20
6.31181
 30
0.0
 10
-3.79595
 20
6.29664
 30
0.0
 10
-3.79595
 20
6.29664
 30
0.0
 10
-3.7809
 20
6.28148
 30
0.0
 10
-3.77337
 20
6.26199
 30
0.0
 10
-3.77337
 20
6.23819
 30
0.0
 10
-3.77337
 20
6.23819
 30
0.0
 10
-3.77337
 20
6.2155
 30
0.0
 10
-3.78002
 20
6.1959
 30
0.0
 10
-3.79321
 20
6.17939
 30
0.0
 10
-3.79321
 20
6.17939
 30
0.0
 10
-3.80931
 20
6.15915
 30
0.0
 10
-3.83124
 20
6.149
 30
0.0
 10
-3.85901
 20
6.149
 30
0.0
 10
-3.85901
 20
6.149
 30
0.0
 10
-3.88181
 20
6.149
 30
0.0
 10
-3.90042
 20
6.15536
 30
0.0
 10
-3.91483
 20
6.16813
 30
0.0
 10
-3.91483
 20
6.16813
 30
0.0
 10
-3.92924
 20
6.18091
 30
0.0
 10
-3.93746
 20
6.19783
 30
0.0
 10
-3.93951
 20
6.21888
 30
0.0
  0
SPLINE
  5
AB
330
1F
100
AcDbEntity
  8
0
370
    15
100
AcDbSpline
210
0.0
220
0.0
230
1.0
 70
     8
 71
     3
 72
     8
 73
     4
 74
     0
 42
0.0000000001
 43
0.0000000001
 40
0.0
 40
0.0
 40
0.0
 40
0.0
 40
1.0
 40
1.0
 40
1.0
 40
1.0
 10
4.01572
 20
10.14289
 30
0.0
 10
4.01561
 20
10.12703
 30
0.0
 10
4.01701
 20
10.11118
 30
0.0
 10
4.0199
 20
10.09558
 30
0.0
  0
SPLINE
  5
AC
330
1F
100
AcDbEntity
  8
0
370
    15
100
AcDbSpline
210
0.0
220
0.0
230
1.0
 70
     8
 71
     3
 72
     8
 73
     4
 74
     0
 42
0.0000000001
 43
0.0000000001
 40
0.0
 40
0.0
 40
0.0
 40
0.0
 40
1.0
 40
1.0
 40
1.0
 40
1.0
 10
7.74144
 20
10.09558
 30
0.0
 10
7.74433
 20
10.11118
 30
0.0
 10
7.74573
 20
10.12702
 30
0.0
 10
7.74562
 20
10.14289
 30
0.0
  0
SPLINE
  5
AD
330
1F
100
AcDbEntity
  8
0
370
    15
100
AcDbSpline
210
0.0
220
0.0
230
1.0
 70
    24
 71
     3
 72
     8
 73
     4
 74
     0
 42
0.0000000001
 43
0.0000000001
 40
0.0
 40
0.0
 40
0.0
 40
0.0
 40
1.0
 40
1.0
 40
1.0
 40
1.0
 10
7.74562
 20
10.14289
 30
0.0
 10
7.74562
 20
10.14289
 30
0.0
 10
7.73102
 20
12.21939
 30
0.0
 10
7.73102
 20
12.21939
 30
0.0
  0
SPLINE
  5
AE
330
1F
100
AcDbEntity
  8
0
370
    15
100
AcDbSpline
210
0.0
220
0.0
230
1.0
 70
    24
 71
     3
 72
     8
 73
     4
 74
     0
 42
0.0000000001
 43
0.0000000001
 40
0.0
 40
0.0
 40
0.0
 40
0.0
 40
1.0
 40
1.0
 40
1.0
 40
1.0
 10
4.03032
 20
12.21939
 30
0.0
 10
4.03032
 20
12.21939
 30
0.0
 10
4.01572
 20
10.14289
 30
0.0
 10
4.01572
 20
10.14289
 30
0.0
  0
SPLINE
  5
AF
330
1F
100
AcDbEntity
  8
0
370
    15
100
AcDbSpline
210
0.0
220
0.0
230
1.0
 70
    24
 71
     3
 72
     8
 73
     4
 74
     0
 42
0.0000000001
 43
0.0000000001
 40
0.0
 40
0.0
 40
0.0
 40
0.0
 40
1.0
 40
1.0
 40
1.0
 40
1.0
 10
4.0199
 20
10.09558
 30
0.0
 10
4.0199
 20
10.09558
 30
0.0
 10
4.18067
 20
9.22814
 30
0.0
 10
4.18067
 20
9.22814
 30
0.0
  0
SPLINE
  5
B0
330
1F
100
AcDbEntity
  8
0
370
    15
100
AcDbSpline
210
0.0
220
0.0
230
1.0
 70
    24
 71
     3
 72
     8
 73
     4
 74
     0
 42
0.0000000001
 43
0.0000000001
 40
0.0
 40
0.0
 40
0.0
 40
0.0
 40
1.0
 40
1.0
 40
1.0
 40
1.0
 10
7.58067
 20
9.22814
 30
0.0
 10
7.58067
 20
9.22814
 30
0.0
 10
7.74144
 20
10.09558
 30
0.0
 10
7.74144
 20
10.09558
 30
0.0
  0
SPLINE
  5
B1
330
1F
100
AcDbEntity
  8
0
370
    15
100
AcDbSpline
210
0.0
220
0.0
230
1.0
 70
     8
 71
     3
 72
     8
 73
     4
 74
     0
 42
0.0000000001
 43
0.0000000001
 40
0.0
 40
0.0
 40
0.0
 40
0.0
 40
1.0
 40
1.0
 40
1.0
 40
1.0
 10
4.08032
 20
12.26904
 30
0.0
 10
4.05284
 20
12.26904
 30
0.0
 10
4.03051
 20
12.24687
 30
0.0
 10
4.03032
 20
12.21939
 30
0.0
  0
SPLINE
  5
B2
330
1F
100
AcDbEntity
  8
0
370
    15
100
AcDbSpline
210
0.0
220
0.0
230
1.0
 70
     8
 71
     3
 72
     8
 73
     4
 74
     0
 42
0.0000000001
 43
0.0000000001
 40
0.0
 40
0.0
 40
0.0
 40
0.0
 40
1.0
 40
1.0
 40
1.0
 40
1.0
 10
7.73102
 20
12.21939
 30
0.0
 10
7.73082
 20
12.24687
 30
0.0
 10
7.7085
 20
12.26904
 30
0.0
 10
7.68102
 20
12.26904
 30
0.0
  0
SPLINE
  5
B3
330
1F
100
AcDbEntity
  8
0
370
    15
100
AcDbSpline
210
0.0
220
0.0
230
1.0
 70
     8
 71
     3
 72
     8
 73
     4
 74
     0
 42
0.0000000001
 43
0.0000000001
 40
0.0
 40
0.0
 40
0.0
 40
0.0
 40
1.0
 40
1.0
 40
1.0
 40
1.0
 10
4.18067
 20
9.22814
 30
0.0
 10
4.19022
 20
9.17659
 30
0.0
 10
4.21574
 20
9.12935
 30
0.0
 10
4.25362
 20
9.0931
 30
0.0
  0
SPLINE
  5
B4
330
1F
100
AcDbEntity
  8
0
370
    15
100
AcDbSpline
210
0.0
220
0.0
230
1.0
 70
     8
 71
     3
 72
     8
 73
     4
 74
     0
 42
0.0000000001
 43
0.0000000001
 40
0.0
 40
0.0
 40
0.0
 40
0.0
 40
1.0
 40
1.0
 40
1.0
 40
1.0
 10
7.50772
 20
9.0931
 30
0.0
 10
7.54559
 20
9.12935
 30
0.0
 10
7.57111
 20
9.17659
 30
0.0
 10
7.58067
 20
9.22814
 30
0.0
  0
SPLINE
  5
B5
330
1F
100
AcDbEntity
  8
0
370
    15
100
AcDbSpline
210
0.0
220
0.0
230
1.0
 70
     8
 71
     3
 72
    12
 73
     8
 74
     0
 42
0.0000000001
 43
0.0000000001
 40
0.0
 40
0.0
 40
0.0
 40
0.0
 40
0.3333333333333333
 40
0.3333333333333333
 40
0.3333333333333333
 40
0.3333333333333333
 40
1.0
 40
1.0
 40
1.0
 40
1.0
 10
4.25362
 20
9.0931
 30
0.0
 10
4.25362
 20
9.0931
 30
0.0
 10
4.2704
 20
9.07539
 30
0.0
 10
4.2704
 20
9.07539
 30
0.0
 10
4.2704
 20
9.07539
 30
0.0
 10
4.2704
 20
9.07539
 30
0.0
 10
4.27567
 20
9.06904
 30
0.0
 10
4.27567
 20
9.06904
 30
0.0
  0
SPLINE
  5
B6
330
1F
100
AcDbEntity
  8
0
370
    15
100
AcDbSpline
210
0.0
220
0.0
230
1.0
 70
     8
 71
     3
 72
    12
 73
     8
 74
     0
 42
0.0000000001
 43
0.0000000001
 40
0.0
 40
0.0
 40
0.0
 40
0.0
 40
0.3333333333333333
 40
0.3333333333333333
 40
0.3333333333333333
 40
0.3333333333333333
 40
1.0
 40
1.0
 40
1.0
 40
1.0
 10
7.48566
 20
9.06904
 30
0.0
 10
7.48566
 20
9.06904
 30
0.0
 10
7.49094
 20
9.07539
 30
0.0
 10
7.49094
 20
9.07539
 30
0.0
 10
7.49094
 20
9.07539
 30
0.0
 10
7.49094
 20
9.07539
 30
0.0
 10
7.50772
 20
9.0931
 30
0.0
 10
7.50772
 20
9.0931
 30
0.0
  0
SPLINE
  5
B7
330
1F
100
AcDbEntity
  8
0
370
    15
100
AcDbSpline
210
0.0
220
0.0
230
1.0
 70
    24
 71
     3
 72
     8
 73
     4
 74
     0
 42
0.0000000001
 43
0.0000000001
 40
0.0
 40
0.0
 40
0.0
 40
0.0
 40
1.0
 40
1.0
 40
1.0
 40
1.0
 10
4.34114
 20
8.51904
 30
0.0
 10
4.34114
 20
8.51904
 30
0.0
 10
4.36095
 20
7.76249
 30
0.0
 10
4.36095
 20
7.76249
 30
0.0
  0
SPLINE
  5
B8
330
1F
100
AcDbEntity
  8
0
370
    15
100
AcDbSpline
210
0.0
220
0.0
230
1.0
 70
    24
 71
     3
 72
     8
 73
     4
 74
     0
 42
0.0000000001
 43
0.0000000001
 40
0.0
 40
0.0
 40
0.0
 40
0.0
 40
1.0
 40
1.0
 40
1.0
 40
1.0
 10
7.40038
 20
7.76249
 30
0.0
 10
7.40038
 20
7.76249
 30
0.0
 10
7.42019
 20
8.51904
 30
0.0
 10
7.42019
 20
8.51904
 30
0.0
  0
SPLINE
  5
B9
330
1F
100
AcDbEntity
  8
0
370
    15
100
AcDbSpline
210
0.0
220
0.0
230
1.0
 70
     8
 71
     3
 72
     8
 73
     4
 74
     0
 42
0.0000000001
 43
0.0000000001
 40
0.0
 40
0.0
 40
0.0
 40
0.0
 40
1.0
 40
1.0
 40
1.0
 40
1.0
 10
4.36095
 20
7.76249
 30
0.0
 10
4.3645
 20
7.62702
 30
0.0
 10
4.47535
 20
7.51904
 30
0.0
 10
4.61087
 20
7.51904
 30
0.0
  0
SPLINE
  5
BA
330
1F
100
AcDbEntity
  8
0
370
    15
100
AcDbSpline
210
0.0
220
0.0
230
1.0
 70
     8
 71
     3
 72
     8
 73
     4
 74
     0
 42
0.0000000001
 43
0.0000000001
 40
0.0
 40
0.0
 40
0.0
 40
0.0
 40
1.0
 40
1.0
 40
1.0
 40
1.0
 10
7.15047
 20
7.51904
 30
0.0
 10
7.28599
 20
7.51904
 30
0.0
 10
7.39684
 20
7.62702
 30
0.0
 10
7.40038
 20
7.76249
 30
0.0
  0
SPLINE
  5
BB
330
1F
100
AcDbEntity
  8
0
370
    15
100
AcDbSpline
210
0.0
220
0.0
230
1.0
 70
    24
 71
     3
 72
     8
 73
     4
 74
     0
 42
0.0000000001
 43
0.0000000001
 40
0.0
 40
0.0
 40
0.0
 40
0.0
 40
1.0
 40
1.0
 40
1.0
 40
1.0
 10
4.22798
 20
8.66904
 30
0.0
 10
4.22798
 20
8.66904
 30
0.0
 10
4.26817
 20
8.51904
 30
0.0
 10
4.26817
 20
8.51904
 30
0.0
  0
SPLINE
  5
BC
330
1F
100
AcDbEntity
  8
0
370
    15
100
AcDbSpline
210
0.0
220
0.0
230
1.0
 70
    24
 71
     3
 72
     8
 73
     4
 74
     0
 42
0.0000000001
 43
0.0000000001
 40
0.0
 40
0.0
 40
0.0
 40
0.0
 40
1.0
 40
1.0
 40
1.0
 40
1.0
 10
7.49317
 20
8.51904
 30
0.0
 10
7.49317
 20
8.51904
 30
0.0
 10
7.53336
 20
8.66904
 30
0.0
 10
7.53336
 20
8.66904
 30
0.0
  0
SPLINE
  5
BD
330
1F
100
AcDbEntity
  8
0
370
    15
100
AcDbSpline
210
0.0
220
0.0
230
1.0
 70
     8
 71
     3
 72
     8
 73
     4
 74
     0
 42
0.0000000001
 43
0.0000000001
 40
0.0
 40
0.0
 40
0.0
 40
0.0
 40
1.0
 40
1.0
 40
1.0
 40
1.0
 10
7.73067
 20
8.66904
 30
0.0
 10
7.77642
 20
8.79844
 30
0.0
 10
7.77642
 20
8.93963
 30
0.0
 10
7.73067
 20
9.06903
 30
0.0
  0
SPLINE
  5
BE
330
1F
100
AcDbEntity
  8
0
370
    15
100
AcDbSpline
210
0.0
220
0.0
230
1.0
 70
    24
 71
     3
 72
     8
 73
     4
 74
     0
 42
0.0000000001
 43
0.0000000001
 40
0.0
 40
0.0
 40
0.0
 40
0.0
 40
1.0
 40
1.0
 40
1.0
 40
1.0
 10
3.71471
 20
7.01904
 30
0.0
 10
3.71471
 20
7.01904
 30
0.0
 10
3.71471
 20
8.61182
 30
0.0
 10
3.71471
 20
8.61182
 30
0.0
  0
SPLINE
  5
BF
330
1F
100
AcDbEntity
  8
0
370
    15
100
AcDbSpline
210
0.0
220
0.0
230
1.0
 70
    24
 71
     3
 72
     8
 73
     4
 74
     0
 42
0.0000000001
 43
0.0000000001
 40
0.0
 40
0.0
 40
0.0
 40
0.0
 40
1.0
 40
1.0
 40
1.0
 40
1.0
 10
4.08032
 20
12.26904
 30
0.0
 10
4.08032
 20
12.26904
 30
0.0
 10
7.68102
 20
12.26904
 30
0.0
 10
7.68102
 20
12.26904
 30
0.0
  0
SPLINE
  5
C0
330
1F
100
AcDbEntity
  8
0
370
    15
100
AcDbSpline
210
0.0
220
0.0
230
1.0
 70
    24
 71
     3
 72
     8
 73
     4
 74
     0
 42
0.0000000001
 43
0.0000000001
 40
0.0
 40
0.0
 40
0.0
 40
0.0
 40
1.0
 40
1.0
 40
1.0
 40
1.0
 10
4.61087
 20
7.51904
 30
0.0
 10
4.61087
 20
7.51904
 30
0.0
 10
7.15047
 20
7.51904
 30
0.0
 10
7.15047
 20
7.51904
 30
0.0
  0
SPLINE
  5
C1
330
1F
100
AcDbEntity
  8
0
370
    15
100
AcDbSpline
210
0.0
220
0.0
230
1.0
 70
    24
 71
     3
 72
     8
 73
     4
 74
     0
 42
0.0000000001
 43
0.0000000001
 40
0.0
 40
0.0
 40
0.0
 40
0.0
 40
1.0
 40
1.0
 40
1.0
 40
1.0
 10
7.49317
 20
8.51904
 30
0.0
 10
7.49317
 20
8.51904
 30
0.0
 10
4.26817
 20
8.51904
 30
0.0
 10
4.26817
 20
8.51904
 30
0.0
  0
SPLINE
  5
C2
330
1F
100
AcDbEntity
  8
0
370
    15
100
AcDbSpline
210
0.0
220
0.0
230
1.0
 70
    24
 71
     3
 72
     8
 73
     4
 74
     0
 42
0.0000000001
 43
0.0000000001
 40
0.0
 40
0.0
 40
0.0
 40
0.0
 40
1.0
 40
1.0
 40
1.0
 40
1.0
 10
7.73067
 20
8.66904
 30
0.0
 10
7.73067
 20
8.66904
 30
0.0
 10
4.03067
 20
8.66904
 30
0.0
 10
4.03067
 20
8.66904
 30
0.0
  0
SPLINE
  5
C3
330
1F
100
AcDbEntity
  8
0
370
    15
100
AcDbSpline
210
0.0
220
0.0
230
1.0
 70
     8
 71
     3
 72
     8
 73
     4
 74
     0
 42
0.0000000001
 43
0.0000000001
 40
0.0
 40
0.0
 40
0.0
 40
0.0
 40
1.0
 40
1.0
 40
1.0
 40
1.0
 10
4.03067
 20
9.06904
 30
0.0
 10
3.98492
 20
8.93963
 30
0.0
 10
3.98492
 20
8.79845
 30
0.0
 10
4.03067
 20
8.66904
 30
0.0
  0
SPLINE
  5
C4
330
1F
100
AcDbEntity
  8
0
370
    15
100
AcDbSpline
210
0.0
220
0.0
230
1.0
 70
    24
 71
     3
 72
     8
 73
     4
 74
     0
 42
0.0000000001
 43
0.0000000001
 40
0.0
 40
0.0
 40
0.0
 40
0.0
 40
1.0
 40
1.0
 40
1.0
 40
1.0
 10
4.03067
 20
9.06904
 30
0.0
 10
4.03067
 20
9.06904
 30
0.0
 10
7.73067
 20
9.06904
 30
0.0
 10
7.73067
 20
9.06904
 30
0.0
  0
SPLINE
  5
C5
330
1F
100
AcDbEntity
  8
0
370
    15
100
AcDbSpline
210
0.0
220
0.0
230
1.0
 70
    24
 71
     3
 72
     8
 73
     4
 74
     0
 42
0.0000000001
 43
0.0000000001
 40
0.0
 40
0.0
 40
0.0
 40
0.0
 40
1.0
 40
1.0
 40
1.0
 40
1.0
 10
3.93067
 20
9.06904
 30
0.0
 10
3.93067
 20
9.06904
 30
0.0
 10
3.93067
 20
8.66904
 30
0.0
 10
3.93067
 20
8.66904
 30
0.0
  0
SPLINE
  5
C6
330
1F
100
AcDbEntity
  8
0
370
    15
100
AcDbSpline
210
0.0
220
0.0
230
1.0
 70
    24
 71
     3
 72
     8
 73
     4
 74
     0
 42
0.0000000001
 43
0.0000000001
 40
0.0
 40
0.0
 40
0.0
 40
0.0
 40
1.0
 40
1.0
 40
1.0
 40
1.0
 10
3.93067
 20
9.06904
 30
0.0
 10
3.93067
 20
9.06904
 30
0.0
 10
4.03067
 20
9.06904
 30
0.0
 10
4.03067
 20
9.06904
 30
0.0
  0
SPLINE
  5
C7
330
1F
100
AcDbEntity
  8
0
370
    15
100
AcDbSpline
210
0.0
220
0.0
230
1.0
 70
    24
 71
     3
 72
     8
 73
     4
 74
     0
 42
0.0000000001
 43
0.0000000001
 40
0.0
 40
0.0
 40
0.0
 40
0.0
 40
1.0
 40
1.0
 40
1.0
 40
1.0
 10
4.03067
 20
8.66904
 30
0.0
 10
4.03067
 20
8.66904
 30
0.0
 10
3.93067
 20
8.66904
 30
0.0
 10
3.93067
 20
8.66904
 30
0.0
  0
SPLINE
  5
C8
330
1F
100
AcDbEntity
  8
0
370
    15
100
AcDbSpline
210
0.0
220
0.0
230
1.0
 70
    24
 71
     3
 72
     8
 73
     4
 74
     0
 42
0.0000000001
 43
0.0000000001
 40
0.0
 40
0.0
 40
0.0
 40
0.0
 40
1.0
 40
1.0
 40
1.0
 40
1.0
 10
3.71471
 20
7.01904
 30
0.0
 10
3.71471
 20
7.01904
 30
0.0
 10
3.68067
 20
7.01904
 30
0.0
 10
3.68067
 20
7.01904
 30
0.0
  0
SPLINE
  5
C9
330
1F
100
AcDbEntity
  8
0
370
    15
100
AcDbSpline
210
0.0
220
0.0
230
1.0
 70
    24
 71
     3
 72
     8
 73
     4
 74
     0
 42
0.0000000001
 43
0.0000000001
 40
0.0
 40
0.0
 40
0.0
 40
0.0
 40
1.0
 40
1.0
 40
1.0
 40
1.0
 10
3.68067
 20
8.51904
 30
0.0
 10
3.68067
 20
8.51904
 30
0.0
 10
3.68067
 20
7.01904
 30
0.0
 10
3.68067
 20
7.01904
 30
0.0
  0
SPLINE
  5
CA
330
1F
100
AcDbEntity
  8
0
370
    15
100
AcDbSpline
210
0.0
220
0.0
230
1.0
 70
    24
 71
     3
 72
     8
 73
     4
 74
     0
 42
0.0000000001
 43
0.0000000001
 40
0.0
 40
0.0
 40
0.0
 40
0.0
 40
1.0
 40
1.0
 40
1.0
 40
1.0
 10
3.28067
 20
8.51904
 30
0.0
 10
3.28067
 20
8.51904
 30
0.0
 10
3.68067
 20
8.51904
 30
0.0
 10
3.68067
 20
8.51904
 30
0.0
  0
SPLINE
  5
CB
330
1F
100
AcDbEntity
  8
0
370
    15
100
AcDbSpline
210
0.0
220
0.0
230
1.0
 70
     8
 71
     3
 72
    12
 73
     8
 74
     0
 42
0.0000000001
 43
0.0000000001
 40
0.0
 40
0.0
 40
0.0
 40
0.0
 40
0.3333333333333333
 40
0.3333333333333333
 40
0.3333333333333333
 40
0.3333333333333333
 40
1.0
 40
1.0
 40
1.0
 40
1.0
 10
3.83067
 20
9.06904
 30
0.0
 10
3.6848
 20
9.06904
 30
0.0
 10
3.5449
 20
9.01109
 30
0.0
 10
3.44176
 20
8.90795
 30
0.0
 10
3.44176
 20
8.90795
 30
0.0
 10
3.33861
 20
8.8048
 30
0.0
 10
3.28067
 20
8.66491
 30
0.0
 10
3.28067
 20
8.51904
 30
0.0
  0
SPLINE
  5
CC
330
1F
100
AcDbEntity
  8
0
370
    15
100
AcDbSpline
210
0.0
220
0.0
230
1.0
 70
    24
 71
     3
 72
     8
 73
     4
 74
     0
 42
0.0000000001
 43
0.0000000001
 40
0.0
 40
0.0
 40
0.0
 40
0.0
 40
1.0
 40
1.0
 40
1.0
 40
1.0
 10
3.83067
 20
9.06904
 30
0.0
 10
3.83067
 20
9.06904
 30
0.0
 10
3.83067
 20
8.66904
 30
0.0
 10
3.83067
 20
8.66904
 30
0.0
  0
SPLINE
  5
CD
330
1F
100
AcDbEntity
  8
0
370
    15
100
AcDbSpline
210
0.0
220
0.0
230
1.0
 70
     8
 71
     3
 72
    12
 73
     8
 74
     0
 42
0.0000000001
 43
0.0000000001
 40
0.0
 40
0.0
 40
0.0
 40
0.0
 40
0.3333333333333333
 40
0.3333333333333333
 40
0.3333333333333333
 40
0.3333333333333333
 40
1.0
 40
1.0
 40
1.0
 40
1.0
 10
3.83067
 20
8.66904
 30
0.0
 10
3.79089
 20
8.66904
 30
0.0
 10
3.75273
 20
8.65323
 30
0.0
 10
3.7246
 20
8.6251
 30
0.0
 10
3.7246
 20
8.6251
 30
0.0
 10
3.69647
 20
8.59697
 30
0.0
 10
3.68067
 20
8.55882
 30
0.0
 10
3.68067
 20
8.51904
 30
0.0
  0
SPLINE
  5
CE
330
1F
100
AcDbEntity
  8
0
370
    15
100
AcDbSpline
210
0.0
220
0.0
230
1.0
 70
    24
 71
     3
 72
     8
 73
     4
 74
     0
 42
0.0000000001
 43
0.0000000001
 40
0.0
 40
0.0
 40
0.0
 40
0.0
 40
1.0
 40
1.0
 40
1.0
 40
1.0
 10
3.28067
 20
8.51904
 30
0.0
 10
3.28067
 20
8.51904
 30
0.0
 10
3.28067
 20
7.01904
 30
0.0
 10
3.28067
 20
7.01904
 30
0.0
  0
SPLINE
  5
CF
330
1F
100
AcDbEntity
  8
0
370
    15
100
AcDbSpline
210
0.0
220
0.0
230
1.0
 70
    24
 71
     3
 72
     8
 73
     4
 74
     0
 42
0.0000000001
 43
0.0000000001
 40
0.0
 40
0.0
 40
0.0
 40
0.0
 40
1.0
 40
1.0
 40
1.0
 40
1.0
 10
3.28067
 20
7.01904
 30
0.0
 10
3.28067
 20
7.01904
 30
0.0
 10
3.68067
 20
7.01904
 30
0.0
 10
3.68067
 20
7.01904
 30
0.0
  0
SPLINE
  5
D0
330
1F
100
AcDbEntity
  8
0
370
    15
100
AcDbSpline
210
0.0
220
0.0
230
1.0
 70
    24
 71
     3
 72
     8
 73
     4
 74
     0
 42
0.0000000001
 43
0.0000000001
 40
0.0
 40
0.0
 40
0.0
 40
0.0
 40
1.0
 40
1.0
 40
1.0
 40
1.0
 10
3.93067
 20
9.06904
 30
0.0
 10
3.93067
 20
9.06904
 30
0.0
 10
3.83067
 20
9.06904
 30
0.0
 10
3.83067
 20
9.06904
 30
0.0
  0
SPLINE
  5
D1
330
1F
100
AcDbEntity
  8
0
370
    15
100
AcDbSpline
210
0.0
220
0.0
230
1.0
 70
    24
 71
     3
 72
     8
 73
     4
 74
     0
 42
0.0000000001
 43
0.0000000001
 40
0.0
 40
0.0
 40
0.0
 40
0.0
 40
1.0
 40
1.0
 40
1.0
 40
1.0
 10
3.93067
 20
8.66904
 30
0.0
 10
3.93067
 20
8.66904
 30
0.0
 10
3.83067
 20
8.66904
 30
0.0
 10
3.83067
 20
8.66904
 30
0.0
  0
SPLINE
  5
D2
330
1F
100
AcDbEntity
  8
0
370
    15
100
AcDbSpline
210
0.0
220
0.0
230
1.0
 70
    24
 71
     3
 72
     8
 73
     4
 74
     0
 42
0.0000000001
 43
0.0000000001
 40
0.0
 40
0.0
 40
0.0
 40
0.0
 40
1.0
 40
1.0
 40
1.0
 40
1.0
 10
3.31661
 20
8.71459
 30
0.0
 10
3.31661
 20
8.71459
 30
0.0
 10
3.30492
 20
8.71904
 30
0.0
 10
3.30492
 20
8.71904
 30
0.0
  0
SPLINE
  5
D3
330
1F
100
AcDbEntity
  8
0
370
    15
100
AcDbSpline
210
0.0
220
0.0
230
1.0
 70
     8
 71
     3
 72
    24
 73
    20
 74
     0
 42
0.0000000001
 43
0.0000000001
 40
0.0
 40
0.0
 40
0.0
 40
0.0
 40
0.1666666666666667
 40
0.1666666666666667
 40
0.1666666666666667
 40
0.1666666666666667
 40
0.3333333333333333
 40
0.3333333333333333
 40
0.3333333333333333
 40
0.3333333333333333
 40
0.5
 40
0.5
 40
0.5
 40
0.5
 40
0.6666666666666666
 40
0.6666666666666666
 40
0.6666666666666666
 40
0.6666666666666666
 40
1.0
 40
1.0
 40
1.0
 40
1.0
 10
3.30492
 20
8.71904
 30
0.0
 10
3.31354
 20
8.7379
 30
0.0
 10
3.32215
 20
8.75676
 30
0.0
 10
3.33161
 20
8.77397
 30
0.0
 10
3.33161
 20
8.77397
 30
0.0
 10
3.34061
 20
8.79034
 30
0.0
 10
3.35038
 20
8.80521
 30
0.0
 10
3.35963
 20
8.81822
 30
0.0
 10
3.35963
 20
8.81822
 30
0.0
 10
3.36721
 20
8.82889
 30
0.0
 10
3.37444
 20
8.83831
 30
0.0
 10
3.38093
 20
8.84629
 30
0.0
 10
3.38093
 20
8.84629
 30
0.0
 10
3.38672
 20
8.8534
 30
0.0
 10
3.39192
 20
8.85936
 30
0.0
 10
3.39509
 20
8.86296
 30
0.0
 10
3.39509
 20
8.86296
 30
0.0
 10
3.39826
 20
8.86656
 30
0.0
 10
3.3994
 20
8.8678
 30
0.0
 10
3.40055
 20
8.86904
 30
0.0
  0
SPLINE
  5
D4
330
1F
100
AcDbEntity
  8
0
370
    15
100
AcDbSpline
210
0.0
220
0.0
230
1.0
 70
     8
 71
     3
 72
     8
 73
     4
 74
     0
 42
0.0000000001
 43
0.0000000001
 40
0.0
 40
0.0
 40
0.0
 40
0.0
 40
1.0
 40
1.0
 40
1.0
 40
1.0
 10
3.40055
 20
8.86904
 30
0.0
 10
3.40424
 20
8.86904
 30
0.0
 10
3.40774
 20
8.87066
 30
0.0
 10
3.41011
 20
8.87348
 30
0.0
  0
SPLINE
  5
D5
330
1F
100
AcDbEntity
  8
0
370
    15
100
AcDbSpline
210
0.0
220
0.0
230
1.0
 70
    24
 71
     3
 72
     8
 73
     4
 74
     0
 42
0.0000000001
 43
0.0000000001
 40
0.0
 40
0.0
 40
0.0
 40
0.0
 40
1.0
 40
1.0
 40
1.0
 40
1.0
 10
3.26817
 20
7.01904
 30
0.0
 10
3.26817
 20
7.01904
 30
0.0
 10
3.26817
 20
8.51904
 30
0.0
 10
3.26817
 20
8.51904
 30
0.0
  0
SPLINE
  5
D6
330
1F
100
AcDbEntity
  8
0
370
    15
100
AcDbSpline
210
0.0
220
0.0
230
1.0
 70
    24
 71
     3
 72
     8
 73
     4
 74
     0
 42
0.0000000001
 43
0.0000000001
 40
0.0
 40
0.0
 40
0.0
 40
0.0
 40
1.0
 40
1.0
 40
1.0
 40
1.0
 10
3.28067
 20
8.51904
 30
0.0
 10
3.28067
 20
8.51904
 30
0.0
 10
3.26817
 20
8.51904
 30
0.0
 10
3.26817
 20
8.51904
 30
0.0
  0
SPLINE
  5
D7
330
1F
100
AcDbEntity
  8
0
370
    15
100
AcDbSpline
210
0.0
220
0.0
230
1.0
 70
    24
 71
     3
 72
     8
 73
     4
 74
     0
 42
0.0000000001
 43
0.0000000001
 40
0.0
 40
0.0
 40
0.0
 40
0.0
 40
1.0
 40
1.0
 40
1.0
 40
1.0
 10
3.28067
 20
7.01904
 30
0.0
 10
3.28067
 20
7.01904
 30
0.0
 10
3.26817
 20
7.01904
 30
0.0
 10
3.26817
 20
7.01904
 30
0.0
  0
SPLINE
  5
D8
330
1F
100
AcDbEntity
  8
0
370
    15
100
AcDbSpline
210
0.0
220
0.0
230
1.0
 70
     8
 71
     3
 72
     8
 73
     4
 74
     0
 42
0.0000000001
 43
0.0000000001
 40
0.0
 40
0.0
 40
0.0
 40
0.0
 40
1.0
 40
1.0
 40
1.0
 40
1.0
 10
3.30492
 20
8.71904
 30
0.0
 10
3.28062
 20
8.65516
 30
0.0
 10
3.26817
 20
8.58738
 30
0.0
 10
3.26817
 20
8.51904
 30
0.0
  0
SPLINE
  5
D9
330
1F
100
AcDbEntity
  8
0
370
    15
100
AcDbSpline
210
0.0
220
0.0
230
1.0
 70
    24
 71
     3
 72
     8
 73
     4
 74
     0
 42
0.0000000001
 43
0.0000000001
 40
0.0
 40
0.0
 40
0.0
 40
0.0
 40
1.0
 40
1.0
 40
1.0
 40
1.0
 10
3.18067
 20
8.71904
 30
0.0
 10
3.18067
 20
8.71904
 30
0.0
 10
3.18067
 20
8.86904
 30
0.0
 10
3.18067
 20
8.86904
 30
0.0
  0
SPLINE
  5
DA
330
1F
100
AcDbEntity
  8
0
370
    15
100
AcDbSpline
210
0.0
220
0.0
230
1.0
 70
    24
 71
     3
 72
     8
 73
     4
 74
     0
 42
0.0000000001
 43
0.0000000001
 40
0.0
 40
0.0
 40
0.0
 40
0.0
 40
1.0
 40
1.0
 40
1.0
 40
1.0
 10
3.18067
 20
8.86904
 30
0.0
 10
3.18067
 20
8.86904
 30
0.0
 10
3.40055
 20
8.86904
 30
0.0
 10
3.40055
 20
8.86904
 30
0.0
  0
SPLINE
  5
DB
330
1F
100
AcDbEntity
  8
0
370
    15
100
AcDbSpline
210
0.0
220
0.0
230
1.0
 70
    24
 71
     3
 72
     8
 73
     4
 74
     0
 42
0.0000000001
 43
0.0000000001
 40
0.0
 40
0.0
 40
0.0
 40
0.0
 40
1.0
 40
1.0
 40
1.0
 40
1.0
 10
3.30492
 20
8.71904
 30
0.0
 10
3.30492
 20
8.71904
 30
0.0
 10
3.18067
 20
8.71904
 30
0.0
 10
3.18067
 20
8.71904
 30
0.0
  0
SPLINE
  5
DC
330
1F
100
AcDbEntity
  8
0
370
    15
100
AcDbSpline
210
0.0
220
0.0
230
1.0
 70
    24
 71
     3
 72
     8
 73
     4
 74
     0
 42
0.0000000001
 43
0.0000000001
 40
0.0
 40
0.0
 40
0.0
 40
0.0
 40
1.0
 40
1.0
 40
1.0
 40
1.0
 10
3.18067
 20
7.01904
 30
0.0
 10
3.18067
 20
7.01904
 30
0.0
 10
3.18067
 20
8.71904
 30
0.0
 10
3.18067
 20
8.71904
 30
0.0
  0
SPLINE
  5
DD
330
1F
100
AcDbEntity
  8
0
370
    15
100
AcDbSpline
210
0.0
220
0.0
230
1.0
 70
    24
 71
     3
 72
     8
 73
     4
 74
     0
 42
0.0000000001
 43
0.0000000001
 40
0.0
 40
0.0
 40
0.0
 40
0.0
 40
1.0
 40
1.0
 40
1.0
 40
1.0
 10
3.18067
 20
7.01904
 30
0.0
 10
3.18067
 20
7.01904
 30
0.0
 10
3.26817
 20
7.01904
 30
0.0
 10
3.26817
 20
7.01904
 30
0.0
  0
SPLINE
  5
DE
330
1F
100
AcDbEntity
  8
0
370
    15
100
AcDbSpline
210
0.0
220
0.0
230
1.0
 70
    24
 71
     3
 72
     8
 73
     4
 74
     0
 42
0.0000000001
 43
0.0000000001
 40
0.0
 40
0.0
 40
0.0
 40
0.0
 40
1.0
 40
1.0
 40
1.0
 40
1.0
 10
3.29067
 20
7.01895
 30
0.0
 10
3.29067
 20
7.01895
 30
0.0
 10
3.29067
 20
7.01904
 30
0.0
 10
3.29067
 20
7.01904
 30
0.0
  0
SPLINE
  5
DF
330
1F
100
AcDbEntity
  8
0
370
    15
100
AcDbSpline
210
0.0
220
0.0
230
1.0
 70
    24
 71
     3
 72
     8
 73
     4
 74
     0
 42
0.0000000001
 43
0.0000000001
 40
0.0
 40
0.0
 40
0.0
 40
0.0
 40
1.0
 40
1.0
 40
1.0
 40
1.0
 10
3.34067
 20
7.01895
 30
0.0
 10
3.34067
 20
7.01895
 30
0.0
 10
3.29067
 20
7.01895
 30
0.0
 10
3.29067
 20
7.01895
 30
0.0
  0
SPLINE
  5
E0
330
1F
100
AcDbEntity
  8
0
370
    15
100
AcDbSpline
210
0.0
220
0.0
230
1.0
 70
    24
 71
     3
 72
     8
 73
     4
 74
     0
 42
0.0000000001
 43
0.0000000001
 40
0.0
 40
0.0
 40
0.0
 40
0.0
 40
1.0
 40
1.0
 40
1.0
 40
1.0
 10
3.34067
 20
7.01895
 30
0.0
 10
3.34067
 20
7.01895
 30
0.0
 10
3.53567
 20
7.01895
 30
0.0
 10
3.53567
 20
7.01895
 30
0.0
  0
SPLINE
  5
E1
330
1F
100
AcDbEntity
  8
0
370
    15
100
AcDbSpline
210
0.0
220
0.0
230
1.0
 70
    24
 71
     3
 72
     8
 73
     4
 74
     0
 42
0.0000000001
 43
0.0000000001
 40
0.0
 40
0.0
 40
0.0
 40
0.0
 40
1.0
 40
1.0
 40
1.0
 40
1.0
 10
3.58567
 20
7.01904
 30
0.0
 10
3.58567
 20
7.01904
 30
0.0
 10
3.58567
 20
7.01895
 30
0.0
 10
3.58567
 20
7.01895
 30
0.0
  0
SPLINE
  5
E2
330
1F
100
AcDbEntity
  8
0
370
    15
100
AcDbSpline
210
0.0
220
0.0
230
1.0
 70
    24
 71
     3
 72
     8
 73
     4
 74
     0
 42
0.0000000001
 43
0.0000000001
 40
0.0
 40
0.0
 40
0.0
 40
0.0
 40
1.0
 40
1.0
 40
1.0
 40
1.0
 10
3.58567
 20
7.01895
 30
0.0
 10
3.58567
 20
7.01895
 30
0.0
 10
3.53567
 20
7.01895
 30
0.0
 10
3.53567
 20
7.01895
 30
0.0
  0
SPLINE
  5
E3
330
1F
100
AcDbEntity
  8
0
370
    15
100
AcDbSpline
210
0.0
220
0.0
230
1.0
 70
    24
 71
     3
 72
     8
 73
     4
 74
     0
 42
0.0000000001
 43
0.0000000001
 40
0.0
 40
0.0
 40
0.0
 40
0.0
 40
1.0
 40
1.0
 40
1.0
 40
1.0
 10
3.29067
 20
7.01895
 30
0.0
 10
3.29067
 20
7.01895
 30
0.0
 10
3.28067
 20
7.01895
 30
0.0
 10
3.28067
 20
7.01895
 30
0.0
  0
SPLINE
  5
E4
330
1F
100
AcDbEntity
  8
0
370
    15
100
AcDbSpline
210
0.0
220
0.0
230
1.0
 70
    24
 71
     3
 72
     8
 73
     4
 74
     0
 42
0.0000000001
 43
0.0000000001
 40
0.0
 40
0.0
 40
0.0
 40
0.0
 40
1.0
 40
1.0
 40
1.0
 40
1.0
 10
3.17567
 20
8.57008
 30
0.0
 10
3.17567
 20
8.57008
 30
0.0
 10
3.17567
 20
7.01895
 30
0.0
 10
3.17567
 20
7.01895
 30
0.0
  0
SPLINE
  5
E5
330
1F
100
AcDbEntity
  8
0
370
    15
100
AcDbSpline
210
0.0
220
0.0
230
1.0
 70
    24
 71
     3
 72
     8
 73
     4
 74
     0
 42
0.0000000001
 43
0.0000000001
 40
0.0
 40
0.0
 40
0.0
 40
0.0
 40
1.0
 40
1.0
 40
1.0
 40
1.0
 10
3.17567
 20
8.57008
 30
0.0
 10
3.17567
 20
8.57008
 30
0.0
 10
3.18067
 20
8.57003
 30
0.0
 10
3.18067
 20
8.57003
 30
0.0
  0
SPLINE
  5
E6
330
1F
100
AcDbEntity
  8
0
370
    15
100
AcDbSpline
210
0.0
220
0.0
230
1.0
 70
    24
 71
     3
 72
     8
 73
     4
 74
     0
 42
0.0000000001
 43
0.0000000001
 40
0.0
 40
0.0
 40
0.0
 40
0.0
 40
1.0
 40
1.0
 40
1.0
 40
1.0
 10
3.17567
 20
7.01895
 30
0.0
 10
3.17567
 20
7.01895
 30
0.0
 10
3.28067
 20
7.01895
 30
0.0
 10
3.28067
 20
7.01895
 30
0.0
  0
SPLINE
  5
E7
330
1F
100
AcDbEntity
  8
0
 62
     8
370
    15
100
AcDbSpline
210
0.0
220
0.0
230
1.0
 70
    24
 71
     3
 72
     8
 73
     4
 74
     0
 42
0.0000000001
 43
0.0000000001
 40
0.0
 40
0.0
 40
0.0
 40
0.0
 40
1.0
 40
1.0
 40
1.0
 40
1.0
 10
4.01572
 20
10.14289
 30
0.0
 10
4.01572
 20
10.14289
 30
0.0
 10
7.74562
 20
10.14289
 30
0.0
 10
7.74562
 20
10.14289
 30
0.0
  0
SPLINE
  5
E8
330
1F
100
AcDbEntity
  8
0
 62
     8
370
    15
100
AcDbSpline
210
0.0
220
0.0
230
1.0
 70
    24
 71
     3
 72
     8
 73
     4
 74
     0
 42
0.0000000001
 43
0.0000000001
 40
0.0
 40
0.0
 40
0.0
 40
0.0
 40
1.0
 40
1.0
 40
1.0
 40
1.0
 10
4.0199
 20
10.09558
 30
0.0
 10
4.0199
 20
10.09558
 30
0.0
 10
7.74144
 20
10.09558
 30
0.0
 10
7.74144
 20
10.09558
 30
0.0
  0
SPLINE
  5
E9
330
1F
100
AcDbEntity
  8
0
 62
     8
370
    15
100
AcDbSpline
210
0.0
220
0.0
230
1.0
 70
    24
 71
     3
 72
     8
 73
     4
 74
     0
 42
0.0000000001
 43
0.0000000001
 40
0.0
 40
0.0
 40
0.0
 40
0.0
 40
1.0
 40
1.0
 40
1.0
 40
1.0
 10
7.73102
 20
12.21939
 30
0.0
 10
7.73102
 20
12.21939
 30
0.0
 10
4.03032
 20
12.21939
 30
0.0
 10
4.03032
 20
12.21939
 30
0.0
  0
SPLINE
  5
EA
330
1F
100
AcDbEntity
  8
0
 62
     8
370
    15
100
AcDbSpline
210
0.0
220
0.0
230
1.0
 70
    24
 71
     3
 72
     8
 73
     4
 74
     0
 42
0.0000000001
 43
0.0000000001
 40
0.0
 40
0.0
 40
0.0
 40
0.0
 40
1.0
 40
1.0
 40
1.0
 40
1.0
 10
4.18067
 20
9.22814
 30
0.0
 10
4.18067
 20
9.22814
 30
0.0
 10
7.58067
 20
9.22814
 30
0.0
 10
7.58067
 20
9.22814
 30
0.0
  0
SPLINE
  5
EB
330
1F
100
AcDbEntity
  8
0
 62
     8
370
    15
100
AcDbSpline
210
0.0
220
0.0
230
1.0
 70
    24
 71
     3
 72
     8
 73
     4
 74
     0
 42
0.0000000001
 43
0.0000000001
 40
0.0
 40
0.0
 40
0.0
 40
0.0
 40
1.0
 40
1.0
 40
1.0
 40
1.0
 10
4.25362
 20
9.0931
 30
0.0
 10
4.25362
 20
9.0931
 30
0.0
 10
7.50772
 20
9.0931
 30
0.0
 10
7.50772
 20
9.0931
 30
0.0
  0
SPLINE
  5
EC
330
1F
100
AcDbEntity
  8
0
 62
     8
370
    15
100
AcDbSpline
210
0.0
220
0.0
230
1.0
 70
    24
 71
     3
 72
     8
 73
     4
 74
     0
 42
0.0000000001
 43
0.0000000001
 40
0.0
 40
0.0
 40
0.0
 40
0.0
 40
1.0
 40
1.0
 40
1.0
 40
1.0
 10
4.36095
 20
7.76249
 30
0.0
 10
4.36095
 20
7.76249
 30
0.0
 10
7.40038
 20
7.76249
 30
0.0
 10
7.40038
 20
7.76249
 30
0.0
  0
SPLINE
  5
ED
330
1F
100
AcDbEntity
  8
0
 62
     8
370
    15
100
AcDbSpline
210
0.0
220
0.0
230
1.0
 70
    24
 71
     3
 72
     8
 73
     4
 74
     0
 42
0.0000000001
 43
0.0000000001
 40
0.0
 40
0.0
 40
0.0
 40
0.0
 40
1.0
 40
1.0
 40
1.0
 40
1.0
 10
3.34067
 20
7.01904
 30
0.0
 10
3.34067
 20
7.01904
 30
0.0
 10
3.34067
 20
7.01895
 30
0.0
 10
3.34067
 20
7.01895
 30
0.0
  0
SPLINE
  5
EE
330
1F
100
AcDbEntity
  8
0
 62
     8
370
    15
100
AcDbSpline
210
0.0
220
0.0
230
1.0
 70
    24
 71
     3
 72
     8
 73
     4
 74
     0
 42
0.0000000001
 43
0.0000000001
 40
0.0
 40
0.0
 40
0.0
 40
0.0
 40
1.0
 40
1.0
 40
1.0
 40
1.0
 10
3.53567
 20
7.01895
 30
0.0
 10
3.53567
 20
7.01895
 30
0.0
 10
3.53567
 20
7.01904
 30
0.0
 10
3.53567
 20
7.01904
 30
0.0
  0
SPLINE
  5
EF
330
1F
100
AcDbEntity
  8
0
 62
     8
370
    15
100
AcDbSpline
210
0.0
220
0.0
230
1.0
 70
    24
 71
     3
 72
     8
 73
     4
 74
     0
 42
0.0000000001
 43
0.0000000001
 40
0.0
 40
0.0
 40
0.0
 40
0.0
 40
1.0
 40
1.0
 40
1.0
 40
1.0
 10
3.28067
 20
7.01895
 30
0.0
 10
3.28067
 20
7.01895
 30
0.0
 10
3.28067
 20
7.01904
 30
0.0
 10
3.28067
 20
7.01904
 30
0.0
  0
SPLINE
  5
F0
330
1F
100
AcDbEntity
  8
0
100
AcDbSpline
210
0.0
220
0.0
230
1.0
 70
    27
 71
     3
 72
    12
 73
     8
 74
     0
 42
0.0000000001
 43
0.0000000001
 40
0.0
 40
0.0
 40
0.0
 40
0.0
 40
0.3333333333333333
 40
0.3333333333333333
 40
0.3333333333333333
 40
0.3333333333333333
 40
1.0
 40
1.0
 40
1.0
 40
1.0
 10
3.17567
 20
6.01895
 30
0.0
 10
3.17567
 20
6.01895
 30
0.0
 10
3.50587
 20
6.06975
 30
0.0
 10
3.50587
 20
6.06975
 30
0.0
 10
3.50587
 20
6.06975
 30
0.0
 10
3.50587
 20
6.06975
 30
0.0
 10
3.17567
 20
6.01895
 30
0.0
 10
3.17567
 20
6.01895
 30
0.0
  0
SPLINE
  5
F1
330
1F
100
AcDbEntity
  8
0
100
AcDbSpline
210
0.0
220
0.0
230
1.0
 70
     8
 71
     3
 72
    12
 73
     8
 74
     0
 42
0.0000000001
 43
0.0000000001
 40
0.0
 40
0.0
 40
0.0
 40
0.0
 40
0.3333333333333333
 40
0.3333333333333333
 40
0.3333333333333333
 40
0.3333333333333333
 40
1.0
 40
1.0
 40
1.0
 40
1.0
 10
3.50587
 20
6.06975
 30
0.0
 10
3.50587
 20
6.06975
 30
0.0
 10
3.50587
 20
5.96815
 30
0.0
 10
3.50587
 20
5.96815
 30
0.0
 10
3.50587
 20
5.96815
 30
0.0
 10
3.50587
 20
5.96815
 30
0.0
 10
3.17567
 20
6.01895
 30
0.0
 10
3.17567
 20
6.01895
 30
0.0
  0
SPLINE
  5
F2
330
1F
100
AcDbEntity
  8
0
370
     9
100
AcDbSpline
210
0.0
220
0.0
230
1.0
 70
    24
 71
     3
 72
     8
 73
     4
 74
     0
 42
0.0000000001
 43
0.0000000001
 40
0.0
 40
0.0
 40
0.0
 40
0.0
 40
1.0
 40
1.0
 40
1.0
 40
1.0
 10
3.17567
 20
6.01895
 30
0.0
 10
3.17567
 20
6.01895
 30
0.0
 10
3.50587
 20
6.06975
 30
0.0
 10
3.50587
 20
6.06975
 30
0.0
  0
SPLINE
  5
F3
330
1F
100
AcDbEntity
  8
0
370
     9
100
AcDbSpline
210
0.0
220
0.0
230
1.0
 70
     8
 71
     3
 72
    12
 73
     8
 74
     0
 42
0.0000000001
 43
0.0000000001
 40
0.0
 40
0.0
 40
0.0
 40
0.0
 40
0.3333333333333333
 40
0.3333333333333333
 40
0.3333333333333333
 40
0.3333333333333333
 40
1.0
 40
1.0
 40
1.0
 40
1.0
 10
3.50587
 20
6.06975
 30
0.0
 10
3.50587
 20
6.06975
 30
0.0
 10
3.50587
 20
5.96815
 30
0.0
 10
3.50587
 20
5.96815
 30
0.0
 10
3.50587
 20
5.96815
 30
0.0
 10
3.50587
 20
5.96815
 30
0.0
 10
3.17567
 20
6.01895
 30
0.0
 10
3.17567
 20
6.01895
 30
0.0
  0
SPLINE
  5
F4
330
1F
100
AcDbEntity
  8
0
100
AcDbSpline
210
0.0
220
0.0
230
1.0
 70
    27
 71
     3
 72
    12
 73
     8
 74
     0
 42
0.0000000001
 43
0.0000000001
 40
0.0
 40
0.0
 40
0.0
 40
0.0
 40
0.3333333333333333
 40
0.3333333333333333
 40
0.3333333333333333
 40
0.3333333333333333
 40
1.0
 40
1.0
 40
1.0
 40
1.0
 10
7.73102
 20
6.01895
 30
0.0
 10
7.73102
 20
6.01895
 30
0.0
 10
7.40082
 20
5.96815
 30
0.0
 10
7.40082
 20
5.96815
 30
0.0
 10
7.40082
 20
5.96815
 30
0.0
 10
7.40082
 20
5.96815
 30
0.0
 10
7.73102
 20
6.01895
 30
0.0
 10
7.73102
 20
6.01895
 30
0.0
  0
SPLINE
  5
F5
330
1F
100
AcDbEntity
  8
0
100
AcDbSpline
210
0.0
220
0.0
230
1.0
 70
     8
 71
     3
 72
    12
 73
     8
 74
     0
 42
0.0000000001
 43
0.0000000001
 40
0.0
 40
0.0
 40
0.0
 40
0.0
 40
0.3333333333333333
 40
0.3333333333333333
 40
0.3333333333333333
 40
0.3333333333333333
 40
1.0
 40
1.0
 40
1.0
 40
1.0
 10
7.40082
 20
5.96815
 30
0.0
 10
7.40082
 20
5.96815
 30
0.0
 10
7.40082
 20
6.06975
 30
0.0
 10
7.40082
 20
6.06975
 30
0.0
 10
7.40082
 20
6.06975
 30
0.0
 10
7.40082
 20
6.06975
 30
0.0
 10
7.73102
 20
6.01895
 30
0.0
 10
7.73102
 20
6.01895
 30
0.0
  0
SPLINE
  5
F6
330
1F
100
AcDbEntity
  8
0
370
     9
100
AcDbSpline
210
0.0
220
0.0
230
1.0
 70
    24
 71
     3
 72
     8
 73
     4
 74
     0
 42
0.0000000001
 43
0.0000000001
 40
0.0
 40
0.0
 40
0.0
 40
0.0
 40
1.0
 40
1.0
 40
1.0
 40
1.0
 10
7.73102
 20
6.01895
 30
0.0
 10
7.73102
 20
6.01895
 30
0.0
 10
7.40082
 20
5.96815
 30
0.0
 10
7.40082
 20
5.96815
 30
0.0
  0
SPLINE
  5
F7
330
1F
100
AcDbEntity
  8
0
370
     9
100
AcDbSpline
210
0.0
220
0.0
230
1.0
 70
     8
 71
     3
 72
    12
 73
     8
 74
     0
 42
0.0000000001
 43
0.0000000001
 40
0.0
 40
0.0
 40
0.0
 40
0.0
 40
0.3333333333333333
 40
0.3333333333333333
 40
0.3333333333333333
 40
0.3333333333333333
 40
1.0
 40
1.0
 40
1.0
 40
1.0
 10
7.40082
 20
5.96815
 30
0.0
 10
7.40082
 20
5.96815
 30
0.0
 10
7.40082
 20
6.06975
 30
0.0
 10
7.40082
 20
6.06975
 30
0.0
 10
7.40082
 20
6.06975
 30
0.0
 10
7.40082
 20
6.06975
 30
0.0
 10
7.73102
 20
6.01895
 30
0.0
 10
7.73102
 20
6.01895
 30
0.0
  0
SPLINE
  5
F8
330
1F
100
AcDbEntity
  8
0
370
     9
100
AcDbSpline
210
0.0
220
0.0
230
1.0
 70
    24
 71
     3
 72
     8
 73
     4
 74
     0
 42
0.0000000001
 43
0.0000000001
 40
0.0
 40
0.0
 40
0.0
 40
0.0
 40
1.0
 40
1.0
 40
1.0
 40
1.0
 10
3.17567
 20
6.91895
 30
0.0
 10
3.17567
 20
6.91895
 30
0.0
 10
3.17567
 20
5.91895
 30
0.0
 10
3.17567
 20
5.91895
 30
0.0
  0
SPLINE
  5
F9
330
1F
100
AcDbEntity
  8
0
370
     9
100
AcDbSpline
210
0.0
220
0.0
230
1.0
 70
    24
 71
     3
 72
     8
 73
     4
 74
     0
 42
0.0000000001
 43
0.0000000001
 40
0.0
 40
0.0
 40
0.0
 40
0.0
 40
1.0
 40
1.0
 40
1.0
 40
1.0
 10
7.73102
 20
12.11939
 30
0.0
 10
7.73102
 20
12.11939
 30
0.0
 10
7.73102
 20
5.91895
 30
0.0
 10
7.73102
 20
5.91895
 30
0.0
  0
SPLINE
  5
FA
330
1F
100
AcDbEntity
  8
0
370
     9
100
AcDbSpline
210
0.0
220
0.0
230
1.0
 70
    24
 71
     3
 72
     8
 73
     4
 74
     0
 42
0.0000000001
 43
0.0000000001
 40
0.0
 40
0.0
 40
0.0
 40
0.0
 40
1.0
 40
1.0
 40
1.0
 40
1.0
 10
3.17567
 20
6.01895
 30
0.0
 10
3.17567
 20
6.01895
 30
0.0
 10
7.73102
 20
6.01895
 30
0.0
 10
7.73102
 20
6.01895
 30
0.0
  0
SPLINE
  5
FB
330
1F
100
AcDbEntity
  8
0
100
AcDbSpline
210
0.0
220
0.0
230
1.0
 70
    27
 71
     3
 72
    12
 73
     8
 74
     0
 42
0.0000000001
 43
0.0000000001
 40
0.0
 40
0.0
 40
0.0
 40
0.0
 40
0.3333333333333333
 40
0.3333333333333333
 40
0.3333333333333333
 40
0.3333333333333333
 40
1.0
 40
1.0
 40
1.0
 40
1.0
 10
2.17067
 20
12.26904
 30
0.0
 10
2.17067
 20
12.26904
 30
0.0
 10
2.22147
 20
11.93884
 30
0.0
 10
2.22147
 20
11.93884
 30
0.0
 10
2.22147
 20
11.93884
 30
0.0
 10
2.22147
 20
11.93884
 30
0.0
 10
2.17067
 20
12.26904
 30
0.0
 10
2.17067
 20
12.26904
 30
0.0
  0
SPLINE
  5
FC
330
1F
100
AcDbEntity
  8
0
100
AcDbSpline
210
0.0
220
0.0
230
1.0
 70
     8
 71
     3
 72
    12
 73
     8
 74
     0
 42
0.0000000001
 43
0.0000000001
 40
0.0
 40
0.0
 40
0.0
 40
0.0
 40
0.3333333333333333
 40
0.3333333333333333
 40
0.3333333333333333
 40
0.3333333333333333
 40
1.0
 40
1.0
 40
1.0
 40
1.0
 10
2.22147
 20
11.93884
 30
0.0
 10
2.22147
 20
11.93884
 30
0.0
 10
2.11987
 20
11.93884
 30
0.0
 10
2.11987
 20
11.93884
 30
0.0
 10
2.11987
 20
11.93884
 30
0.0
 10
2.11987
 20
11.93884
 30
0.0
 10
2.17067
 20
12.26904
 30
0.0
 10
2.17067
 20
12.26904
 30
0.0
  0
SPLINE
  5
FD
330
1F
100
AcDbEntity
  8
0
370
     9
100
AcDbSpline
210
0.0
220
0.0
230
1.0
 70
    24
 71
     3
 72
     8
 73
     4
 74
     0
 42
0.0000000001
 43
0.0000000001
 40
0.0
 40
0.0
 40
0.0
 40
0.0
 40
1.0
 40
1.0
 40
1.0
 40
1.0
 10
2.17067
 20
12.26904
 30
0.0
 10
2.17067
 20
12.26904
 30
0.0
 10
2.22147
 20
11.93884
 30
0.0
 10
2.22147
 20
11.93884
 30
0.0
  0
SPLINE
  5
FE
330
1F
100
AcDbEntity
  8
0
370
     9
100
AcDbSpline
210
0.0
220
0.0
230
1.0
 70
     8
 71
     3
 72
    12
 73
     8
 74
     0
 42
0.0000000001
 43
0.0000000001
 40
0.0
 40
0.0
 40
0.0
 40
0.0
 40
0.3333333333333333
 40
0.3333333333333333
 40
0.3333333333333333
 40
0.3333333333333333
 40
1.0
 40
1.0
 40
1.0
 40
1.0
 10
2.22147
 20
11.93884
 30
0.0
 10
2.22147
 20
11.93884
 30
0.0
 10
2.11987
 20
11.93884
 30
0.0
 10
2.11987
 20
11.93884
 30
0.0
 10
2.11987
 20
11.93884
 30
0.0
 10
2.11987
 20
11.93884
 30
0.0
 10
2.17067
 20
12.26904
 30
0.0
 10
2.17067
 20
12.26904
 30
0.0
  0
SPLINE
  5
FF
330
1F
100
AcDbEntity
  8
0
100
AcDbSpline
210
0.0
220
0.0
230
1.0
 70
    27
 71
     3
 72
    12
 73
     8
 74
     0
 42
0.0000000001
 43
0.0000000001
 40
0.0
 40
0.0
 40
0.0
 40
0.0
 40
0.3333333333333333
 40
0.3333333333333333
 40
0.3333333333333333
 40
0.3333333333333333
 40
1.0
 40
1.0
 40
1.0
 40
1.0
 10
2.17067
 20
7.01904
 30
0.0
 10
2.17067
 20
7.01904
 30
0.0
 10
2.11987
 20
7.34924
 30
0.0
 10
2.11987
 20
7.34924
 30
0.0
 10
2.11987
 20
7.34924
 30
0.0
 10
2.11987
 20
7.34924
 30
0.0
 10
2.17067
 20
7.01904
 30
0.0
 10
2.17067
 20
7.01904
 30
0.0
  0
SPLINE
  5
100
330
1F
100
AcDbEntity
  8
0
100
AcDbSpline
210
0.0
220
0.0
230
1.0
 70
     8
 71
     3
 72
    12
 73
     8
 74
     0
 42
0.0000000001
 43
0.0000000001
 40
0.0
 40
0.0
 40
0.0
 40
0.0
 40
0.3333333333333333
 40
0.3333333333333333
 40
0.3333333333333333
 40
0.3333333333333333
 40
1.0
 40
1.0
 40
1.0
 40
1.0
 10
2.11987
 20
7.34924
 30
0.0
 10
2.11987
 20
7.34924
 30
0.0
 10
2.22147
 20
7.34924
 30
0.0
 10
2.22147
 20
7.34924
 30
0.0
 10
2.22147
 20
7.34924
 30
0.0
 10
2.22147
 20
7.34924
 30
0.0
 10
2.17067
 20
7.01904
 30
0.0
 10
2.17067
 20
7.01904
 30
0.0
  0
SPLINE
  5
101
330
1F
100
AcDbEntity
  8
0
370
     9
100
AcDbSpline
210
0.0
220
0.0
230
1.0
 70
    24
 71
     3
 72
     8
 73
     4
 74
     0
 42
0.0000000001
 43
0.0000000001
 40
0.0
 40
0.0
 40
0.0
 40
0.0
 40
1.0
 40
1.0
 40
1.0
 40
1.0
 10
2.17067
 20
7.01904
 30
0.0
 10
2.17067
 20
7.01904
 30
0.0
 10
2.11987
 20
7.34924
 30
0.0
 10
2.11987
 20
7.34924
 30
0.0
  0
SPLINE
  5
102
330
1F
100
AcDbEntity
  8
0
370
     9
100
AcDbSpline
210
0.0
220
0.0
230
1.0
 70
     8
 71
     3
 72
    12
 73
     8
 74
     0
 42
0.0000000001
 43
0.0000000001
 40
0.0
 40
0.0
 40
0.0
 40
0.0
 40
0.3333333333333333
 40
0.3333333333333333
 40
0.3333333333333333
 40
0.3333333333333333
 40
1.0
 40
1.0
 40
1.0
 40
1.0
 10
2.11987
 20
7.34924
 30
0.0
 10
2.11987
 20
7.34924
 30
0.0
 10
2.22147
 20
7.34924
 30
0.0
 10
2.22147
 20
7.34924
 30
0.0
 10
2.22147
 20
7.34924
 30
0.0
 10
2.22147
 20
7.34924
 30
0.0
 10
2.17067
 20
7.01904
 30
0.0
 10
2.17067
 20
7.01904
 30
0.0
  0
SPLINE
  5
103
330
1F
100
AcDbEntity
  8
0
370
     9
100
AcDbSpline
210
0.0
220
0.0
230
1.0
 70
    24
 71
     3
 72
     8
 73
     4
 74
     0
 42
0.0000000001
 43
0.0000000001
 40
0.0
 40
0.0
 40
0.0
 40
0.0
 40
1.0
 40
1.0
 40
1.0
 40
1.0
 10
3.98032
 20
12.26904
 30
0.0
 10
3.98032
 20
12.26904
 30
0.0
 10
2.07067
 20
12.26904
 30
0.0
 10
2.07067
 20
12.26904
 30
0.0
  0
SPLINE
  5
104
330
1F
100
AcDbEntity
  8
0
370
     9
100
AcDbSpline
210
0.0
220
0.0
230
1.0
 70
    24
 71
     3
 72
     8
 73
     4
 74
     0
 42
0.0000000001
 43
0.0000000001
 40
0.0
 40
0.0
 40
0.0
 40
0.0
 40
1.0
 40
1.0
 40
1.0
 40
1.0
 10
3.08067
 20
7.01904
 30
0.0
 10
3.08067
 20
7.01904
 30
0.0
 10
2.07067
 20
7.01904
 30
0.0
 10
2.07067
 20
7.01904
 30
0.0
  0
SPLINE
  5
105
330
1F
100
AcDbEntity
  8
0
370
     9
100
AcDbSpline
210
0.0
220
0.0
230
1.0
 70
    24
 71
     3
 72
     8
 73
     4
 74
     0
 42
0.0000000001
 43
0.0000000001
 40
0.0
 40
0.0
 40
0.0
 40
0.0
 40
1.0
 40
1.0
 40
1.0
 40
1.0
 10
2.17067
 20
12.26904
 30
0.0
 10
2.17067
 20
12.26904
 30
0.0
 10
2.17067
 20
7.01904
 30
0.0
 10
2.17067
 20
7.01904
 30
0.0
  0
SPLINE
  5
106
330
1F
100
AcDbEntity
  8
0
100
AcDbSpline
210
0.0
220
0.0
230
1.0
 70
    11
 71
     3
 72
    40
 73
    36
 74
     0
 42
0.0000000001
 43
0.0000000001
 40
0.0
 40
0.0
 40
0.0
 40
0.0
 40
0.1
 40
0.1
 40
0.1
 40
0.1
 40
0.2
 40
0.2
 40
0.2
 40
0.2
 40
0.3
 40
0.3
 40
0.3
 40
0.3
 40
0.4
 40
0.4
 40
0.4
 40
0.4
 40
0.5
 40
0.5
 40
0.5
 40
0.5
 40
0.6
 40
0.6
 40
0.6
 40
0.6
 40
0.7
 40
0.7
 40
0.7
 40
0.7
 40
0.8
 40
0.8
 40
0.8
 40
0.8
 40
1.0
 40
1.0
 40
1.0
 40
1.0
 10
2.03637
 20
8.75956
 30
0.0
 10
2.03637
 20
8.75956
 30
0.0
 10
2.03637
 20
8.72882
 30
0.0
 10
2.03637
 20
8.72882
 30
0.0
 10
2.03637
 20
8.72882
 30
0.0
 10
2.03637
 20
8.72882
 30
0.0
 10
1.84037
 20
8.72882
 30
0.0
 10
1.84037
 20
8.72882
 30
0.0
 10
1.84037
 20
8.72882
 30
0.0
 10
1.84743
 20
8.72141
 30
0.0
 10
1.85449
 20
8.71173
 30
0.0
 10
1.86155
 20
8.69971
 30
0.0
 10
1.86155
 20
8.69971
 30
0.0
 10
1.8686
 20
8.68764
 30
0.0
 10
1.87391
 20
8.67685
 30
0.0
 10
1.87741
 20
8.66728
 30
0.0
 10
1.87741
 20
8.66728
 30
0.0
 10
1.87741
 20
8.66728
 30
0.0
 10
1.84772
 20
8.66728
 30
0.0
 10
1.84772
 20
8.66728
 30
0.0
 10
1.84772
 20
8.66728
 30
0.0
 10
1.83961
 20
8.68449
 30
0.0
 10
1.82981
 20
8.69954
 30
0.0
 10
1.81832
 20
8.71243
 30
0.0
 10
1.81832
 20
8.71243
 30
0.0
 10
1.80677
 20
8.72526
 30
0.0
 10
1.79563
 20
8.73442
 30
0.0
 10
1.78484
 20
8.73979
 30
0.0
 10
1.78484
 20
8.73979
 30
0.0
 10
1.78484
 20
8.73979
 30
0.0
 10
1.78484
 20
8.75956
 30
0.0
 10
1.78484
 20
8.75956
 30
0.0
 10
1.78484
 20
8.75956
 30
0.0
 10
1.78484
 20
8.75956
 30
0.0
 10
2.03637
 20
8.75956
 30
0.0
 10
2.03637
 20
8.75956
 30
0.0
  0
SPLINE
  5
107
330
1F
100
AcDbEntity
  8
0
100
AcDbSpline
210
0.0
220
0.0
230
1.0
 70
    11
 71
     3
 72
    52
 73
    48
 74
     0
 42
0.0000000001
 43
0.0000000001
 40
0.0
 40
0.0
 40
0.0
 40
0.0
 40
0.0769230769230769
 40
0.0769230769230769
 40
0.0769230769230769
 40
0.0769230769230769
 40
0.1538461538461539
 40
0.1538461538461539
 40
0.1538461538461539
 40
0.1538461538461539
 40
0.2307692307692308
 40
0.2307692307692308
 40
0.2307692307692308
 40
0.2307692307692308
 40
0.3076923076923077
 40
0.3076923076923077
 40
0.3076923076923077
 40
0.3076923076923077
 40
0.3846153846153846
 40
0.3846153846153846
 40
0.3846153846153846
 40
0.3846153846153846
 40
0.4615384615384616
 40
0.4615384615384616
 40
0.4615384615384616
 40
0.4615384615384616
 40
0.5384615384615384
 40
0.5384615384615384
 40
0.5384615384615384
 40
0.5384615384615384
 40
0.6153846153846154
 40
0.6153846153846154
 40
0.6153846153846154
 40
0.6153846153846154
 40
0.6923076923076923
 40
0.6923076923076923
 40
0.6923076923076923
 40
0.6923076923076923
 40
0.7692307692307693
 40
0.7692307692307693
 40
0.7692307692307693
 40
0.7692307692307693
 40
0.8461538461538461
 40
0.8461538461538461
 40
0.8461538461538461
 40
0.8461538461538461
 40
1.0
 40
1.0
 40
1.0
 40
1.0
 10
1.91282
 20
8.83837
 30
0.0
 10
1.88319
 20
8.83837
 30
0.0
 10
1.85933
 20
8.84141
 30
0.0
 10
1.8413
 20
8.84753
 30
0.0
 10
1.8413
 20
8.84753
 30
0.0
 10
1.82322
 20
8.8536
 30
0.0
 10
1.80928
 20
8.8627
 30
0.0
 10
1.79948
 20
8.87472
 30
0.0
 10
1.79948
 20
8.87472
 30
0.0
 10
1.78968
 20
8.88673
 30
0.0
 10
1.78484
 20
8.90184
 30
0.0
 10
1.78484
 20
8.92004
 30
0.0
 10
1.78484
 20
8.92004
 30
0.0
 10
1.78484
 20
8.93352
 30
0.0
 10
1.78752
 20
8.9453
 30
0.0
 10
1.79295
 20
8.95545
 30
0.0
 10
1.79295
 20
8.95545
 30
0.0
 10
1.79831
 20
8.9656
 30
0.0
 10
1.80613
 20
8.97394
 30
0.0
 10
1.81634
 20
8.98059
 30
0.0
 10
1.81634
 20
8.98059
 30
0.0
 10
1.82655
 20
8.98718
 30
0.0
 10
1.83897
 20
8.99237
 30
0.0
 10
1.85361
 20
8.99611
 30
0.0
 10
1.85361
 20
8.99611
 30
0.0
 10
1.86825
 20
8.9999
 30
0.0
 10
1.88797
 20
9.00177
 30
0.0
 10
1.91282
 20
9.00177
 30
0.0
 10
1.91282
 20
9.00177
 30
0.0
 10
1.94222
 20
9.00177
 30
0.0
 10
1.9659
 20
8.99873
 30
0.0
 10
1.98399
 20
8.99272
 30
0.0
 10
1.98399
 20
8.99272
 30
0.0
 10
2.00207
 20
8.98666
 30
0.0
 10
2.01601
 20
8.97762
 30
0.0
 10
2.02587
 20
8.9656
 30
0.0
 10
2.02587
 20
8.9656
 30
0.0
 10
2.03573
 20
8.95358
 30
0.0
 10
2.04063
 20
8.93842
 30
0.0
 10
2.04063
 20
8.92004
 30
0.0
 10
2.04063
 20
8.92004
 30
0.0
 10
2.04063
 20
8.89589
 30
0.0
 10
2.032
 20
8.87693
 30
0.0
 10
2.01467
 20
8.86317
 30
0.0
 10
2.01467
 20
8.86317
 30
0.0
 10
1.99385
 20
8.84666
 30
0.0
 10
1.95984
 20
8.83837
 30
0.0
 10
1.91282
 20
8.83837
 30
0.0
  0
SPLINE
  5
108
330
1F
100
AcDbEntity
  8
0
100
AcDbSpline
210
0.0
220
0.0
230
1.0
 70
    11
 71
     3
 72
    36
 73
    32
 74
     0
 42
0.0000000001
 43
0.0000000001
 40
0.0
 40
0.0
 40
0.0
 40
0.0
 40
0.1111111111111111
 40
0.1111111111111111
 40
0.1111111111111111
 40
0.1111111111111111
 40
0.2222222222222222
 40
0.2222222222222222
 40
0.2222222222222222
 40
0.2222222222222222
 40
0.3333333333333333
 40
0.3333333333333333
 40
0.3333333333333333
 40
0.3333333333333333
 40
0.4444444444444444
 40
0.4444444444444444
 40
0.4444444444444444
 40
0.4444444444444444
 40
0.5555555555555556
 40
0.5555555555555556
 40
0.5555555555555556
 40
0.5555555555555556
 40
0.6666666666666666
 40
0.6666666666666666
 40
0.6666666666666666
 40
0.6666666666666666
 40
0.7777777777777778
 40
0.7777777777777778
 40
0.7777777777777778
 40
0.7777777777777778
 40
1.0
 40
1.0
 40
1.0
 40
1.0
 10
1.91282
 20
8.86999
 30
0.0
 10
1.95395
 20
8.86999
 30
0.0
 10
1.9813
 20
8.87483
 30
0.0
 10
1.99495
 20
8.88446
 30
0.0
 10
1.99495
 20
8.88446
 30
0.0
 10
2.00855
 20
8.89408
 30
0.0
 10
2.01537
 20
8.90592
 30
0.0
 10
2.01537
 20
8.92004
 30
0.0
 10
2.01537
 20
8.92004
 30
0.0
 10
2.01537
 20
8.93422
 30
0.0
 10
2.00849
 20
8.94606
 30
0.0
 10
1.99484
 20
8.95568
 30
0.0
 10
1.99484
 20
8.95568
 30
0.0
 10
1.98119
 20
8.96531
 30
0.0
 10
1.95383
 20
8.97015
 30
0.0
 10
1.91282
 20
8.97015
 30
0.0
 10
1.91282
 20
8.97015
 30
0.0
 10
1.87158
 20
8.97015
 30
0.0
 10
1.84416
 20
8.96531
 30
0.0
 10
1.83063
 20
8.95568
 30
0.0
 10
1.83063
 20
8.95568
 30
0.0
 10
1.81704
 20
8.94606
 30
0.0
 10
1.81027
 20
8.9341
 30
0.0
 10
1.81027
 20
8.91975
 30
0.0
 10
1.81027
 20
8.91975
 30
0.0
 10
1.81027
 20
8.90557
 30
0.0
 10
1.81628
 20
8.89432
 30
0.0
 10
1.82824
 20
8.88586
 30
0.0
 10
1.82824
 20
8.88586
 30
0.0
 10
1.84346
 20
8.8753
 30
0.0
 10
1.8717
 20
8.86999
 30
0.0
 10
1.91282
 20
8.86999
 30
0.0
  0
SPLINE
  5
109
330
1F
100
AcDbEntity
  8
0
100
AcDbSpline
210
0.0
220
0.0
230
1.0
 70
    11
 71
     3
 72
    92
 73
    88
 74
     0
 42
0.0000000001
 43
0.0000000001
 40
0.0
 40
0.0
 40
0.0
 40
0.0
 40
0.0434782608695652
 40
0.0434782608695652
 40
0.0434782608695652
 40
0.0434782608695652
 40
0.0869565217391304
 40
0.0869565217391304
 40
0.0869565217391304
 40
0.0869565217391304
 40
0.1304347826086956
 40
0.1304347826086956
 40
0.1304347826086956
 40
0.1304347826086956
 40
0.1739130434782609
 40
0.1739130434782609
 40
0.1739130434782609
 40
0.1739130434782609
 40
0.2173913043478261
 40
0.2173913043478261
 40
0.2173913043478261
 40
0.2173913043478261
 40
0.2608695652173913
 40
0.2608695652173913
 40
0.2608695652173913
 40
0.2608695652173913
 40
0.3043478260869565
 40
0.3043478260869565
 40
0.3043478260869565
 40
0.3043478260869565
 40
0.3478260869565217
 40
0.3478260869565217
 40
0.3478260869565217
 40
0.3478260869565217
 40
0.391304347826087
 40
0.391304347826087
 40
0.391304347826087
 40
0.391304347826087
 40
0.4347826086956522
 40
0.4347826086956522
 40
0.4347826086956522
 40
0.4347826086956522
 40
0.4782608695652174
 40
0.4782608695652174
 40
0.4782608695652174
 40
0.4782608695652174
 40
0.5217391304347826
 40
0.5217391304347826
 40
0.5217391304347826
 40
0.5217391304347826
 40
0.5652173913043478
 40
0.5652173913043478
 40
0.5652173913043478
 40
0.5652173913043478
 40
0.6086956521739131
 40
0.6086956521739131
 40
0.6086956521739131
 40
0.6086956521739131
 40
0.6521739130434783
 40
0.6521739130434783
 40
0.6521739130434783
 40
0.6521739130434783
 40
0.6956521739130435
 40
0.6956521739130435
 40
0.6956521739130435
 40
0.6956521739130435
 40
0.7391304347826086
 40
0.7391304347826086
 40
0.7391304347826086
 40
0.7391304347826086
 40
0.782608695652174
 40
0.782608695652174
 40
0.782608695652174
 40
0.782608695652174
 40
0.8260869565217391
 40
0.8260869565217391
 40
0.8260869565217391
 40
0.8260869565217391
 40
0.8695652173913043
 40
0.8695652173913043
 40
0.8695652173913043
 40
0.8695652173913043
 40
0.9130434782608695
 40
0.9130434782608695
 40
0.9130434782608695
 40
0.9130434782608695
 40
1.0
 40
1.0
 40
1.0
 40
1.0
 10
1.97075
 20
9.03303
 30
0.0
 10
1.97075
 20
9.03303
 30
0.0
 10
1.968
 20
9.06535
 30
0.0
 10
1.968
 20
9.06535
 30
0.0
 10
1.968
 20
9.06535
 30
0.0
 10
1.98375
 20
9.06774
 30
0.0
 10
1.99554
 20
9.07328
 30
0.0
 10
2.00347
 20
9.08198
 30
0.0
 10
2.00347
 20
9.08198
 30
0.0
 10
2.0114
 20
9.09073
 30
0.0
 10
2.01537
 20
9.10123
 30
0.0
 10
2.01537
 20
9.11353
 30
0.0
 10
2.01537
 20
9.11353
 30
0.0
 10
2.01537
 20
9.12835
 30
0.0
 10
2.00977
 20
9.14089
 30
0.0
 10
1.99863
 20
9.1511
 30
0.0
 10
1.99863
 20
9.1511
 30
0.0
 10
1.98743
 20
9.16137
 30
0.0
 10
1.97261
 20
9.1665
 30
0.0
 10
1.95418
 20
9.1665
 30
0.0
 10
1.95418
 20
9.1665
 30
0.0
 10
1.93662
 20
9.1665
 30
0.0
 10
1.9228
 20
9.1616
 30
0.0
 10
1.91265
 20
9.15174
 30
0.0
 10
1.91265
 20
9.15174
 30
0.0
 10
1.9025
 20
9.14188
 30
0.0
 10
1.89742
 20
9.12899
 30
0.0
 10
1.89742
 20
9.11301
 30
0.0
 10
1.89742
 20
9.11301
 30
0.0
 10
1.89742
 20
9.10309
 30
0.0
 10
1.8997
 20
9.09417
 30
0.0
 10
1.90419
 20
9.08618
 30
0.0
 10
1.90419
 20
9.08618
 30
0.0
 10
1.90868
 20
9.07818
 30
0.0
 10
1.91451
 20
9.07194
 30
0.0
 10
1.92169
 20
9.06739
 30
0.0
 10
1.92169
 20
9.06739
 30
0.0
 10
1.92169
 20
9.06739
 30
0.0
 10
1.91795
 20
9.03852
 30
0.0
 10
1.91795
 20
9.03852
 30
0.0
 10
1.91795
 20
9.03852
 30
0.0
 10
1.91795
 20
9.03852
 30
0.0
 10
1.78927
 20
9.06278
 30
0.0
 10
1.78927
 20
9.06278
 30
0.0
 10
1.78927
 20
9.06278
 30
0.0
 10
1.78927
 20
9.06278
 30
0.0
 10
1.78927
 20
9.18738
 30
0.0
 10
1.78927
 20
9.18738
 30
0.0
 10
1.78927
 20
9.18738
 30
0.0
 10
1.78927
 20
9.18738
 30
0.0
 10
1.81867
 20
9.18738
 30
0.0
 10
1.81867
 20
9.18738
 30
0.0
 10
1.81867
 20
9.18738
 30
0.0
 10
1.81867
 20
9.18738
 30
0.0
 10
1.81867
 20
9.0874
 30
0.0
 10
1.81867
 20
9.0874
 30
0.0
 10
1.81867
 20
9.0874
 30
0.0
 10
1.81867
 20
9.0874
 30
0.0
 10
1.88599
 20
9.07387
 30
0.0
 10
1.88599
 20
9.07387
 30
0.0
 10
1.88599
 20
9.07387
 30
0.0
 10
1.87549
 20
9.08892
 30
0.0
 10
1.87024
 20
9.10473
 30
0.0
 10
1.87024
 20
9.12123
 30
0.0
 10
1.87024
 20
9.12123
 30
0.0
 10
1.87024
 20
9.14311
 30
0.0
 10
1.87782
 20
9.16154
 30
0.0
 10
1.89299
 20
9.17659
 30
0.0
 10
1.89299
 20
9.17659
 30
0.0
 10
1.90815
 20
9.19164
 30
0.0
 10
1.92764
 20
9.19917
 30
0.0
 10
1.95144
 20
9.19917
 30
0.0
 10
1.95144
 20
9.19917
 30
0.0
 10
1.97413
 20
9.19917
 30
0.0
 10
1.99373
 20
9.19252
 30
0.0
 10
2.01024
 20
9.17933
 30
0.0
 10
2.01024
 20
9.17933
 30
0.0
 10
2.03048
 20
9.16323
 30
0.0
 10
2.04063
 20
9.1413
 30
0.0
 10
2.04063
 20
9.11353
 30
0.0
 10
2.04063
 20
9.11353
 30
0.0
 10
2.04063
 20
9.09073
 30
0.0
 10
2.03427
 20
9.07212
 30
0.0
 10
2.0215
 20
9.05771
 30
0.0
 10
2.0215
 20
9.05771
 30
0.0
 10
2.00872
 20
9.0433
 30
0.0
 10
1.9918
 20
9.03508
 30
0.0
 10
1.97075
 20
9.03303
 30
0.0
  0
SPLINE
  5
10A
330
1F
100
AcDbEntity
  8
0
370
    15
100
AcDbSpline
210
0.0
220
0.0
230
1.0
 70
     8
 71
     3
 72
    20
 73
    16
 74
     0
 42
0.0000000001
 43
0.0000000001
 40
0.0
 40
0.0
 40
0.0
 40
0.0
 40
0.2
 40
0.2
 40
0.2
 40
0.2
 40
0.4
 40
0.4
 40
0.4
 40
0.4
 40
0.6
 40
0.6
 40
0.6
 40
0.6
 40
1.0
 40
1.0
 40
1.0
 40
1.0
 10
-4.0055
 20
-0.54868
 30
0.0
 10
-4.0055
 20
0.48131
 30
0.0
 10
-4.84046
 20
1.31628
 30
0.0
 10
-5.87045
 20
1.31628
 30
0.0
 10
-5.87045
 20
1.31628
 30
0.0
 10
-6.90043
 20
1.31628
 30
0.0
 10
-7.7354
 20
0.48131
 30
0.0
 10
-7.73541
 20
-0.54867
 30
0.0
 10
-7.73541
 20
-0.54867
 30
0.0
 10
-7.73541
 20
-1.57866
 30
0.0
 10
-6.90044
 20
-2.41363
 30
0.0
 10
-5.87046
 20
-2.41363
 30
0.0
 10
-5.87046
 20
-2.41363
 30
0.0
 10
-4.84047
 20
-2.41364
 30
0.0
 10
-4.0055
 20
-1.57867
 30
0.0
 10
-4.0055
 20
-0.54869
 30
0.0
  0
SPLINE
  5
10B
330
1F
100
AcDbEntity
  8
0
370
    15
100
AcDbSpline
210
0.0
220
0.0
230
1.0
 70
     8
 71
     3
 72
    20
 73
    16
 74
     0
 42
0.0000000001
 43
0.0000000001
 40
0.0
 40
0.0
 40
0.0
 40
0.0
 40
0.2
 40
0.2
 40
0.2
 40
0.2
 40
0.4
 40
0.4
 40
0.4
 40
0.4
 40
0.6
 40
0.6
 40
0.6
 40
0.6
 40
1.0
 40
1.0
 40
1.0
 40
1.0
 10
-0.0055
 20
-0.54868
 30
0.0
 10
-0.0055
 20
0.48131
 30
0.0
 10
-0.84046
 20
1.31628
 30
0.0
 10
-1.87045
 20
1.31628
 30
0.0
 10
-1.87045
 20
1.31628
 30
0.0
 10
-2.90043
 20
1.31628
 30
0.0
 10
-3.7354
 20
0.48131
 30
0.0
 10
-3.73541
 20
-0.54867
 30
0.0
 10
-3.73541
 20
-0.54867
 30
0.0
 10
-3.73541
 20
-1.57866
 30
0.0
 10
-2.90044
 20
-2.41363
 30
0.0
 10
-1.87046
 20
-2.41363
 30
0.0
 10
-1.87046
 20
-2.41363
 30
0.0
 10
-0.84047
 20
-2.41364
 30
0.0
 10
-0.0055
 20
-1.57867
 30
0.0
 10
-0.0055
 20
-0.54869
 30
0.0
  0
SPLINE
  5
10C
330
1F
100
AcDbEntity
  8
0
370
    15
100
AcDbSpline
210
0.0
220
0.0
230
1.0
 70
    24
 71
     3
 72
     8
 73
     4
 74
     0
 42
0.0000000001
 43
0.0000000001
 40
0.0
 40
0.0
 40
0.0
 40
0.0
 40
1.0
 40
1.0
 40
1.0
 40
1.0
 10
-5.55477
 20
1.85132
 30
0.0
 10
-5.55477
 20
1.85132
 30
0.0
 10
-5.55477
 20
1.50132
 30
0.0
 10
-5.55477
 20
1.50132
 30
0.0
  0
SPLINE
  5
10D
330
1F
100
AcDbEntity
  8
0
370
    15
100
AcDbSpline
210
0.0
220
0.0
230
1.0
 70
    24
 71
     3
 72
     8
 73
     4
 74
     0
 42
0.0000000001
 43
0.0000000001
 40
0.0
 40
0.0
 40
0.0
 40
0.0
 40
1.0
 40
1.0
 40
1.0
 40
1.0
 10
-2.18614
 20
1.50132
 30
0.0
 10
-2.18614
 20
1.50132
 30
0.0
 10
-2.18614
 20
1.85132
 30
0.0
 10
-2.18614
 20
1.85132
 30
0.0
  0
SPLINE
  5
10E
330
1F
100
AcDbEntity
  8
0
370
    15
100
AcDbSpline
210
0.0
220
0.0
230
1.0
 70
    24
 71
     3
 72
     8
 73
     4
 74
     0
 42
0.0000000001
 43
0.0000000001
 40
0.0
 40
0.0
 40
0.0
 40
0.0
 40
1.0
 40
1.0
 40
1.0
 40
1.0
 10
-5.55477
 20
1.50132
 30
0.0
 10
-5.55477
 20
1.50132
 30
0.0
 10
-5.55477
 20
1.40132
 30
0.0
 10
-5.55477
 20
1.40132
 30
0.0
  0
SPLINE
  5
10F
330
1F
100
AcDbEntity
  8
0
370
    15
100
AcDbSpline
210
0.0
220
0.0
230
1.0
 70
    24
 71
     3
 72
     8
 73
     4
 74
     0
 42
0.0000000001
 43
0.0000000001
 40
0.0
 40
0.0
 40
0.0
 40
0.0
 40
1.0
 40
1.0
 40
1.0
 40
1.0
 10
-2.18614
 20
1.40132
 30
0.0
 10
-2.18614
 20
1.40132
 30
0.0
 10
-2.18614
 20
1.50132
 30
0.0
 10
-2.18614
 20
1.50132
 30
0.0
  0
SPLINE
  5
110
330
1F
100
AcDbEntity
  8
0
370
    15
100
AcDbSpline
210
0.0
220
0.0
230
1.0
 70
     8
 71
     3
 72
    12
 73
     8
 74
     0
 42
0.0000000001
 43
0.0000000001
 40
0.0
 40
0.0
 40
0.0
 40
0.0
 40
0.3333333333333333
 40
0.3333333333333333
 40
0.3333333333333333
 40
0.3333333333333333
 40
1.0
 40
1.0
 40
1.0
 40
1.0
 10
-2.18614
 20
1.40132
 30
0.0
 10
-2.18614
 20
1.3839
 30
0.0
 10
-2.17922
 20
1.36719
 30
0.0
 10
-2.1669
 20
1.35487
 30
0.0
 10
-2.1669
 20
1.35487
 30
0.0
 10
-2.15458
 20
1.34256
 30
0.0
 10
-2.13787
 20
1.33564
 30
0.0
 10
-2.12045
 20
1.33564
 30
0.0
  0
SPLINE
  5
111
330
1F
100
AcDbEntity
  8
0
370
    15
100
AcDbSpline
210
0.0
220
0.0
230
1.0
 70
     8
 71
     3
 72
     8
 73
     4
 74
     0
 42
0.0000000001
 43
0.0000000001
 40
0.0
 40
0.0
 40
0.0
 40
0.0
 40
1.0
 40
1.0
 40
1.0
 40
1.0
 10
-5.62045
 20
1.33564
 30
0.0
 10
-5.58417
 20
1.33564
 30
0.0
 10
-5.55477
 20
1.36504
 30
0.0
 10
-5.55477
 20
1.40132
 30
0.0
  0
SPLINE
  5
112
330
1F
100
AcDbEntity
  8
0
370
    15
100
AcDbSpline
210
0.0
220
0.0
230
1.0
 70
    24
 71
     3
 72
     8
 73
     4
 74
     0
 42
0.0000000001
 43
0.0000000001
 40
0.0
 40
0.0
 40
0.0
 40
0.0
 40
1.0
 40
1.0
 40
1.0
 40
1.0
 10
-5.62045
 20
1.33564
 30
0.0
 10
-5.62045
 20
1.33564
 30
0.0
 10
-5.87045
 20
1.33564
 30
0.0
 10
-5.87045
 20
1.33564
 30
0.0
  0
SPLINE
  5
113
330
1F
100
AcDbEntity
  8
0
370
    15
100
AcDbSpline
210
0.0
220
0.0
230
1.0
 70
    24
 71
     3
 72
     8
 73
     4
 74
     0
 42
0.0000000001
 43
0.0000000001
 40
0.0
 40
0.0
 40
0.0
 40
0.0
 40
1.0
 40
1.0
 40
1.0
 40
1.0
 10
-1.87045
 20
1.33564
 30
0.0
 10
-1.87045
 20
1.33564
 30
0.0
 10
-2.12045
 20
1.33564
 30
0.0
 10
-2.12045
 20
1.33564
 30
0.0
  0
SPLINE
  5
114
330
1F
100
AcDbEntity
  8
0
370
    15
100
AcDbSpline
210
0.0
220
0.0
230
1.0
 70
     8
 71
     3
 72
     8
 73
     4
 74
     0
 42
0.0000000001
 43
0.0000000001
 40
0.0
 40
0.0
 40
0.0
 40
0.0
 40
1.0
 40
1.0
 40
1.0
 40
1.0
 10
-3.33654
 20
-1.73241
 30
0.0
 10
-2.97881
 20
-2.17547
 30
0.0
 10
-2.4399
 20
-2.43299
 30
0.0
 10
-1.87045
 20
-2.43299
 30
0.0
  0
SPLINE
  5
115
330
1F
100
AcDbEntity
  8
0
370
    15
100
AcDbSpline
210
0.0
220
0.0
230
1.0
 70
     8
 71
     3
 72
    12
 73
     8
 74
     0
 42
0.0000000001
 43
0.0000000001
 40
0.0
 40
0.0
 40
0.0
 40
0.0
 40
0.3333333333333333
 40
0.3333333333333333
 40
0.3333333333333333
 40
0.3333333333333333
 40
1.0
 40
1.0
 40
1.0
 40
1.0
 10
-1.87045
 20
-2.43299
 30
0.0
 10
-0.82977
 20
-2.43299
 30
0.0
 10
0.01386
 20
-1.58936
 30
0.0
 10
0.01386
 20
-0.54868
 30
0.0
 10
0.01386
 20
-0.54868
 30
0.0
 10
0.01387
 20
0.49199
 30
0.0
 10
-0.82976
 20
1.33563
 30
0.0
 10
-1.87044
 20
1.33564
 30
0.0
  0
SPLINE
  5
116
330
1F
100
AcDbEntity
  8
0
370
    15
100
AcDbSpline
210
0.0
220
0.0
230
1.0
 70
     8
 71
     3
 72
    16
 73
    12
 74
     0
 42
0.0000000001
 43
0.0000000001
 40
0.0
 40
0.0
 40
0.0
 40
0.0
 40
0.25
 40
0.25
 40
0.25
 40
0.25
 40
0.5
 40
0.5
 40
0.5
 40
0.5
 40
1.0
 40
1.0
 40
1.0
 40
1.0
 10
-5.87045
 20
1.33564
 30
0.0
 10
-6.54365
 20
1.33564
 30
0.0
 10
-7.16571
 20
0.97649
 30
0.0
 10
-7.50232
 20
0.39348
 30
0.0
 10
-7.50232
 20
0.39348
 30
0.0
 10
-7.83892
 20
-0.18953
 30
0.0
 10
-7.83892
 20
-0.90783
 30
0.0
 10
-7.50232
 20
-1.49084
 30
0.0
 10
-7.50232
 20
-1.49084
 30
0.0
 10
-7.16571
 20
-2.07384
 30
0.0
 10
-6.54365
 20
-2.43299
 30
0.0
 10
-5.87045
 20
-2.43299
 30
0.0
  0
SPLINE
  5
117
330
1F
100
AcDbEntity
  8
0
370
    15
100
AcDbSpline
210
0.0
220
0.0
230
1.0
 70
     8
 71
     3
 72
     8
 73
     4
 74
     0
 42
0.0000000001
 43
0.0000000001
 40
0.0
 40
0.0
 40
0.0
 40
0.0
 40
1.0
 40
1.0
 40
1.0
 40
1.0
 10
-5.87045
 20
-2.43299
 30
0.0
 10
-5.301
 20
-2.43299
 30
0.0
 10
-4.7621
 20
-2.17547
 30
0.0
 10
-4.40436
 20
-1.73241
 30
0.0
  0
SPLINE
  5
118
330
1F
100
AcDbEntity
  8
0
370
    15
100
AcDbSpline
210
0.0
220
0.0
230
1.0
 70
    24
 71
     3
 72
     8
 73
     4
 74
     0
 42
0.0000000001
 43
0.0000000001
 40
0.0
 40
0.0
 40
0.0
 40
0.0
 40
1.0
 40
1.0
 40
1.0
 40
1.0
 10
-4.35326
 20
-1.70799
 30
0.0
 10
-4.35326
 20
-1.70799
 30
0.0
 10
-3.38764
 20
-1.70799
 30
0.0
 10
-3.38764
 20
-1.70799
 30
0.0
  0
SPLINE
  5
119
330
1F
100
AcDbEntity
  8
0
370
    15
100
AcDbSpline
210
0.0
220
0.0
230
1.0
 70
     8
 71
     3
 72
     8
 73
     4
 74
     0
 42
0.0000000001
 43
0.0000000001
 40
0.0
 40
0.0
 40
0.0
 40
0.0
 40
1.0
 40
1.0
 40
1.0
 40
1.0
 10
-3.33654
 20
-1.73241
 30
0.0
 10
-3.34901
 20
-1.71697
 30
0.0
 10
-3.36779
 20
-1.70799
 30
0.0
 10
-3.38764
 20
-1.70799
 30
0.0
  0
SPLINE
  5
11A
330
1F
100
AcDbEntity
  8
0
370
    15
100
AcDbSpline
210
0.0
220
0.0
230
1.0
 70
     8
 71
     3
 72
     8
 73
     4
 74
     0
 42
0.0000000001
 43
0.0000000001
 40
0.0
 40
0.0
 40
0.0
 40
0.0
 40
1.0
 40
1.0
 40
1.0
 40
1.0
 10
-4.35326
 20
-1.70799
 30
0.0
 10
-4.37311
 20
-1.70799
 30
0.0
 10
-4.39189
 20
-1.71697
 30
0.0
 10
-4.40436
 20
-1.73241
 30
0.0
  0
SPLINE
  5
11B
330
1F
100
AcDbEntity
  8
0
370
    15
100
AcDbSpline
210
0.0
220
0.0
230
1.0
 70
     8
 71
     3
 72
    20
 73
    16
 74
     0
 42
0.0000000001
 43
0.0000000001
 40
0.0
 40
0.0
 40
0.0
 40
0.0
 40
0.2
 40
0.2
 40
0.2
 40
0.2
 40
0.4
 40
0.4
 40
0.4
 40
0.4
 40
0.6
 40
0.6
 40
0.6
 40
0.6
 40
1.0
 40
1.0
 40
1.0
 40
1.0
 10
-4.0701
 20
-0.54868
 30
0.0
 10
-4.0701
 20
0.44563
 30
0.0
 10
-4.87614
 20
1.25167
 30
0.0
 10
-5.87045
 20
1.25167
 30
0.0
 10
-5.87045
 20
1.25167
 30
0.0
 10
-6.86475
 20
1.25167
 30
0.0
 10
-7.6708
 20
0.44563
 30
0.0
 10
-7.6708
 20
-0.54867
 30
0.0
 10
-7.6708
 20
-0.54867
 30
0.0
 10
-7.6708
 20
-1.54298
 30
0.0
 10
-6.86476
 20
-2.34903
 30
0.0
 10
-5.87046
 20
-2.34903
 30
0.0
 10
-5.87046
 20
-2.34903
 30
0.0
 10
-4.87615
 20
-2.34903
 30
0.0
 10
-4.07011
 20
-1.54299
 30
0.0
 10
-4.0701
 20
-0.54869
 30
0.0
  0
SPLINE
  5
11C
330
1F
100
AcDbEntity
  8
0
370
    15
100
AcDbSpline
210
0.0
220
0.0
230
1.0
 70
     8
 71
     3
 72
    20
 73
    16
 74
     0
 42
0.0000000001
 43
0.0000000001
 40
0.0
 40
0.0
 40
0.0
 40
0.0
 40
0.2
 40
0.2
 40
0.2
 40
0.2
 40
0.4
 40
0.4
 40
0.4
 40
0.4
 40
0.6
 40
0.6
 40
0.6
 40
0.6
 40
1.0
 40
1.0
 40
1.0
 40
1.0
 10
-4.0201
 20
-0.54868
 30
0.0
 10
-4.0201
 20
0.47324
 30
0.0
 10
-4.84853
 20
1.30167
 30
0.0
 10
-5.87045
 20
1.30167
 30
0.0
 10
-5.87045
 20
1.30167
 30
0.0
 10
-6.89237
 20
1.30167
 30
0.0
 10
-7.7208
 20
0.47324
 30
0.0
 10
-7.7208
 20
-0.54867
 30
0.0
 10
-7.7208
 20
-0.54867
 30
0.0
 10
-7.7208
 20
-1.57059
 30
0.0
 10
-6.89238
 20
-2.39902
 30
0.0
 10
-5.87046
 20
-2.39903
 30
0.0
 10
-5.87046
 20
-2.39903
 30
0.0
 10
-4.84854
 20
-2.39903
 30
0.0
 10
-4.02011
 20
-1.57061
 30
0.0
 10
-4.0201
 20
-0.54869
 30
0.0
  0
SPLINE
  5
11D
330
1F
100
AcDbEntity
  8
0
370
    15
100
AcDbSpline
210
0.0
220
0.0
230
1.0
 70
     8
 71
     3
 72
    20
 73
    16
 74
     0
 42
0.0000000001
 43
0.0000000001
 40
0.0
 40
0.0
 40
0.0
 40
0.0
 40
0.2
 40
0.2
 40
0.2
 40
0.2
 40
0.4
 40
0.4
 40
0.4
 40
0.4
 40
0.6
 40
0.6
 40
0.6
 40
0.6
 40
1.0
 40
1.0
 40
1.0
 40
1.0
 10
-4.07061
 20
-0.54868
 30
0.0
 10
-4.07061
 20
0.44534
 30
0.0
 10
-4.87643
 20
1.25116
 30
0.0
 10
-5.87045
 20
1.25116
 30
0.0
 10
-5.87045
 20
1.25116
 30
0.0
 10
-6.86447
 20
1.25116
 30
0.0
 10
-7.67029
 20
0.44535
 30
0.0
 10
-7.67029
 20
-0.54867
 30
0.0
 10
-7.67029
 20
-0.54867
 30
0.0
 10
-7.67029
 20
-1.5427
 30
0.0
 10
-6.86448
 20
-2.34851
 30
0.0
 10
-5.87046
 20
-2.34852
 30
0.0
 10
-5.87046
 20
-2.34852
 30
0.0
 10
-4.87643
 20
-2.34852
 30
0.0
 10
-4.07062
 20
-1.54271
 30
0.0
 10
-4.07061
 20
-0.54869
 30
0.0
  0
SPLINE
  5
11E
330
1F
100
AcDbEntity
  8
0
370
    15
100
AcDbSpline
210
0.0
220
0.0
230
1.0
 70
     8
 71
     3
 72
    20
 73
    16
 74
     0
 42
0.0000000001
 43
0.0000000001
 40
0.0
 40
0.0
 40
0.0
 40
0.0
 40
0.2
 40
0.2
 40
0.2
 40
0.2
 40
0.4
 40
0.4
 40
0.4
 40
0.4
 40
0.6
 40
0.6
 40
0.6
 40
0.6
 40
1.0
 40
1.0
 40
1.0
 40
1.0
 10
-4.09561
 20
-0.54868
 30
0.0
 10
-4.09561
 20
0.43154
 30
0.0
 10
-4.89023
 20
1.22616
 30
0.0
 10
-5.87045
 20
1.22616
 30
0.0
 10
-5.87045
 20
1.22616
 30
0.0
 10
-6.85066
 20
1.22616
 30
0.0
 10
-7.64529
 20
0.43154
 30
0.0
 10
-7.64529
 20
-0.54867
 30
0.0
 10
-7.64529
 20
-0.54867
 30
0.0
 10
-7.64529
 20
-1.52889
 30
0.0
 10
-6.85067
 20
-2.32351
 30
0.0
 10
-5.87046
 20
-2.32352
 30
0.0
 10
-5.87046
 20
-2.32352
 30
0.0
 10
-4.89024
 20
-2.32352
 30
0.0
 10
-4.09562
 20
-1.5289
 30
0.0
 10
-4.09561
 20
-0.54869
 30
0.0
  0
SPLINE
  5
11F
330
1F
100
AcDbEntity
  8
0
370
    15
100
AcDbSpline
210
0.0
220
0.0
230
1.0
 70
     8
 71
     3
 72
    20
 73
    16
 74
     0
 42
0.0000000001
 43
0.0000000001
 40
0.0
 40
0.0
 40
0.0
 40
0.0
 40
0.2
 40
0.2
 40
0.2
 40
0.2
 40
0.4
 40
0.4
 40
0.4
 40
0.4
 40
0.6
 40
0.6
 40
0.6
 40
0.6
 40
1.0
 40
1.0
 40
1.0
 40
1.0
 10
-4.10478
 20
-0.54868
 30
0.0
 10
-4.10478
 20
0.42647
 30
0.0
 10
-4.8953
 20
1.21699
 30
0.0
 10
-5.87045
 20
1.21699
 30
0.0
 10
-5.87045
 20
1.21699
 30
0.0
 10
-6.8456
 20
1.21699
 30
0.0
 10
-7.63612
 20
0.42648
 30
0.0
 10
-7.63612
 20
-0.54867
 30
0.0
 10
-7.63612
 20
-0.54867
 30
0.0
 10
-7.63613
 20
-1.52383
 30
0.0
 10
-6.84561
 20
-2.31435
 30
0.0
 10
-5.87046
 20
-2.31435
 30
0.0
 10
-5.87046
 20
-2.31435
 30
0.0
 10
-4.89531
 20
-2.31435
 30
0.0
 10
-4.10478
 20
-1.52384
 30
0.0
 10
-4.10478
 20
-0.54869
 30
0.0
  0
SPLINE
  5
120
330
1F
100
AcDbEntity
  8
0
370
    15
100
AcDbSpline
210
0.0
220
0.0
230
1.0
 70
     8
 71
     3
 72
    20
 73
    16
 74
     0
 42
0.0000000001
 43
0.0000000001
 40
0.0
 40
0.0
 40
0.0
 40
0.0
 40
0.2
 40
0.2
 40
0.2
 40
0.2
 40
0.4
 40
0.4
 40
0.4
 40
0.4
 40
0.6
 40
0.6
 40
0.6
 40
0.6
 40
1.0
 40
1.0
 40
1.0
 40
1.0
 10
-4.0055
 20
-0.54868
 30
0.0
 10
-4.0055
 20
0.4813
 30
0.0
 10
-4.84047
 20
1.31627
 30
0.0
 10
-5.87045
 20
1.31627
 30
0.0
 10
-5.87045
 20
1.31627
 30
0.0
 10
-6.90043
 20
1.31627
 30
0.0
 10
-7.7354
 20
0.48131
 30
0.0
 10
-7.7354
 20
-0.54867
 30
0.0
 10
-7.7354
 20
-0.54867
 30
0.0
 10
-7.7354
 20
-1.57866
 30
0.0
 10
-6.90044
 20
-2.41362
 30
0.0
 10
-5.87046
 20
-2.41363
 30
0.0
 10
-5.87046
 20
-2.41363
 30
0.0
 10
-4.84048
 20
-2.41363
 30
0.0
 10
-4.00551
 20
-1.57867
 30
0.0
 10
-4.0055
 20
-0.54869
 30
0.0
  0
SPLINE
  5
121
330
1F
100
AcDbEntity
  8
0
370
    15
100
AcDbSpline
210
0.0
220
0.0
230
1.0
 70
     8
 71
     3
 72
    20
 73
    16
 74
     0
 42
0.0000000001
 43
0.0000000001
 40
0.0
 40
0.0
 40
0.0
 40
0.0
 40
0.2
 40
0.2
 40
0.2
 40
0.2
 40
0.4
 40
0.4
 40
0.4
 40
0.4
 40
0.6
 40
0.6
 40
0.6
 40
0.6
 40
1.0
 40
1.0
 40
1.0
 40
1.0
 10
-4.1133
 20
-0.54868
 30
0.0
 10
-4.1133
 20
0.42177
 30
0.0
 10
-4.9
 20
1.20848
 30
0.0
 10
-5.87045
 20
1.20848
 30
0.0
 10
-5.87045
 20
1.20848
 30
0.0
 10
-6.8409
 20
1.20848
 30
0.0
 10
-7.6276
 20
0.42178
 30
0.0
 10
-7.62761
 20
-0.54867
 30
0.0
 10
-7.62761
 20
-0.54867
 30
0.0
 10
-7.62761
 20
-1.51912
 30
0.0
 10
-6.84091
 20
-2.30583
 30
0.0
 10
-5.87046
 20
-2.30583
 30
0.0
 10
-5.87046
 20
-2.30583
 30
0.0
 10
-4.90001
 20
-2.30584
 30
0.0
 10
-4.1133
 20
-1.51914
 30
0.0
 10
-4.1133
 20
-0.54869
 30
0.0
  0
SPLINE
  5
122
330
1F
100
AcDbEntity
  8
0
370
    15
100
AcDbSpline
210
0.0
220
0.0
230
1.0
 70
     8
 71
     3
 72
    20
 73
    16
 74
     0
 42
0.0000000001
 43
0.0000000001
 40
0.0
 40
0.0
 40
0.0
 40
0.0
 40
0.2
 40
0.2
 40
0.2
 40
0.2
 40
0.4
 40
0.4
 40
0.4
 40
0.4
 40
0.6
 40
0.6
 40
0.6
 40
0.6
 40
1.0
 40
1.0
 40
1.0
 40
1.0
 10
-4.34801
 20
-0.54868
 30
0.0
 10
-4.34801
 20
0.29214
 30
0.0
 10
-5.02963
 20
0.97376
 30
0.0
 10
-5.87045
 20
0.97377
 30
0.0
 10
-5.87045
 20
0.97377
 30
0.0
 10
-6.71127
 20
0.97377
 30
0.0
 10
-7.39289
 20
0.29215
 30
0.0
 10
-7.3929
 20
-0.54867
 30
0.0
 10
-7.3929
 20
-0.54867
 30
0.0
 10
-7.3929
 20
-1.3895
 30
0.0
 10
-6.71128
 20
-2.07112
 30
0.0
 10
-5.87046
 20
-2.07112
 30
0.0
 10
-5.87046
 20
-2.07112
 30
0.0
 10
-5.02963
 20
-2.07113
 30
0.0
 10
-4.34801
 20
-1.38951
 30
0.0
 10
-4.34801
 20
-0.54869
 30
0.0
  0
SPLINE
  5
123
330
1F
100
AcDbEntity
  8
0
370
    15
100
AcDbSpline
210
0.0
220
0.0
230
1.0
 70
     8
 71
     3
 72
    20
 73
    16
 74
     0
 42
0.0000000001
 43
0.0000000001
 40
0.0
 40
0.0
 40
0.0
 40
0.0
 40
0.2
 40
0.2
 40
0.2
 40
0.2
 40
0.4
 40
0.4
 40
0.4
 40
0.4
 40
0.6
 40
0.6
 40
0.6
 40
0.6
 40
1.0
 40
1.0
 40
1.0
 40
1.0
 10
-4.36088
 20
-0.54868
 30
0.0
 10
-4.36088
 20
0.28504
 30
0.0
 10
-5.03674
 20
0.96089
 30
0.0
 10
-5.87045
 20
0.96089
 30
0.0
 10
-5.87045
 20
0.96089
 30
0.0
 10
-6.70416
 20
0.9609
 30
0.0
 10
-7.38002
 20
0.28504
 30
0.0
 10
-7.38002
 20
-0.54867
 30
0.0
 10
-7.38002
 20
-0.54867
 30
0.0
 10
-7.38003
 20
-1.38239
 30
0.0
 10
-6.70417
 20
-2.05825
 30
0.0
 10
-5.87046
 20
-2.05825
 30
0.0
 10
-5.87046
 20
-2.05825
 30
0.0
 10
-5.03674
 20
-2.05826
 30
0.0
 10
-4.36088
 20
-1.3824
 30
0.0
 10
-4.36088
 20
-0.54869
 30
0.0
  0
SPLINE
  5
124
330
1F
100
AcDbEntity
  8
0
370
    15
100
AcDbSpline
210
0.0
220
0.0
230
1.0
 70
     8
 71
     3
 72
    20
 73
    16
 74
     0
 42
0.0000000001
 43
0.0000000001
 40
0.0
 40
0.0
 40
0.0
 40
0.0
 40
0.2
 40
0.2
 40
0.2
 40
0.2
 40
0.4
 40
0.4
 40
0.4
 40
0.4
 40
0.6
 40
0.6
 40
0.6
 40
0.6
 40
1.0
 40
1.0
 40
1.0
 40
1.0
 10
-4.44513
 20
-0.54868
 30
0.0
 10
-4.44513
 20
0.23851
 30
0.0
 10
-5.08326
 20
0.87665
 30
0.0
 10
-5.87045
 20
0.87665
 30
0.0
 10
-5.87045
 20
0.87665
 30
0.0
 10
-6.65763
 20
0.87665
 30
0.0
 10
-7.29577
 20
0.23851
 30
0.0
 10
-7.29578
 20
-0.54867
 30
0.0
 10
-7.29578
 20
-0.54867
 30
0.0
 10
-7.29578
 20
-1.33586
 30
0.0
 10
-6.65764
 20
-1.974
 30
0.0
 10
-5.87046
 20
-1.974
 30
0.0
 10
-5.87046
 20
-1.974
 30
0.0
 10
-5.08327
 20
-1.97401
 30
0.0
 10
-4.44513
 20
-1.33587
 30
0.0
 10
-4.44513
 20
-0.54869
 30
0.0
  0
SPLINE
  5
125
330
1F
100
AcDbEntity
  8
0
370
    15
100
AcDbSpline
210
0.0
220
0.0
230
1.0
 70
     8
 71
     3
 72
    20
 73
    16
 74
     0
 42
0.0000000001
 43
0.0000000001
 40
0.0
 40
0.0
 40
0.0
 40
0.0
 40
0.2
 40
0.2
 40
0.2
 40
0.2
 40
0.4
 40
0.4
 40
0.4
 40
0.4
 40
0.6
 40
0.6
 40
0.6
 40
0.6
 40
1.0
 40
1.0
 40
1.0
 40
1.0
 10
-4.54731
 20
-0.54868
 30
0.0
 10
-4.54731
 20
0.18207
 30
0.0
 10
-5.1397
 20
0.77446
 30
0.0
 10
-5.87045
 20
0.77446
 30
0.0
 10
-5.87045
 20
0.77446
 30
0.0
 10
-6.6012
 20
0.77446
 30
0.0
 10
-7.19359
 20
0.18207
 30
0.0
 10
-7.19359
 20
-0.54868
 30
0.0
 10
-7.19359
 20
-0.54868
 30
0.0
 10
-7.19359
 20
-1.27942
 30
0.0
 10
-6.6012
 20
-1.87181
 30
0.0
 10
-5.87046
 20
-1.87182
 30
0.0
 10
-5.87046
 20
-1.87182
 30
0.0
 10
-5.13971
 20
-1.87182
 30
0.0
 10
-4.54732
 20
-1.27943
 30
0.0
 10
-4.54731
 20
-0.54869
 30
0.0
  0
SPLINE
  5
126
330
1F
100
AcDbEntity
  8
0
370
    15
100
AcDbSpline
210
0.0
220
0.0
230
1.0
 70
    11
 71
     3
 72
    20
 73
    16
 74
     0
 42
0.0000000001
 43
0.0000000001
 40
0.0
 40
0.0
 40
0.0
 40
0.0
 40
0.2
 40
0.2
 40
0.2
 40
0.2
 40
0.4
 40
0.4
 40
0.4
 40
0.4
 40
0.6
 40
0.6
 40
0.6
 40
0.6
 40
1.0
 40
1.0
 40
1.0
 40
1.0
 10
-4.79545
 20
-0.54868
 30
0.0
 10
-4.79545
 20
0.04503
 30
0.0
 10
-5.27674
 20
0.52632
 30
0.0
 10
-5.87045
 20
0.52632
 30
0.0
 10
-5.87045
 20
0.52632
 30
0.0
 10
-6.46416
 20
0.52632
 30
0.0
 10
-6.94545
 20
0.04503
 30
0.0
 10
-6.94545
 20
-0.54868
 30
0.0
 10
-6.94545
 20
-0.54868
 30
0.0
 10
-6.94545
 20
-1.14238
 30
0.0
 10
-6.46416
 20
-1.62368
 30
0.0
 10
-5.87046
 20
-1.62368
 30
0.0
 10
-5.87046
 20
-1.62368
 30
0.0
 10
-5.27675
 20
-1.62368
 30
0.0
 10
-4.79545
 20
-1.14239
 30
0.0
 10
-4.79545
 20
-0.54868
 30
0.0
  0
SPLINE
  5
127
330
1F
100
AcDbEntity
  8
0
370
    15
100
AcDbSpline
210
0.0
220
0.0
230
1.0
 70
     8
 71
     3
 72
    20
 73
    16
 74
     0
 42
0.0000000001
 43
0.0000000001
 40
0.0
 40
0.0
 40
0.0
 40
0.0
 40
0.2
 40
0.2
 40
0.2
 40
0.2
 40
0.4
 40
0.4
 40
0.4
 40
0.4
 40
0.6
 40
0.6
 40
0.6
 40
0.6
 40
1.0
 40
1.0
 40
1.0
 40
1.0
 10
-0.0701
 20
-0.54868
 30
0.0
 10
-0.0701
 20
0.44563
 30
0.0
 10
-0.87614
 20
1.25167
 30
0.0
 10
-1.87045
 20
1.25167
 30
0.0
 10
-1.87045
 20
1.25167
 30
0.0
 10
-2.86475
 20
1.25167
 30
0.0
 10
-3.6708
 20
0.44563
 30
0.0
 10
-3.6708
 20
-0.54867
 30
0.0
 10
-3.6708
 20
-0.54867
 30
0.0
 10
-3.6708
 20
-1.54298
 30
0.0
 10
-2.86476
 20
-2.34903
 30
0.0
 10
-1.87046
 20
-2.34903
 30
0.0
 10
-1.87046
 20
-2.34903
 30
0.0
 10
-0.87615
 20
-2.34903
 30
0.0
 10
-0.07011
 20
-1.54299
 30
0.0
 10
-0.0701
 20
-0.54869
 30
0.0
  0
SPLINE
  5
128
330
1F
100
AcDbEntity
  8
0
370
    15
100
AcDbSpline
210
0.0
220
0.0
230
1.0
 70
     8
 71
     3
 72
    20
 73
    16
 74
     0
 42
0.0000000001
 43
0.0000000001
 40
0.0
 40
0.0
 40
0.0
 40
0.0
 40
0.2
 40
0.2
 40
0.2
 40
0.2
 40
0.4
 40
0.4
 40
0.4
 40
0.4
 40
0.6
 40
0.6
 40
0.6
 40
0.6
 40
1.0
 40
1.0
 40
1.0
 40
1.0
 10
-0.07061
 20
-0.54868
 30
0.0
 10
-0.07061
 20
0.44534
 30
0.0
 10
-0.87643
 20
1.25116
 30
0.0
 10
-1.87045
 20
1.25116
 30
0.0
 10
-1.87045
 20
1.25116
 30
0.0
 10
-2.86447
 20
1.25116
 30
0.0
 10
-3.67029
 20
0.44535
 30
0.0
 10
-3.67029
 20
-0.54867
 30
0.0
 10
-3.67029
 20
-0.54867
 30
0.0
 10
-3.67029
 20
-1.5427
 30
0.0
 10
-2.86448
 20
-2.34851
 30
0.0
 10
-1.87046
 20
-2.34852
 30
0.0
 10
-1.87046
 20
-2.34852
 30
0.0
 10
-0.87643
 20
-2.34852
 30
0.0
 10
-0.07062
 20
-1.54271
 30
0.0
 10
-0.07061
 20
-0.54869
 30
0.0
  0
SPLINE
  5
129
330
1F
100
AcDbEntity
  8
0
370
    15
100
AcDbSpline
210
0.0
220
0.0
230
1.0
 70
     8
 71
     3
 72
    20
 73
    16
 74
     0
 42
0.0000000001
 43
0.0000000001
 40
0.0
 40
0.0
 40
0.0
 40
0.0
 40
0.2
 40
0.2
 40
0.2
 40
0.2
 40
0.4
 40
0.4
 40
0.4
 40
0.4
 40
0.6
 40
0.6
 40
0.6
 40
0.6
 40
1.0
 40
1.0
 40
1.0
 40
1.0
 10
-0.09561
 20
-0.54868
 30
0.0
 10
-0.09561
 20
0.43154
 30
0.0
 10
-0.89023
 20
1.22616
 30
0.0
 10
-1.87045
 20
1.22616
 30
0.0
 10
-1.87045
 20
1.22616
 30
0.0
 10
-2.85066
 20
1.22616
 30
0.0
 10
-3.64529
 20
0.43154
 30
0.0
 10
-3.64529
 20
-0.54867
 30
0.0
 10
-3.64529
 20
-0.54867
 30
0.0
 10
-3.64529
 20
-1.52889
 30
0.0
 10
-2.85067
 20
-2.32351
 30
0.0
 10
-1.87046
 20
-2.32352
 30
0.0
 10
-1.87046
 20
-2.32352
 30
0.0
 10
-0.89024
 20
-2.32352
 30
0.0
 10
-0.09562
 20
-1.5289
 30
0.0
 10
-0.09561
 20
-0.54869
 30
0.0
  0
SPLINE
  5
12A
330
1F
100
AcDbEntity
  8
0
370
    15
100
AcDbSpline
210
0.0
220
0.0
230
1.0
 70
     8
 71
     3
 72
    20
 73
    16
 74
     0
 42
0.0000000001
 43
0.0000000001
 40
0.0
 40
0.0
 40
0.0
 40
0.0
 40
0.2
 40
0.2
 40
0.2
 40
0.2
 40
0.4
 40
0.4
 40
0.4
 40
0.4
 40
0.6
 40
0.6
 40
0.6
 40
0.6
 40
1.0
 40
1.0
 40
1.0
 40
1.0
 10
-0.0201
 20
-0.54868
 30
0.0
 10
-0.0201
 20
0.47324
 30
0.0
 10
-0.84853
 20
1.30167
 30
0.0
 10
-1.87045
 20
1.30167
 30
0.0
 10
-1.87045
 20
1.30167
 30
0.0
 10
-2.89237
 20
1.30167
 30
0.0
 10
-3.7208
 20
0.47324
 30
0.0
 10
-3.7208
 20
-0.54867
 30
0.0
 10
-3.7208
 20
-0.54867
 30
0.0
 10
-3.7208
 20
-1.57059
 30
0.0
 10
-2.89238
 20
-2.39902
 30
0.0
 10
-1.87046
 20
-2.39903
 30
0.0
 10
-1.87046
 20
-2.39903
 30
0.0
 10
-0.84854
 20
-2.39903
 30
0.0
 10
-0.02011
 20
-1.57061
 30
0.0
 10
-0.0201
 20
-0.54869
 30
0.0
  0
SPLINE
  5
12B
330
1F
100
AcDbEntity
  8
0
370
    15
100
AcDbSpline
210
0.0
220
0.0
230
1.0
 70
     8
 71
     3
 72
    20
 73
    16
 74
     0
 42
0.0000000001
 43
0.0000000001
 40
0.0
 40
0.0
 40
0.0
 40
0.0
 40
0.2
 40
0.2
 40
0.2
 40
0.2
 40
0.4
 40
0.4
 40
0.4
 40
0.4
 40
0.6
 40
0.6
 40
0.6
 40
0.6
 40
1.0
 40
1.0
 40
1.0
 40
1.0
 10
-0.10478
 20
-0.54868
 30
0.0
 10
-0.10478
 20
0.42647
 30
0.0
 10
-0.8953
 20
1.21699
 30
0.0
 10
-1.87045
 20
1.21699
 30
0.0
 10
-1.87045
 20
1.21699
 30
0.0
 10
-2.8456
 20
1.21699
 30
0.0
 10
-3.63612
 20
0.42648
 30
0.0
 10
-3.63612
 20
-0.54867
 30
0.0
 10
-3.63612
 20
-0.54867
 30
0.0
 10
-3.63613
 20
-1.52383
 30
0.0
 10
-2.84561
 20
-2.31435
 30
0.0
 10
-1.87046
 20
-2.31435
 30
0.0
 10
-1.87046
 20
-2.31435
 30
0.0
 10
-0.89531
 20
-2.31435
 30
0.0
 10
-0.10478
 20
-1.52384
 30
0.0
 10
-0.10478
 20
-0.54869
 30
0.0
  0
SPLINE
  5
12C
330
1F
100
AcDbEntity
  8
0
370
    15
100
AcDbSpline
210
0.0
220
0.0
230
1.0
 70
     8
 71
     3
 72
    20
 73
    16
 74
     0
 42
0.0000000001
 43
0.0000000001
 40
0.0
 40
0.0
 40
0.0
 40
0.0
 40
0.2
 40
0.2
 40
0.2
 40
0.2
 40
0.4
 40
0.4
 40
0.4
 40
0.4
 40
0.6
 40
0.6
 40
0.6
 40
0.6
 40
1.0
 40
1.0
 40
1.0
 40
1.0
 10
-0.0055
 20
-0.54868
 30
0.0
 10
-0.0055
 20
0.4813
 30
0.0
 10
-0.84047
 20
1.31627
 30
0.0
 10
-1.87045
 20
1.31627
 30
0.0
 10
-1.87045
 20
1.31627
 30
0.0
 10
-2.90043
 20
1.31627
 30
0.0
 10
-3.7354
 20
0.48131
 30
0.0
 10
-3.7354
 20
-0.54867
 30
0.0
 10
-3.7354
 20
-0.54867
 30
0.0
 10
-3.7354
 20
-1.57866
 30
0.0
 10
-2.90044
 20
-2.41362
 30
0.0
 10
-1.87046
 20
-2.41363
 30
0.0
 10
-1.87046
 20
-2.41363
 30
0.0
 10
-0.84048
 20
-2.41363
 30
0.0
 10
-0.00551
 20
-1.57867
 30
0.0
 10
-0.0055
 20
-0.54869
 30
0.0
  0
SPLINE
  5
12D
330
1F
100
AcDbEntity
  8
0
370
    15
100
AcDbSpline
210
0.0
220
0.0
230
1.0
 70
     8
 71
     3
 72
    20
 73
    16
 74
     0
 42
0.0000000001
 43
0.0000000001
 40
0.0
 40
0.0
 40
0.0
 40
0.0
 40
0.2
 40
0.2
 40
0.2
 40
0.2
 40
0.4
 40
0.4
 40
0.4
 40
0.4
 40
0.6
 40
0.6
 40
0.6
 40
0.6
 40
1.0
 40
1.0
 40
1.0
 40
1.0
 10
-0.1133
 20
-0.54868
 30
0.0
 10
-0.1133
 20
0.42177
 30
0.0
 10
-0.9
 20
1.20848
 30
0.0
 10
-1.87045
 20
1.20848
 30
0.0
 10
-1.87045
 20
1.20848
 30
0.0
 10
-2.8409
 20
1.20848
 30
0.0
 10
-3.6276
 20
0.42178
 30
0.0
 10
-3.62761
 20
-0.54867
 30
0.0
 10
-3.62761
 20
-0.54867
 30
0.0
 10
-3.62761
 20
-1.51912
 30
0.0
 10
-2.84091
 20
-2.30583
 30
0.0
 10
-1.87046
 20
-2.30583
 30
0.0
 10
-1.87046
 20
-2.30583
 30
0.0
 10
-0.90001
 20
-2.30584
 30
0.0
 10
-0.1133
 20
-1.51914
 30
0.0
 10
-0.1133
 20
-0.54869
 30
0.0
  0
SPLINE
  5
12E
330
1F
100
AcDbEntity
  8
0
370
    15
100
AcDbSpline
210
0.0
220
0.0
230
1.0
 70
     8
 71
     3
 72
    20
 73
    16
 74
     0
 42
0.0000000001
 43
0.0000000001
 40
0.0
 40
0.0
 40
0.0
 40
0.0
 40
0.2
 40
0.2
 40
0.2
 40
0.2
 40
0.4
 40
0.4
 40
0.4
 40
0.4
 40
0.6
 40
0.6
 40
0.6
 40
0.6
 40
1.0
 40
1.0
 40
1.0
 40
1.0
 10
-0.34801
 20
-0.54868
 30
0.0
 10
-0.34801
 20
0.29214
 30
0.0
 10
-1.02963
 20
0.97376
 30
0.0
 10
-1.87045
 20
0.97377
 30
0.0
 10
-1.87045
 20
0.97377
 30
0.0
 10
-2.71127
 20
0.97377
 30
0.0
 10
-3.39289
 20
0.29215
 30
0.0
 10
-3.3929
 20
-0.54867
 30
0.0
 10
-3.3929
 20
-0.54867
 30
0.0
 10
-3.3929
 20
-1.3895
 30
0.0
 10
-2.71128
 20
-2.07112
 30
0.0
 10
-1.87046
 20
-2.07112
 30
0.0
 10
-1.87046
 20
-2.07112
 30
0.0
 10
-1.02963
 20
-2.07113
 30
0.0
 10
-0.34801
 20
-1.38951
 30
0.0
 10
-0.34801
 20
-0.54869
 30
0.0
  0
SPLINE
  5
12F
330
1F
100
AcDbEntity
  8
0
370
    15
100
AcDbSpline
210
0.0
220
0.0
230
1.0
 70
     8
 71
     3
 72
    20
 73
    16
 74
     0
 42
0.0000000001
 43
0.0000000001
 40
0.0
 40
0.0
 40
0.0
 40
0.0
 40
0.2
 40
0.2
 40
0.2
 40
0.2
 40
0.4
 40
0.4
 40
0.4
 40
0.4
 40
0.6
 40
0.6
 40
0.6
 40
0.6
 40
1.0
 40
1.0
 40
1.0
 40
1.0
 10
-0.36088
 20
-0.54868
 30
0.0
 10
-0.36088
 20
0.28504
 30
0.0
 10
-1.03674
 20
0.96089
 30
0.0
 10
-1.87045
 20
0.96089
 30
0.0
 10
-1.87045
 20
0.96089
 30
0.0
 10
-2.70416
 20
0.9609
 30
0.0
 10
-3.38002
 20
0.28504
 30
0.0
 10
-3.38002
 20
-0.54867
 30
0.0
 10
-3.38002
 20
-0.54867
 30
0.0
 10
-3.38003
 20
-1.38239
 30
0.0
 10
-2.70417
 20
-2.05825
 30
0.0
 10
-1.87046
 20
-2.05825
 30
0.0
 10
-1.87046
 20
-2.05825
 30
0.0
 10
-1.03674
 20
-2.05826
 30
0.0
 10
-0.36088
 20
-1.3824
 30
0.0
 10
-0.36088
 20
-0.54869
 30
0.0
  0
SPLINE
  5
130
330
1F
100
AcDbEntity
  8
0
370
    15
100
AcDbSpline
210
0.0
220
0.0
230
1.0
 70
     8
 71
     3
 72
    20
 73
    16
 74
     0
 42
0.0000000001
 43
0.0000000001
 40
0.0
 40
0.0
 40
0.0
 40
0.0
 40
0.2
 40
0.2
 40
0.2
 40
0.2
 40
0.4
 40
0.4
 40
0.4
 40
0.4
 40
0.6
 40
0.6
 40
0.6
 40
0.6
 40
1.0
 40
1.0
 40
1.0
 40
1.0
 10
-0.44513
 20
-0.54868
 30
0.0
 10
-0.44513
 20
0.23851
 30
0.0
 10
-1.08326
 20
0.87665
 30
0.0
 10
-1.87045
 20
0.87665
 30
0.0
 10
-1.87045
 20
0.87665
 30
0.0
 10
-2.65763
 20
0.87665
 30
0.0
 10
-3.29577
 20
0.23851
 30
0.0
 10
-3.29578
 20
-0.54867
 30
0.0
 10
-3.29578
 20
-0.54867
 30
0.0
 10
-3.29578
 20
-1.33586
 30
0.0
 10
-2.65764
 20
-1.974
 30
0.0
 10
-1.87046
 20
-1.974
 30
0.0
 10
-1.87046
 20
-1.974
 30
0.0
 10
-1.08327
 20
-1.97401
 30
0.0
 10
-0.44513
 20
-1.33587
 30
0.0
 10
-0.44513
 20
-0.54869
 30
0.0
  0
SPLINE
  5
131
330
1F
100
AcDbEntity
  8
0
370
    15
100
AcDbSpline
210
0.0
220
0.0
230
1.0
 70
     8
 71
     3
 72
    20
 73
    16
 74
     0
 42
0.0000000001
 43
0.0000000001
 40
0.0
 40
0.0
 40
0.0
 40
0.0
 40
0.2
 40
0.2
 40
0.2
 40
0.2
 40
0.4
 40
0.4
 40
0.4
 40
0.4
 40
0.6
 40
0.6
 40
0.6
 40
0.6
 40
1.0
 40
1.0
 40
1.0
 40
1.0
 10
-0.54731
 20
-0.54868
 30
0.0
 10
-0.54731
 20
0.18207
 30
0.0
 10
-1.1397
 20
0.77446
 30
0.0
 10
-1.87045
 20
0.77446
 30
0.0
 10
-1.87045
 20
0.77446
 30
0.0
 10
-2.6012
 20
0.77446
 30
0.0
 10
-3.19359
 20
0.18207
 30
0.0
 10
-3.19359
 20
-0.54868
 30
0.0
 10
-3.19359
 20
-0.54868
 30
0.0
 10
-3.19359
 20
-1.27942
 30
0.0
 10
-2.6012
 20
-1.87181
 30
0.0
 10
-1.87046
 20
-1.87182
 30
0.0
 10
-1.87046
 20
-1.87182
 30
0.0
 10
-1.13971
 20
-1.87182
 30
0.0
 10
-0.54732
 20
-1.27943
 30
0.0
 10
-0.54731
 20
-0.54869
 30
0.0
  0
SPLINE
  5
132
330
1F
100
AcDbEntity
  8
0
370
    15
100
AcDbSpline
210
0.0
220
0.0
230
1.0
 70
    11
 71
     3
 72
    20
 73
    16
 74
     0
 42
0.0000000001
 43
0.0000000001
 40
0.0
 40
0.0
 40
0.0
 40
0.0
 40
0.2
 40
0.2
 40
0.2
 40
0.2
 40
0.4
 40
0.4
 40
0.4
 40
0.4
 40
0.6
 40
0.6
 40
0.6
 40
0.6
 40
1.0
 40
1.0
 40
1.0
 40
1.0
 10
-0.79545
 20
-0.54868
 30
0.0
 10
-0.79545
 20
0.04503
 30
0.0
 10
-1.27674
 20
0.52632
 30
0.0
 10
-1.87045
 20
0.52632
 30
0.0
 10
-1.87045
 20
0.52632
 30
0.0
 10
-2.46416
 20
0.52632
 30
0.0
 10
-2.94545
 20
0.04503
 30
0.0
 10
-2.94545
 20
-0.54868
 30
0.0
 10
-2.94545
 20
-0.54868
 30
0.0
 10
-2.94545
 20
-1.14238
 30
0.0
 10
-2.46416
 20
-1.62368
 30
0.0
 10
-1.87046
 20
-1.62368
 30
0.0
 10
-1.87046
 20
-1.62368
 30
0.0
 10
-1.27675
 20
-1.62368
 30
0.0
 10
-0.79545
 20
-1.14239
 30
0.0
 10
-0.79545
 20
-0.54868
 30
0.0
  0
SPLINE
  5
133
330
1F
100
AcDbEntity
  8
0
370
    15
100
AcDbSpline
210
0.0
220
0.0
230
1.0
 70
     8
 71
     3
 72
     8
 73
     4
 74
     0
 42
0.0000000001
 43
0.0000000001
 40
0.0
 40
0.0
 40
0.0
 40
0.0
 40
1.0
 40
1.0
 40
1.0
 40
1.0
 10
-5.52045
 20
2.05132
 30
0.0
 10
-5.54316
 20
1.98709
 30
0.0
 10
-5.55477
 20
1.91945
 30
0.0
 10
-5.55477
 20
1.85132
 30
0.0
  0
SPLINE
  5
134
330
1F
100
AcDbEntity
  8
0
370
    15
100
AcDbSpline
210
0.0
220
0.0
230
1.0
 70
    24
 71
     3
 72
     8
 73
     4
 74
     0
 42
0.0000000001
 43
0.0000000001
 40
0.0
 40
0.0
 40
0.0
 40
0.0
 40
1.0
 40
1.0
 40
1.0
 40
1.0
 10
-5.52045
 20
1.50132
 30
0.0
 10
-5.52045
 20
1.50132
 30
0.0
 10
-5.52045
 20
2.05132
 30
0.0
 10
-5.52045
 20
2.05132
 30
0.0
  0
SPLINE
  5
135
330
1F
100
AcDbEntity
  8
0
370
    15
100
AcDbSpline
210
0.0
220
0.0
230
1.0
 70
    24
 71
     3
 72
     8
 73
     4
 74
     0
 42
0.0000000001
 43
0.0000000001
 40
0.0
 40
0.0
 40
0.0
 40
0.0
 40
1.0
 40
1.0
 40
1.0
 40
1.0
 10
-2.42045
 20
1.92188
 30
0.0
 10
-2.42045
 20
1.92188
 30
0.0
 10
-5.32045
 20
1.92188
 30
0.0
 10
-5.32045
 20
1.92188
 30
0.0
  0
SPLINE
  5
136
330
1F
100
AcDbEntity
  8
0
370
    15
100
AcDbSpline
210
0.0
220
0.0
230
1.0
 70
     8
 71
     3
 72
    24
 73
    20
 74
     0
 42
0.0000000001
 43
0.0000000001
 40
0.0
 40
0.0
 40
0.0
 40
0.0
 40
0.1666666666666667
 40
0.1666666666666667
 40
0.1666666666666667
 40
0.1666666666666667
 40
0.3333333333333333
 40
0.3333333333333333
 40
0.3333333333333333
 40
0.3333333333333333
 40
0.5
 40
0.5
 40
0.5
 40
0.5
 40
0.6666666666666666
 40
0.6666666666666666
 40
0.6666666666666666
 40
0.6666666666666666
 40
1.0
 40
1.0
 40
1.0
 40
1.0
 10
-2.25795
 20
2.01538
 30
0.0
 10
-2.2601
 20
2.00728
 30
0.0
 10
-2.26225
 20
1.99919
 30
0.0
 10
-2.26846
 20
1.99031
 30
0.0
 10
-2.26846
 20
1.99031
 30
0.0
 10
-2.27468
 20
1.98142
 30
0.0
 10
-2.28498
 20
1.97174
 30
0.0
 10
-2.29765
 20
1.96255
 30
0.0
 10
-2.29765
 20
1.96255
 30
0.0
 10
-2.31126
 20
1.95268
 30
0.0
 10
-2.3276
 20
1.94335
 30
0.0
 10
-2.3466
 20
1.93591
 30
0.0
 10
-2.3466
 20
1.93591
 30
0.0
 10
-2.35986
 20
1.93072
 30
0.0
 10
-2.37442
 20
1.92645
 30
0.0
 10
-2.38963
 20
1.92429
 30
0.0
 10
-2.38963
 20
1.92429
 30
0.0
 10
-2.39971
 20
1.92287
 30
0.0
 10
-2.41008
 20
1.92237
 30
0.0
 10
-2.42045
 20
1.92188
 30
0.0
  0
SPLINE
  5
137
330
1F
100
AcDbEntity
  8
0
370
    15
100
AcDbSpline
210
0.0
220
0.0
230
1.0
 70
    24
 71
     3
 72
     8
 73
     4
 74
     0
 42
0.0000000001
 43
0.0000000001
 40
0.0
 40
0.0
 40
0.0
 40
0.0
 40
1.0
 40
1.0
 40
1.0
 40
1.0
 10
-2.25795
 20
2.05132
 30
0.0
 10
-2.25795
 20
2.05132
 30
0.0
 10
-2.25795
 20
2.01538
 30
0.0
 10
-2.25795
 20
2.01538
 30
0.0
  0
SPLINE
  5
138
330
1F
100
AcDbEntity
  8
0
370
    15
100
AcDbSpline
210
0.0
220
0.0
230
1.0
 70
    24
 71
     3
 72
     8
 73
     4
 74
     0
 42
0.0000000001
 43
0.0000000001
 40
0.0
 40
0.0
 40
0.0
 40
0.0
 40
1.0
 40
1.0
 40
1.0
 40
1.0
 10
-2.22045
 20
2.05132
 30
0.0
 10
-2.22045
 20
2.05132
 30
0.0
 10
-2.25795
 20
2.05132
 30
0.0
 10
-2.25795
 20
2.05132
 30
0.0
  0
SPLINE
  5
139
330
1F
100
AcDbEntity
  8
0
370
    15
100
AcDbSpline
210
0.0
220
0.0
230
1.0
 70
    24
 71
     3
 72
     8
 73
     4
 74
     0
 42
0.0000000001
 43
0.0000000001
 40
0.0
 40
0.0
 40
0.0
 40
0.0
 40
1.0
 40
1.0
 40
1.0
 40
1.0
 10
-2.22045
 20
1.50132
 30
0.0
 10
-2.22045
 20
1.50132
 30
0.0
 10
-2.22045
 20
2.05132
 30
0.0
 10
-2.22045
 20
2.05132
 30
0.0
  0
SPLINE
  5
13A
330
1F
100
AcDbEntity
  8
0
370
    15
100
AcDbSpline
210
0.0
220
0.0
230
1.0
 70
    24
 71
     3
 72
     8
 73
     4
 74
     0
 42
0.0000000001
 43
0.0000000001
 40
0.0
 40
0.0
 40
0.0
 40
0.0
 40
1.0
 40
1.0
 40
1.0
 40
1.0
 10
-2.22045
 20
1.50132
 30
0.0
 10
-2.22045
 20
1.50132
 30
0.0
 10
-5.52045
 20
1.50132
 30
0.0
 10
-5.52045
 20
1.50132
 30
0.0
  0
SPLINE
  5
13B
330
1F
100
AcDbEntity
  8
0
370
    15
100
AcDbSpline
210
0.0
220
0.0
230
1.0
 70
    24
 71
     3
 72
     8
 73
     4
 74
     0
 42
0.0000000001
 43
0.0000000001
 40
0.0
 40
0.0
 40
0.0
 40
0.0
 40
1.0
 40
1.0
 40
1.0
 40
1.0
 10
-5.48295
 20
2.05132
 30
0.0
 10
-5.48295
 20
2.05132
 30
0.0
 10
-5.52045
 20
2.05132
 30
0.0
 10
-5.52045
 20
2.05132
 30
0.0
  0
SPLINE
  5
13C
330
1F
100
AcDbEntity
  8
0
370
    15
100
AcDbSpline
210
0.0
220
0.0
230
1.0
 70
    24
 71
     3
 72
     8
 73
     4
 74
     0
 42
0.0000000001
 43
0.0000000001
 40
0.0
 40
0.0
 40
0.0
 40
0.0
 40
1.0
 40
1.0
 40
1.0
 40
1.0
 10
-5.48295
 20
2.01538
 30
0.0
 10
-5.48295
 20
2.01538
 30
0.0
 10
-5.48295
 20
2.05132
 30
0.0
 10
-5.48295
 20
2.05132
 30
0.0
  0
SPLINE
  5
13D
330
1F
100
AcDbEntity
  8
0
370
    15
100
AcDbSpline
210
0.0
220
0.0
230
1.0
 70
     8
 71
     3
 72
    24
 73
    20
 74
     0
 42
0.0000000001
 43
0.0000000001
 40
0.0
 40
0.0
 40
0.0
 40
0.0
 40
0.1666666666666667
 40
0.1666666666666667
 40
0.1666666666666667
 40
0.1666666666666667
 40
0.3333333333333333
 40
0.3333333333333333
 40
0.3333333333333333
 40
0.3333333333333333
 40
0.5
 40
0.5
 40
0.5
 40
0.5
 40
0.6666666666666666
 40
0.6666666666666666
 40
0.6666666666666666
 40
0.6666666666666666
 40
1.0
 40
1.0
 40
1.0
 40
1.0
 10
-5.32045
 20
1.92188
 30
0.0
 10
-5.33603
 20
1.92299
 30
0.0
 10
-5.35161
 20
1.9241
 30
0.0
 10
-5.36623
 20
1.92722
 30
0.0
 10
-5.36623
 20
1.92722
 30
0.0
 10
-5.38072
 20
1.93031
 30
0.0
 10
-5.39426
 20
1.93537
 30
0.0
 10
-5.40649
 20
1.94106
 30
0.0
 10
-5.40649
 20
1.94106
 30
0.0
 10
-5.42003
 20
1.94736
 30
0.0
 10
-5.43195
 20
1.95444
 30
0.0
 10
-5.44235
 20
1.96189
 30
0.0
 10
-5.44235
 20
1.96189
 30
0.0
 10
-5.45493
 20
1.97091
 30
0.0
 10
-5.46529
 20
1.98048
 30
0.0
 10
-5.47166
 20
1.98929
 30
0.0
 10
-5.47166
 20
1.98929
 30
0.0
 10
-5.47835
 20
1.99854
 30
0.0
 10
-5.48065
 20
2.00696
 30
0.0
 10
-5.48295
 20
2.01538
 30
0.0
  0
SPLINE
  5
13E
330
1F
100
AcDbEntity
  8
0
370
    15
100
AcDbSpline
210
0.0
220
0.0
230
1.0
 70
     8
 71
     3
 72
     8
 73
     4
 74
     0
 42
0.0000000001
 43
0.0000000001
 40
0.0
 40
0.0
 40
0.0
 40
0.0
 40
1.0
 40
1.0
 40
1.0
 40
1.0
 10
-2.18614
 20
1.85132
 30
0.0
 10
-2.18614
 20
1.91945
 30
0.0
 10
-2.19774
 20
1.98709
 30
0.0
 10
-2.22045
 20
2.05132
 30
0.0
  0
SPLINE
  5
13F
330
1F
100
AcDbEntity
  8
0
370
    15
100
AcDbSpline
210
0.0
220
0.0
230
1.0
 70
    24
 71
     3
 72
     8
 73
     4
 74
     0
 42
0.0000000001
 43
0.0000000001
 40
0.0
 40
0.0
 40
0.0
 40
0.0
 40
1.0
 40
1.0
 40
1.0
 40
1.0
 10
-2.22045
 20
1.40132
 30
0.0
 10
-2.22045
 20
1.40132
 30
0.0
 10
-2.22045
 20
1.50132
 30
0.0
 10
-2.22045
 20
1.50132
 30
0.0
  0
SPLINE
  5
140
330
1F
100
AcDbEntity
  8
0
370
    15
100
AcDbSpline
210
0.0
220
0.0
230
1.0
 70
     8
 71
     3
 72
    12
 73
     8
 74
     0
 42
0.0000000001
 43
0.0000000001
 40
0.0
 40
0.0
 40
0.0
 40
0.0
 40
0.3333333333333333
 40
0.3333333333333333
 40
0.3333333333333333
 40
0.3333333333333333
 40
1.0
 40
1.0
 40
1.0
 40
1.0
 10
-2.22045
 20
1.40132
 30
0.0
 10
-2.22045
 20
1.3748
 30
0.0
 10
-2.20992
 20
1.34936
 30
0.0
 10
-2.19116
 20
1.33061
 30
0.0
 10
-2.19116
 20
1.33061
 30
0.0
 10
-2.17241
 20
1.31186
 30
0.0
 10
-2.14697
 20
1.30132
 30
0.0
 10
-2.12045
 20
1.30132
 30
0.0
  0
SPLINE
  5
141
330
1F
100
AcDbEntity
  8
0
370
    15
100
AcDbSpline
210
0.0
220
0.0
230
1.0
 70
    24
 71
     3
 72
     8
 73
     4
 74
     0
 42
0.0000000001
 43
0.0000000001
 40
0.0
 40
0.0
 40
0.0
 40
0.0
 40
1.0
 40
1.0
 40
1.0
 40
1.0
 10
-2.10616
 20
1.30132
 30
0.0
 10
-2.10616
 20
1.30132
 30
0.0
 10
-2.12045
 20
1.30132
 30
0.0
 10
-2.12045
 20
1.30132
 30
0.0
  0
SPLINE
  5
142
330
1F
100
AcDbEntity
  8
0
370
    15
100
AcDbSpline
210
0.0
220
0.0
230
1.0
 70
     8
 71
     3
 72
     8
 73
     4
 74
     0
 42
0.0000000001
 43
0.0000000001
 40
0.0
 40
0.0
 40
0.0
 40
0.0
 40
1.0
 40
1.0
 40
1.0
 40
1.0
 10
-3.35324
 20
-1.67978
 30
0.0
 10
-3.36426
 20
-1.67575
 30
0.0
 10
-3.37591
 20
-1.67368
 30
0.0
 10
-3.38764
 20
-1.67368
 30
0.0
  0
SPLINE
  5
143
330
1F
100
AcDbEntity
  8
0
370
    15
100
AcDbSpline
210
0.0
220
0.0
230
1.0
 70
    24
 71
     3
 72
     8
 73
     4
 74
     0
 42
0.0000000001
 43
0.0000000001
 40
0.0
 40
0.0
 40
0.0
 40
0.0
 40
1.0
 40
1.0
 40
1.0
 40
1.0
 10
-4.35326
 20
-1.67368
 30
0.0
 10
-4.35326
 20
-1.67368
 30
0.0
 10
-3.38764
 20
-1.67368
 30
0.0
 10
-3.38764
 20
-1.67368
 30
0.0
  0
SPLINE
  5
144
330
1F
100
AcDbEntity
  8
0
370
    15
100
AcDbSpline
210
0.0
220
0.0
230
1.0
 70
     8
 71
     3
 72
     8
 73
     4
 74
     0
 42
0.0000000001
 43
0.0000000001
 40
0.0
 40
0.0
 40
0.0
 40
0.0
 40
1.0
 40
1.0
 40
1.0
 40
1.0
 10
-4.35326
 20
-1.67368
 30
0.0
 10
-4.365
 20
-1.67368
 30
0.0
 10
-4.37664
 20
-1.67575
 30
0.0
 10
-4.38766
 20
-1.67978
 30
0.0
  0
SPLINE
  5
145
330
1F
100
AcDbEntity
  8
0
370
    15
100
AcDbSpline
210
0.0
220
0.0
230
1.0
 70
    24
 71
     3
 72
     8
 73
     4
 74
     0
 42
0.0000000001
 43
0.0000000001
 40
0.0
 40
0.0
 40
0.0
 40
0.0
 40
1.0
 40
1.0
 40
1.0
 40
1.0
 10
-5.62045
 20
1.30132
 30
0.0
 10
-5.62045
 20
1.30132
 30
0.0
 10
-5.63474
 20
1.30132
 30
0.0
 10
-5.63474
 20
1.30132
 30
0.0
  0
SPLINE
  5
146
330
1F
100
AcDbEntity
  8
0
370
    15
100
AcDbSpline
210
0.0
220
0.0
230
1.0
 70
     8
 71
     3
 72
     8
 73
     4
 74
     0
 42
0.0000000001
 43
0.0000000001
 40
0.0
 40
0.0
 40
0.0
 40
0.0
 40
1.0
 40
1.0
 40
1.0
 40
1.0
 10
-5.62045
 20
1.30132
 30
0.0
 10
-5.56522
 20
1.30132
 30
0.0
 10
-5.52045
 20
1.34609
 30
0.0
 10
-5.52045
 20
1.40132
 30
0.0
  0
SPLINE
  5
147
330
1F
100
AcDbEntity
  8
0
370
    15
100
AcDbSpline
210
0.0
220
0.0
230
1.0
 70
    24
 71
     3
 72
     8
 73
     4
 74
     0
 42
0.0000000001
 43
0.0000000001
 40
0.0
 40
0.0
 40
0.0
 40
0.0
 40
1.0
 40
1.0
 40
1.0
 40
1.0
 10
-5.52045
 20
1.40132
 30
0.0
 10
-5.52045
 20
1.40132
 30
0.0
 10
-5.52045
 20
1.50132
 30
0.0
 10
-5.52045
 20
1.50132
 30
0.0
  0
SPLINE
  5
148
330
1F
100
AcDbEntity
  8
0
370
    15
100
AcDbSpline
210
0.0
220
0.0
230
1.0
 70
    24
 71
     3
 72
     8
 73
     4
 74
     0
 42
0.0000000001
 43
0.0000000001
 40
0.0
 40
0.0
 40
0.0
 40
0.0
 40
1.0
 40
1.0
 40
1.0
 40
1.0
 10
-2.42045
 20
1.92188
 30
0.0
 10
-2.42045
 20
1.92188
 30
0.0
 10
-2.42045
 20
1.93144
 30
0.0
 10
-2.42045
 20
1.93144
 30
0.0
  0
SPLINE
  5
149
330
1F
100
AcDbEntity
  8
0
370
    15
100
AcDbSpline
210
0.0
220
0.0
230
1.0
 70
     8
 71
     3
 72
    24
 73
    20
 74
     0
 42
0.0000000001
 43
0.0000000001
 40
0.0
 40
0.0
 40
0.0
 40
0.0
 40
0.1666666666666667
 40
0.1666666666666667
 40
0.1666666666666667
 40
0.1666666666666667
 40
0.3333333333333333
 40
0.3333333333333333
 40
0.3333333333333333
 40
0.3333333333333333
 40
0.5
 40
0.5
 40
0.5
 40
0.5
 40
0.6666666666666666
 40
0.6666666666666666
 40
0.6666666666666666
 40
0.6666666666666666
 40
1.0
 40
1.0
 40
1.0
 40
1.0
 10
-2.42045
 20
1.93144
 30
0.0
 10
-2.41087
 20
1.93195
 30
0.0
 10
-2.40128
 20
1.93245
 30
0.0
 10
-2.392
 20
1.93391
 30
0.0
 10
-2.392
 20
1.93391
 30
0.0
 10
-2.37788
 20
1.93612
 30
0.0
 10
-2.36445
 20
1.94052
 30
0.0
 10
-2.35228
 20
1.94579
 30
0.0
 10
-2.35228
 20
1.94579
 30
0.0
 10
-2.33458
 20
1.95347
 30
0.0
 10
-2.31957
 20
1.963
 30
0.0
 10
-2.3071
 20
1.97303
 30
0.0
 10
-2.3071
 20
1.97303
 30
0.0
 10
-2.29536
 20
1.98247
 30
0.0
 10
-2.28589
 20
1.99234
 30
0.0
 10
-2.28015
 20
2.00142
 30
0.0
 10
-2.28015
 20
2.00142
 30
0.0
 10
-2.27442
 20
2.0105
 30
0.0
 10
-2.27244
 20
2.01878
 30
0.0
 10
-2.27045
 20
2.02706
 30
0.0
  0
SPLINE
  5
14A
330
1F
100
AcDbEntity
  8
0
370
    15
100
AcDbSpline
210
0.0
220
0.0
230
1.0
 70
     8
 71
     3
 72
     8
 73
     4
 74
     0
 42
0.0000000001
 43
0.0000000001
 40
0.0
 40
0.0
 40
0.0
 40
0.0
 40
1.0
 40
1.0
 40
1.0
 40
1.0
 10
-2.27045
 20
2.02706
 30
0.0
 10
-2.27022
 20
2.02039
 30
0.0
 10
-2.26463
 20
2.01516
 30
0.0
 10
-2.25795
 20
2.01538
 30
0.0
  0
SPLINE
  5
14B
330
1F
100
AcDbEntity
  8
0
370
    15
100
AcDbSpline
210
0.0
220
0.0
230
1.0
 70
     8
 71
     3
 72
     8
 73
     4
 74
     0
 42
0.0000000001
 43
0.0000000001
 40
0.0
 40
0.0
 40
0.0
 40
0.0
 40
1.0
 40
1.0
 40
1.0
 40
1.0
 10
-5.48295
 20
2.01538
 30
0.0
 10
-5.47628
 20
2.01516
 30
0.0
 10
-5.47068
 20
2.02039
 30
0.0
 10
-5.47045
 20
2.02706
 30
0.0
  0
SPLINE
  5
14C
330
1F
100
AcDbEntity
  8
0
370
    15
100
AcDbSpline
210
0.0
220
0.0
230
1.0
 70
     8
 71
     3
 72
    24
 73
    20
 74
     0
 42
0.0000000001
 43
0.0000000001
 40
0.0
 40
0.0
 40
0.0
 40
0.0
 40
0.1666666666666667
 40
0.1666666666666667
 40
0.1666666666666667
 40
0.1666666666666667
 40
0.3333333333333333
 40
0.3333333333333333
 40
0.3333333333333333
 40
0.3333333333333333
 40
0.5
 40
0.5
 40
0.5
 40
0.5
 40
0.6666666666666666
 40
0.6666666666666666
 40
0.6666666666666666
 40
0.6666666666666666
 40
1.0
 40
1.0
 40
1.0
 40
1.0
 10
-5.47045
 20
2.02706
 30
0.0
 10
-5.46833
 20
2.01845
 30
0.0
 10
-5.4662
 20
2.00984
 30
0.0
 10
-5.46003
 20
2.00038
 30
0.0
 10
-5.46003
 20
2.00038
 30
0.0
 10
-5.45416
 20
1.99138
 30
0.0
 10
-5.44463
 20
1.98161
 30
0.0
 10
-5.43298
 20
1.97236
 30
0.0
 10
-5.43298
 20
1.97236
 30
0.0
 10
-5.42342
 20
1.96478
 30
0.0
 10
-5.41245
 20
1.95755
 30
0.0
 10
-5.39987
 20
1.95106
 30
0.0
 10
-5.39987
 20
1.95106
 30
0.0
 10
-5.38866
 20
1.94527
 30
0.0
 10
-5.37617
 20
1.94007
 30
0.0
 10
-5.36271
 20
1.9369
 30
0.0
 10
-5.36271
 20
1.9369
 30
0.0
 10
-5.34927
 20
1.93373
 30
0.0
 10
-5.33486
 20
1.93259
 30
0.0
 10
-5.32045
 20
1.93144
 30
0.0
  0
SPLINE
  5
14D
330
1F
100
AcDbEntity
  8
0
370
    15
100
AcDbSpline
210
0.0
220
0.0
230
1.0
 70
    24
 71
     3
 72
     8
 73
     4
 74
     0
 42
0.0000000001
 43
0.0000000001
 40
0.0
 40
0.0
 40
0.0
 40
0.0
 40
1.0
 40
1.0
 40
1.0
 40
1.0
 10
-5.32045
 20
1.92188
 30
0.0
 10
-5.32045
 20
1.92188
 30
0.0
 10
-5.32045
 20
1.93144
 30
0.0
 10
-5.32045
 20
1.93144
 30
0.0
  0
SPLINE
  5
14E
330
1F
100
AcDbEntity
  8
0
370
    15
100
AcDbSpline
210
0.0
220
0.0
230
1.0
 70
    24
 71
     3
 72
     8
 73
     4
 74
     0
 42
0.0000000001
 43
0.0000000001
 40
0.0
 40
0.0
 40
0.0
 40
0.0
 40
1.0
 40
1.0
 40
1.0
 40
1.0
 10
-5.32045
 20
1.93144
 30
0.0
 10
-5.32045
 20
1.93144
 30
0.0
 10
-2.42045
 20
1.93144
 30
0.0
 10
-2.42045
 20
1.93144
 30
0.0
  0
SPLINE
  5
14F
330
1F
100
AcDbEntity
  8
0
370
    15
100
AcDbSpline
210
0.0
220
0.0
230
1.0
 70
    24
 71
     3
 72
     8
 73
     4
 74
     0
 42
0.0000000001
 43
0.0000000001
 40
0.0
 40
0.0
 40
0.0
 40
0.0
 40
1.0
 40
1.0
 40
1.0
 40
1.0
 10
-5.32045
 20
2.15132
 30
0.0
 10
-5.32045
 20
2.15132
 30
0.0
 10
-2.42045
 20
2.15132
 30
0.0
 10
-2.42045
 20
2.15132
 30
0.0
  0
SPLINE
  5
150
330
1F
100
AcDbEntity
  8
0
370
    15
100
AcDbSpline
210
0.0
220
0.0
230
1.0
 70
    24
 71
     3
 72
     8
 73
     4
 74
     0
 42
0.0000000001
 43
0.0000000001
 40
0.0
 40
0.0
 40
0.0
 40
0.0
 40
1.0
 40
1.0
 40
1.0
 40
1.0
 10
-2.42045
 20
1.93144
 30
0.0
 10
-2.42045
 20
1.93144
 30
0.0
 10
-2.42045
 20
2.15132
 30
0.0
 10
-2.42045
 20
2.15132
 30
0.0
  0
SPLINE
  5
151
330
1F
100
AcDbEntity
  8
0
370
    15
100
AcDbSpline
210
0.0
220
0.0
230
1.0
 70
    24
 71
     3
 72
     8
 73
     4
 74
     0
 42
0.0000000001
 43
0.0000000001
 40
0.0
 40
0.0
 40
0.0
 40
0.0
 40
1.0
 40
1.0
 40
1.0
 40
1.0
 10
-5.32045
 20
2.15132
 30
0.0
 10
-5.32045
 20
2.15132
 30
0.0
 10
-5.32045
 20
1.93144
 30
0.0
 10
-5.32045
 20
1.93144
 30
0.0
  0
SPLINE
  5
152
330
1F
100
AcDbEntity
  8
0
370
    15
100
AcDbSpline
210
0.0
220
0.0
230
1.0
 70
    24
 71
     3
 72
     8
 73
     4
 74
     0
 42
0.0000000001
 43
0.0000000001
 40
0.0
 40
0.0
 40
0.0
 40
0.0
 40
1.0
 40
1.0
 40
1.0
 40
1.0
 10
-5.47045
 20
2.15132
 30
0.0
 10
-5.47045
 20
2.15132
 30
0.0
 10
-5.32045
 20
2.15132
 30
0.0
 10
-5.32045
 20
2.15132
 30
0.0
  0
SPLINE
  5
153
330
1F
100
AcDbEntity
  8
0
370
    15
100
AcDbSpline
210
0.0
220
0.0
230
1.0
 70
    24
 71
     3
 72
     8
 73
     4
 74
     0
 42
0.0000000001
 43
0.0000000001
 40
0.0
 40
0.0
 40
0.0
 40
0.0
 40
1.0
 40
1.0
 40
1.0
 40
1.0
 10
-5.47045
 20
2.02706
 30
0.0
 10
-5.47045
 20
2.02706
 30
0.0
 10
-5.47045
 20
2.15132
 30
0.0
 10
-5.47045
 20
2.15132
 30
0.0
  0
SPLINE
  5
154
330
1F
100
AcDbEntity
  8
0
370
    15
100
AcDbSpline
210
0.0
220
0.0
230
1.0
 70
    24
 71
     3
 72
     8
 73
     4
 74
     0
 42
0.0000000001
 43
0.0000000001
 40
0.0
 40
0.0
 40
0.0
 40
0.0
 40
1.0
 40
1.0
 40
1.0
 40
1.0
 10
-2.42045
 20
2.15132
 30
0.0
 10
-2.42045
 20
2.15132
 30
0.0
 10
-2.27045
 20
2.15132
 30
0.0
 10
-2.27045
 20
2.15132
 30
0.0
  0
SPLINE
  5
155
330
1F
100
AcDbEntity
  8
0
370
    15
100
AcDbSpline
210
0.0
220
0.0
230
1.0
 70
    24
 71
     3
 72
     8
 73
     4
 74
     0
 42
0.0000000001
 43
0.0000000001
 40
0.0
 40
0.0
 40
0.0
 40
0.0
 40
1.0
 40
1.0
 40
1.0
 40
1.0
 10
-2.27045
 20
2.15132
 30
0.0
 10
-2.27045
 20
2.15132
 30
0.0
 10
-2.27045
 20
2.02706
 30
0.0
 10
-2.27045
 20
2.02706
 30
0.0
  0
SPLINE
  5
156
330
1F
100
AcDbEntity
  8
0
370
    15
100
AcDbSpline
210
0.0
220
0.0
230
1.0
 70
     8
 71
     3
 72
    12
 73
     8
 74
     0
 42
0.0000000001
 43
0.0000000001
 40
0.0
 40
0.0
 40
0.0
 40
0.0
 40
0.3333333333333333
 40
0.3333333333333333
 40
0.3333333333333333
 40
0.3333333333333333
 40
1.0
 40
1.0
 40
1.0
 40
1.0
 10
-2.27045
 20
2.06382
 30
0.0
 10
-2.27045
 20
2.06051
 30
0.0
 10
-2.26913
 20
2.05733
 30
0.0
 10
-2.26679
 20
2.05498
 30
0.0
 10
-2.26679
 20
2.05498
 30
0.0
 10
-2.26445
 20
2.05264
 30
0.0
 10
-2.26127
 20
2.05132
 30
0.0
 10
-2.25795
 20
2.05132
 30
0.0
  0
SPLINE
  5
157
330
1F
100
AcDbEntity
  8
0
370
    15
100
AcDbSpline
210
0.0
220
0.0
230
1.0
 70
     8
 71
     3
 72
     8
 73
     4
 74
     0
 42
0.0000000001
 43
0.0000000001
 40
0.0
 40
0.0
 40
0.0
 40
0.0
 40
1.0
 40
1.0
 40
1.0
 40
1.0
 10
-5.48295
 20
2.05132
 30
0.0
 10
-5.47605
 20
2.05132
 30
0.0
 10
-5.47045
 20
2.05692
 30
0.0
 10
-5.47045
 20
2.06382
 30
0.0
  0
SPLINE
  5
158
330
1F
100
AcDbEntity
  8
0
370
    15
100
AcDbSpline
210
0.0
220
0.0
230
1.0
 70
    24
 71
     3
 72
     8
 73
     4
 74
     0
 42
0.0000000001
 43
0.0000000001
 40
0.0
 40
0.0
 40
0.0
 40
0.0
 40
1.0
 40
1.0
 40
1.0
 40
1.0
 10
-2.59649
 20
2.15632
 30
0.0
 10
-2.59649
 20
2.15632
 30
0.0
 10
-5.14441
 20
2.15632
 30
0.0
 10
-5.14441
 20
2.15632
 30
0.0
  0
SPLINE
  5
159
330
1F
100
AcDbEntity
  8
0
370
    15
100
AcDbSpline
210
0.0
220
0.0
230
1.0
 70
    24
 71
     3
 72
     8
 73
     4
 74
     0
 42
0.0000000001
 43
0.0000000001
 40
0.0
 40
0.0
 40
0.0
 40
0.0
 40
1.0
 40
1.0
 40
1.0
 40
1.0
 10
-2.59649
 20
2.15132
 30
0.0
 10
-2.59649
 20
2.15132
 30
0.0
 10
-2.59649
 20
2.15632
 30
0.0
 10
-2.59649
 20
2.15632
 30
0.0
  0
SPLINE
  5
15A
330
1F
100
AcDbEntity
  8
0
370
    15
100
AcDbSpline
210
0.0
220
0.0
230
1.0
 70
    24
 71
     3
 72
     8
 73
     4
 74
     0
 42
0.0000000001
 43
0.0000000001
 40
0.0
 40
0.0
 40
0.0
 40
0.0
 40
1.0
 40
1.0
 40
1.0
 40
1.0
 10
-5.14441
 20
2.15632
 30
0.0
 10
-5.14441
 20
2.15632
 30
0.0
 10
-5.14441
 20
2.15132
 30
0.0
 10
-5.14441
 20
2.15132
 30
0.0
  0
SPLINE
  5
15B
330
1F
100
AcDbEntity
  8
0
370
    15
100
AcDbSpline
210
0.0
220
0.0
230
1.0
 70
    24
 71
     3
 72
     8
 73
     4
 74
     0
 42
0.0000000001
 43
0.0000000001
 40
0.0
 40
0.0
 40
0.0
 40
0.0
 40
1.0
 40
1.0
 40
1.0
 40
1.0
 10
-2.58295
 20
2.15132
 30
0.0
 10
-2.58295
 20
2.15132
 30
0.0
 10
-2.58295
 20
2.15632
 30
0.0
 10
-2.58295
 20
2.15632
 30
0.0
  0
SPLINE
  5
15C
330
1F
100
AcDbEntity
  8
0
370
    15
100
AcDbSpline
210
0.0
220
0.0
230
1.0
 70
    24
 71
     3
 72
     8
 73
     4
 74
     0
 42
0.0000000001
 43
0.0000000001
 40
0.0
 40
0.0
 40
0.0
 40
0.0
 40
1.0
 40
1.0
 40
1.0
 40
1.0
 10
-2.59649
 20
2.15632
 30
0.0
 10
-2.59649
 20
2.15632
 30
0.0
 10
-2.58295
 20
2.15632
 30
0.0
 10
-2.58295
 20
2.15632
 30
0.0
  0
SPLINE
  5
15D
330
1F
100
AcDbEntity
  8
0
370
    15
100
AcDbSpline
210
0.0
220
0.0
230
1.0
 70
    24
 71
     3
 72
     8
 73
     4
 74
     0
 42
0.0000000001
 43
0.0000000001
 40
0.0
 40
0.0
 40
0.0
 40
0.0
 40
1.0
 40
1.0
 40
1.0
 40
1.0
 10
-5.15795
 20
2.15632
 30
0.0
 10
-5.15795
 20
2.15632
 30
0.0
 10
-5.15795
 20
2.15132
 30
0.0
 10
-5.15795
 20
2.15132
 30
0.0
  0
SPLINE
  5
15E
330
1F
100
AcDbEntity
  8
0
370
    15
100
AcDbSpline
210
0.0
220
0.0
230
1.0
 70
    24
 71
     3
 72
     8
 73
     4
 74
     0
 42
0.0000000001
 43
0.0000000001
 40
0.0
 40
0.0
 40
0.0
 40
0.0
 40
1.0
 40
1.0
 40
1.0
 40
1.0
 10
-5.14441
 20
2.15632
 30
0.0
 10
-5.14441
 20
2.15632
 30
0.0
 10
-5.15795
 20
2.15632
 30
0.0
 10
-5.15795
 20
2.15632
 30
0.0
  0
SPLINE
  5
15F
330
1F
100
AcDbEntity
  8
0
 62
     8
370
    15
100
AcDbSpline
210
0.0
220
0.0
230
1.0
 70
    24
 71
     3
 72
     8
 73
     4
 74
     0
 42
0.0000000001
 43
0.0000000001
 40
0.0
 40
0.0
 40
0.0
 40
0.0
 40
1.0
 40
1.0
 40
1.0
 40
1.0
 10
-5.52045
 20
1.50132
 30
0.0
 10
-5.52045
 20
1.50132
 30
0.0
 10
-5.55477
 20
1.50132
 30
0.0
 10
-5.55477
 20
1.50132
 30
0.0
  0
SPLINE
  5
160
330
1F
100
AcDbEntity
  8
0
 62
     8
370
    15
100
AcDbSpline
210
0.0
220
0.0
230
1.0
 70
    24
 71
     3
 72
     8
 73
     4
 74
     0
 42
0.0000000001
 43
0.0000000001
 40
0.0
 40
0.0
 40
0.0
 40
0.0
 40
1.0
 40
1.0
 40
1.0
 40
1.0
 10
-2.22045
 20
1.50132
 30
0.0
 10
-2.22045
 20
1.50132
 30
0.0
 10
-2.18614
 20
1.50132
 30
0.0
 10
-2.18614
 20
1.50132
 30
0.0
  0
SPLINE
  5
161
330
1F
100
AcDbEntity
  8
0
 62
     8
370
    15
100
AcDbSpline
210
0.0
220
0.0
230
1.0
 70
    24
 71
     3
 72
     8
 73
     4
 74
     0
 42
0.0000000001
 43
0.0000000001
 40
0.0
 40
0.0
 40
0.0
 40
0.0
 40
1.0
 40
1.0
 40
1.0
 40
1.0
 10
-5.52045
 20
1.40132
 30
0.0
 10
-5.52045
 20
1.40132
 30
0.0
 10
-5.55477
 20
1.40132
 30
0.0
 10
-5.55477
 20
1.40132
 30
0.0
  0
SPLINE
  5
162
330
1F
100
AcDbEntity
  8
0
 62
     8
370
    15
100
AcDbSpline
210
0.0
220
0.0
230
1.0
 70
    24
 71
     3
 72
     8
 73
     4
 74
     0
 42
0.0000000001
 43
0.0000000001
 40
0.0
 40
0.0
 40
0.0
 40
0.0
 40
1.0
 40
1.0
 40
1.0
 40
1.0
 10
-2.22045
 20
1.40132
 30
0.0
 10
-2.22045
 20
1.40132
 30
0.0
 10
-2.18614
 20
1.40132
 30
0.0
 10
-2.18614
 20
1.40132
 30
0.0
  0
SPLINE
  5
163
330
1F
100
AcDbEntity
  8
0
 62
     8
370
    15
100
AcDbSpline
210
0.0
220
0.0
230
1.0
 70
    24
 71
     3
 72
     8
 73
     4
 74
     0
 42
0.0000000001
 43
0.0000000001
 40
0.0
 40
0.0
 40
0.0
 40
0.0
 40
1.0
 40
1.0
 40
1.0
 40
1.0
 10
-2.12045
 20
1.30132
 30
0.0
 10
-2.12045
 20
1.30132
 30
0.0
 10
-2.12045
 20
1.33564
 30
0.0
 10
-2.12045
 20
1.33564
 30
0.0
  0
SPLINE
  5
164
330
1F
100
AcDbEntity
  8
0
 62
     8
370
    15
100
AcDbSpline
210
0.0
220
0.0
230
1.0
 70
    24
 71
     3
 72
     8
 73
     4
 74
     0
 42
0.0000000001
 43
0.0000000001
 40
0.0
 40
0.0
 40
0.0
 40
0.0
 40
1.0
 40
1.0
 40
1.0
 40
1.0
 10
-5.62045
 20
1.30132
 30
0.0
 10
-5.62045
 20
1.30132
 30
0.0
 10
-5.62045
 20
1.33564
 30
0.0
 10
-5.62045
 20
1.33564
 30
0.0
  0
SPLINE
  5
165
330
1F
100
AcDbEntity
  8
0
 62
     8
370
    15
100
AcDbSpline
210
0.0
220
0.0
230
1.0
 70
    24
 71
     3
 72
     8
 73
     4
 74
     0
 42
0.0000000001
 43
0.0000000001
 40
0.0
 40
0.0
 40
0.0
 40
0.0
 40
1.0
 40
1.0
 40
1.0
 40
1.0
 10
-5.87045
 20
1.31628
 30
0.0
 10
-5.87045
 20
1.31628
 30
0.0
 10
-5.87045
 20
1.33564
 30
0.0
 10
-5.87045
 20
1.33564
 30
0.0
  0
SPLINE
  5
166
330
1F
100
AcDbEntity
  8
0
 62
     8
370
    15
100
AcDbSpline
210
0.0
220
0.0
230
1.0
 70
    24
 71
     3
 72
     8
 73
     4
 74
     0
 42
0.0000000001
 43
0.0000000001
 40
0.0
 40
0.0
 40
0.0
 40
0.0
 40
1.0
 40
1.0
 40
1.0
 40
1.0
 10
-1.87045
 20
1.31628
 30
0.0
 10
-1.87045
 20
1.31628
 30
0.0
 10
-1.87045
 20
1.33564
 30
0.0
 10
-1.87045
 20
1.33564
 30
0.0
  0
SPLINE
  5
167
330
1F
100
AcDbEntity
  8
0
 62
     8
370
    15
100
AcDbSpline
210
0.0
220
0.0
230
1.0
 70
    24
 71
     3
 72
     8
 73
     4
 74
     0
 42
0.0000000001
 43
0.0000000001
 40
0.0
 40
0.0
 40
0.0
 40
0.0
 40
1.0
 40
1.0
 40
1.0
 40
1.0
 10
-3.32148
 20
-1.72025
 30
0.0
 10
-3.32148
 20
-1.72025
 30
0.0
 10
-3.33654
 20
-1.73241
 30
0.0
 10
-3.33654
 20
-1.73241
 30
0.0
  0
SPLINE
  5
168
330
1F
100
AcDbEntity
  8
0
 62
     8
370
    15
100
AcDbSpline
210
0.0
220
0.0
230
1.0
 70
    24
 71
     3
 72
     8
 73
     4
 74
     0
 42
0.0000000001
 43
0.0000000001
 40
0.0
 40
0.0
 40
0.0
 40
0.0
 40
1.0
 40
1.0
 40
1.0
 40
1.0
 10
-4.41943
 20
-1.72025
 30
0.0
 10
-4.41943
 20
-1.72025
 30
0.0
 10
-4.40436
 20
-1.73241
 30
0.0
 10
-4.40436
 20
-1.73241
 30
0.0
  0
SPLINE
  5
169
330
1F
100
AcDbEntity
  8
0
 62
     8
370
    15
100
AcDbSpline
210
0.0
220
0.0
230
1.0
 70
    24
 71
     3
 72
     8
 73
     4
 74
     0
 42
0.0000000001
 43
0.0000000001
 40
0.0
 40
0.0
 40
0.0
 40
0.0
 40
1.0
 40
1.0
 40
1.0
 40
1.0
 10
-4.35326
 20
-1.67368
 30
0.0
 10
-4.35326
 20
-1.67368
 30
0.0
 10
-4.35326
 20
-1.70799
 30
0.0
 10
-4.35326
 20
-1.70799
 30
0.0
  0
SPLINE
  5
16A
330
1F
100
AcDbEntity
  8
0
 62
     8
370
    15
100
AcDbSpline
210
0.0
220
0.0
230
1.0
 70
    24
 71
     3
 72
     8
 73
     4
 74
     0
 42
0.0000000001
 43
0.0000000001
 40
0.0
 40
0.0
 40
0.0
 40
0.0
 40
1.0
 40
1.0
 40
1.0
 40
1.0
 10
-3.38764
 20
-1.67368
 30
0.0
 10
-3.38764
 20
-1.67368
 30
0.0
 10
-3.38764
 20
-1.70799
 30
0.0
 10
-3.38764
 20
-1.70799
 30
0.0
  0
SPLINE
  5
16B
330
1F
100
AcDbEntity
  8
0
100
AcDbSpline
210
0.0
220
0.0
230
1.0
 70
    27
 71
     3
 72
    12
 73
     8
 74
     0
 42
0.0000000001
 43
0.0000000001
 40
0.0
 40
0.0
 40
0.0
 40
0.0
 40
0.3333333333333333
 40
0.3333333333333333
 40
0.3333333333333333
 40
0.3333333333333333
 40
1.0
 40
1.0
 40
1.0
 40
1.0
 10
-5.87045
 20
-4.10996
 30
0.0
 10
-5.87045
 20
-4.10996
 30
0.0
 10
-5.54025
 20
-4.05916
 30
0.0
 10
-5.54025
 20
-4.05916
 30
0.0
 10
-5.54025
 20
-4.05916
 30
0.0
 10
-5.54025
 20
-4.05916
 30
0.0
 10
-5.87045
 20
-4.10996
 30
0.0
 10
-5.87045
 20
-4.10996
 30
0.0
  0
SPLINE
  5
16C
330
1F
100
AcDbEntity
  8
0
100
AcDbSpline
210
0.0
220
0.0
230
1.0
 70
     8
 71
     3
 72
    12
 73
     8
 74
     0
 42
0.0000000001
 43
0.0000000001
 40
0.0
 40
0.0
 40
0.0
 40
0.0
 40
0.3333333333333333
 40
0.3333333333333333
 40
0.3333333333333333
 40
0.3333333333333333
 40
1.0
 40
1.0
 40
1.0
 40
1.0
 10
-5.54025
 20
-4.05916
 30
0.0
 10
-5.54025
 20
-4.05916
 30
0.0
 10
-5.54025
 20
-4.16076
 30
0.0
 10
-5.54025
 20
-4.16076
 30
0.0
 10
-5.54025
 20
-4.16076
 30
0.0
 10
-5.54025
 20
-4.16076
 30
0.0
 10
-5.87045
 20
-4.10996
 30
0.0
 10
-5.87045
 20
-4.10996
 30
0.0
  0
SPLINE
  5
16D
330
1F
100
AcDbEntity
  8
0
370
     9
100
AcDbSpline
210
0.0
220
0.0
230
1.0
 70
    24
 71
     3
 72
     8
 73
     4
 74
     0
 42
0.0000000001
 43
0.0000000001
 40
0.0
 40
0.0
 40
0.0
 40
0.0
 40
1.0
 40
1.0
 40
1.0
 40
1.0
 10
-5.87045
 20
-4.10996
 30
0.0
 10
-5.87045
 20
-4.10996
 30
0.0
 10
-5.54025
 20
-4.05916
 30
0.0
 10
-5.54025
 20
-4.05916
 30
0.0
  0
SPLINE
  5
16E
330
1F
100
AcDbEntity
  8
0
370
     9
100
AcDbSpline
210
0.0
220
0.0
230
1.0
 70
     8
 71
     3
 72
    12
 73
     8
 74
     0
 42
0.0000000001
 43
0.0000000001
 40
0.0
 40
0.0
 40
0.0
 40
0.0
 40
0.3333333333333333
 40
0.3333333333333333
 40
0.3333333333333333
 40
0.3333333333333333
 40
1.0
 40
1.0
 40
1.0
 40
1.0
 10
-5.54025
 20
-4.05916
 30
0.0
 10
-5.54025
 20
-4.05916
 30
0.0
 10
-5.54025
 20
-4.16076
 30
0.0
 10
-5.54025
 20
-4.16076
 30
0.0
 10
-5.54025
 20
-4.16076
 30
0.0
 10
-5.54025
 20
-4.16076
 30
0.0
 10
-5.87045
 20
-4.10996
 30
0.0
 10
-5.87045
 20
-4.10996
 30
0.0
  0
SPLINE
  5
16F
330
1F
100
AcDbEntity
  8
0
100
AcDbSpline
210
0.0
220
0.0
230
1.0
 70
    27
 71
     3
 72
    12
 73
     8
 74
     0
 42
0.0000000001
 43
0.0000000001
 40
0.0
 40
0.0
 40
0.0
 40
0.0
 40
0.3333333333333333
 40
0.3333333333333333
 40
0.3333333333333333
 40
0.3333333333333333
 40
1.0
 40
1.0
 40
1.0
 40
1.0
 10
-1.87045
 20
-4.10996
 30
0.0
 10
-1.87045
 20
-4.10996
 30
0.0
 10
-2.20065
 20
-4.16076
 30
0.0
 10
-2.20065
 20
-4.16076
 30
0.0
 10
-2.20065
 20
-4.16076
 30
0.0
 10
-2.20065
 20
-4.16076
 30
0.0
 10
-1.87045
 20
-4.10996
 30
0.0
 10
-1.87045
 20
-4.10996
 30
0.0
  0
SPLINE
  5
170
330
1F
100
AcDbEntity
  8
0
100
AcDbSpline
210
0.0
220
0.0
230
1.0
 70
     8
 71
     3
 72
    12
 73
     8
 74
     0
 42
0.0000000001
 43
0.0000000001
 40
0.0
 40
0.0
 40
0.0
 40
0.0
 40
0.3333333333333333
 40
0.3333333333333333
 40
0.3333333333333333
 40
0.3333333333333333
 40
1.0
 40
1.0
 40
1.0
 40
1.0
 10
-2.20065
 20
-4.16076
 30
0.0
 10
-2.20065
 20
-4.16076
 30
0.0
 10
-2.20065
 20
-4.05916
 30
0.0
 10
-2.20065
 20
-4.05916
 30
0.0
 10
-2.20065
 20
-4.05916
 30
0.0
 10
-2.20065
 20
-4.05916
 30
0.0
 10
-1.87045
 20
-4.10996
 30
0.0
 10
-1.87045
 20
-4.10996
 30
0.0
  0
SPLINE
  5
171
330
1F
100
AcDbEntity
  8
0
370
     9
100
AcDbSpline
210
0.0
220
0.0
230
1.0
 70
    24
 71
     3
 72
     8
 73
     4
 74
     0
 42
0.0000000001
 43
0.0000000001
 40
0.0
 40
0.0
 40
0.0
 40
0.0
 40
1.0
 40
1.0
 40
1.0
 40
1.0
 10
-1.87045
 20
-4.10996
 30
0.0
 10
-1.87045
 20
-4.10996
 30
0.0
 10
-2.20065
 20
-4.16076
 30
0.0
 10
-2.20065
 20
-4.16076
 30
0.0
  0
SPLINE
  5
172
330
1F
100
AcDbEntity
  8
0
370
     9
100
AcDbSpline
210
0.0
220
0.0
230
1.0
 70
     8
 71
     3
 72
    12
 73
     8
 74
     0
 42
0.0000000001
 43
0.0000000001
 40
0.0
 40
0.0
 40
0.0
 40
0.0
 40
0.3333333333333333
 40
0.3333333333333333
 40
0.3333333333333333
 40
0.3333333333333333
 40
1.0
 40
1.0
 40
1.0
 40
1.0
 10
-2.20065
 20
-4.16076
 30
0.0
 10
-2.20065
 20
-4.16076
 30
0.0
 10
-2.20065
 20
-4.05916
 30
0.0
 10
-2.20065
 20
-4.05916
 30
0.0
 10
-2.20065
 20
-4.05916
 30
0.0
 10
-2.20065
 20
-4.05916
 30
0.0
 10
-1.87045
 20
-4.10996
 30
0.0
 10
-1.87045
 20
-4.10996
 30
0.0
  0
SPLINE
  5
173
330
1F
100
AcDbEntity
  8
0
370
     9
100
AcDbSpline
210
0.0
220
0.0
230
1.0
 70
    24
 71
     3
 72
     8
 73
     4
 74
     0
 42
0.0000000001
 43
0.0000000001
 40
0.0
 40
0.0
 40
0.0
 40
0.0
 40
1.0
 40
1.0
 40
1.0
 40
1.0
 10
-5.87045
 20
-0.64868
 30
0.0
 10
-5.87045
 20
-0.64868
 30
0.0
 10
-5.87045
 20
-4.20996
 30
0.0
 10
-5.87045
 20
-4.20996
 30
0.0
  0
SPLINE
  5
174
330
1F
100
AcDbEntity
  8
0
370
     9
100
AcDbSpline
210
0.0
220
0.0
230
1.0
 70
    24
 71
     3
 72
     8
 73
     4
 74
     0
 42
0.0000000001
 43
0.0000000001
 40
0.0
 40
0.0
 40
0.0
 40
0.0
 40
1.0
 40
1.0
 40
1.0
 40
1.0
 10
-1.87045
 20
-0.64868
 30
0.0
 10
-1.87045
 20
-0.64868
 30
0.0
 10
-1.87045
 20
-4.20996
 30
0.0
 10
-1.87045
 20
-4.20996
 30
0.0
  0
SPLINE
  5
175
330
1F
100
AcDbEntity
  8
0
370
     9
100
AcDbSpline
210
0.0
220
0.0
230
1.0
 70
    24
 71
     3
 72
     8
 73
     4
 74
     0
 42
0.0000000001
 43
0.0000000001
 40
0.0
 40
0.0
 40
0.0
 40
0.0
 40
1.0
 40
1.0
 40
1.0
 40
1.0
 10
-5.87045
 20
-4.10996
 30
0.0
 10
-5.87045
 20
-4.10996
 30
0.0
 10
-1.87045
 20
-4.10996
 30
0.0
 10
-1.87045
 20
-4.10996
 30
0.0
  0
SPLINE
  5
176
330
1F
100
AcDbEntity
  8
0
100
AcDbSpline
210
0.0
220
0.0
230
1.0
 70
    11
 71
     3
 72
    68
 73
    64
 74
     0
 42
0.0000000001
 43
0.0000000001
 40
0.0
 40
0.0
 40
0.0
 40
0.0
 40
0.0588235294117647
 40
0.0588235294117647
 40
0.0588235294117647
 40
0.0588235294117647
 40
0.1176470588235294
 40
0.1176470588235294
 40
0.1176470588235294
 40
0.1176470588235294
 40
0.1764705882352941
 40
0.1764705882352941
 40
0.1764705882352941
 40
0.1764705882352941
 40
0.2352941176470588
 40
0.2352941176470588
 40
0.2352941176470588
 40
0.2352941176470588
 40
0.2941176470588235
 40
0.2941176470588235
 40
0.2941176470588235
 40
0.2941176470588235
 40
0.3529411764705883
 40
0.3529411764705883
 40
0.3529411764705883
 40
0.3529411764705883
 40
0.4117647058823529
 40
0.4117647058823529
 40
0.4117647058823529
 40
0.4117647058823529
 40
0.4705882352941176
 40
0.4705882352941176
 40
0.4705882352941176
 40
0.4705882352941176
 40
0.5294117647058824
 40
0.5294117647058824
 40
0.5294117647058824
 40
0.5294117647058824
 40
0.5882352941176471
 40
0.5882352941176471
 40
0.5882352941176471
 40
0.5882352941176471
 40
0.6470588235294118
 40
0.6470588235294118
 40
0.6470588235294118
 40
0.6470588235294118
 40
0.7058823529411765
 40
0.7058823529411765
 40
0.7058823529411765
 40
0.7058823529411765
 40
0.7647058823529411
 40
0.7647058823529411
 40
0.7647058823529411
 40
0.7647058823529411
 40
0.8235294117647058
 40
0.8235294117647058
 40
0.8235294117647058
 40
0.8235294117647058
 40
0.8823529411764706
 40
0.8823529411764706
 40
0.8823529411764706
 40
0.8823529411764706
 40
1.0
 40
1.0
 40
1.0
 40
1.0
 10
-4.16567
 20
-3.8398
 30
0.0
 10
-4.17844
 20
-3.83514
 30
0.0
 10
-4.18789
 20
-3.82849
 30
0.0
 10
-4.19408
 20
-3.81979
 30
0.0
 10
-4.19408
 20
-3.81979
 30
0.0
 10
-4.2002
 20
-3.81116
 30
0.0
 10
-4.20329
 20
-3.80078
 30
0.0
 10
-4.20329
 20
-3.7887
 30
0.0
 10
-4.20329
 20
-3.7887
 30
0.0
 10
-4.20329
 20
-3.77044
 30
0.0
 10
-4.19676
 20
-3.75516
 30
0.0
 10
-4.18364
 20
-3.74274
 30
0.0
 10
-4.18364
 20
-3.74274
 30
0.0
 10
-4.17051
 20
-3.73031
 30
0.0
 10
-4.15313
 20
-3.72407
 30
0.0
 10
-4.13137
 20
-3.72407
 30
0.0
 10
-4.13137
 20
-3.72407
 30
0.0
 10
-4.10949
 20
-3.72407
 30
0.0
 10
-4.09188
 20
-3.73043
 30
0.0
 10
-4.07852
 20
-3.74314
 30
0.0
 10
-4.07852
 20
-3.74314
 30
0.0
 10
-4.06522
 20
-3.75586
 30
0.0
 10
-4.05857
 20
-3.77132
 30
0.0
 10
-4.05857
 20
-3.78958
 30
0.0
 10
-4.05857
 20
-3.78958
 30
0.0
 10
-4.05857
 20
-3.80119
 30
0.0
 10
-4.0616
 20
-3.81128
 30
0.0
 10
-4.06767
 20
-3.81991
 30
0.0
 10
-4.06767
 20
-3.81991
 30
0.0
 10
-4.07379
 20
-3.82849
 30
0.0
 10
-4.08301
 20
-3.83514
 30
0.0
 10
-4.09544
 20
-3.8398
 30
0.0
 10
-4.09544
 20
-3.8398
 30
0.0
 10
-4.08009
 20
-3.84482
 30
0.0
 10
-4.06837
 20
-3.85287
 30
0.0
 10
-4.06032
 20
-3.86407
 30
0.0
 10
-4.06032
 20
-3.86407
 30
0.0
 10
-4.05233
 20
-3.87521
 30
0.0
 10
-4.0483
 20
-3.88857
 30
0.0
 10
-4.0483
 20
-3.90403
 30
0.0
 10
-4.0483
 20
-3.90403
 30
0.0
 10
-4.0483
 20
-3.92549
 30
0.0
 10
-4.05589
 20
-3.94346
 30
0.0
 10
-4.07099
 20
-3.95804
 30
0.0
 10
-4.07099
 20
-3.95804
 30
0.0
 10
-4.08616
 20
-3.97263
 30
0.0
 10
-4.10611
 20
-3.97992
 30
0.0
 10
-4.13084
 20
-3.97992
 30
0.0
 10
-4.13084
 20
-3.97992
 30
0.0
 10
-4.15558
 20
-3.97992
 30
0.0
 10
-4.17547
 20
-3.97263
 30
0.0
 10
-4.19064
 20
-3.95799
 30
0.0
 10
-4.19064
 20
-3.95799
 30
0.0
 10
-4.2058
 20
-3.94334
 30
0.0
 10
-4.21339
 20
-3.92509
 30
0.0
 10
-4.21339
 20
-3.90321
 30
0.0
 10
-4.21339
 20
-3.90321
 30
0.0
 10
-4.21339
 20
-3.88694
 30
0.0
 10
-4.20924
 20
-3.87329
 30
0.0
 10
-4.20096
 20
-3.86226
 30
0.0
 10
-4.20096
 20
-3.86226
 30
0.0
 10
-4.19274
 20
-3.85129
 30
0.0
 10
-4.18095
 20
-3.84377
 30
0.0
 10
-4.16567
 20
-3.8398
 30
0.0
  0
SPLINE
  5
177
330
1F
100
AcDbEntity
  8
0
100
AcDbSpline
210
0.0
220
0.0
230
1.0
 70
    11
 71
     3
 72
    36
 73
    32
 74
     0
 42
0.0000000001
 43
0.0000000001
 40
0.0
 40
0.0
 40
0.0
 40
0.0
 40
0.1111111111111111
 40
0.1111111111111111
 40
0.1111111111111111
 40
0.1111111111111111
 40
0.2222222222222222
 40
0.2222222222222222
 40
0.2222222222222222
 40
0.2222222222222222
 40
0.3333333333333333
 40
0.3333333333333333
 40
0.3333333333333333
 40
0.3333333333333333
 40
0.4444444444444444
 40
0.4444444444444444
 40
0.4444444444444444
 40
0.4444444444444444
 40
0.5555555555555556
 40
0.5555555555555556
 40
0.5555555555555556
 40
0.5555555555555556
 40
0.6666666666666666
 40
0.6666666666666666
 40
0.6666666666666666
 40
0.6666666666666666
 40
0.7777777777777778
 40
0.7777777777777778
 40
0.7777777777777778
 40
0.7777777777777778
 40
1.0
 40
1.0
 40
1.0
 40
1.0
 10
-4.17185
 20
-3.78765
 30
0.0
 10
-4.17185
 20
-3.79949
 30
0.0
 10
-4.168
 20
-3.80918
 30
0.0
 10
-4.16042
 20
-3.8167
 30
0.0
 10
-4.16042
 20
-3.8167
 30
0.0
 10
-4.15278
 20
-3.82423
 30
0.0
 10
-4.14286
 20
-3.82802
 30
0.0
 10
-4.13067
 20
-3.82802
 30
0.0
 10
-4.13067
 20
-3.82802
 30
0.0
 10
-4.11883
 20
-3.82802
 30
0.0
 10
-4.10909
 20
-3.82429
 30
0.0
 10
-4.1015
 20
-3.81682
 30
0.0
 10
-4.1015
 20
-3.81682
 30
0.0
 10
-4.09392
 20
-3.80935
 30
0.0
 10
-4.09019
 20
-3.80019
 30
0.0
 10
-4.09019
 20
-3.7894
 30
0.0
 10
-4.09019
 20
-3.7894
 30
0.0
 10
-4.09019
 20
-3.77809
 30
0.0
 10
-4.09404
 20
-3.76864
 30
0.0
 10
-4.10185
 20
-3.76094
 30
0.0
 10
-4.10185
 20
-3.76094
 30
0.0
 10
-4.10967
 20
-3.75324
 30
0.0
 10
-4.11935
 20
-3.74939
 30
0.0
 10
-4.13102
 20
-3.74939
 30
0.0
 10
-4.13102
 20
-3.74939
 30
0.0
 10
-4.14274
 20
-3.74939
 30
0.0
 10
-4.15249
 20
-3.75318
 30
0.0
 10
-4.16024
 20
-3.76064
 30
0.0
 10
-4.16024
 20
-3.76064
 30
0.0
 10
-4.168
 20
-3.76817
 30
0.0
 10
-4.17185
 20
-3.77721
 30
0.0
 10
-4.17185
 20
-3.78765
 30
0.0
  0
SPLINE
  5
178
330
1F
100
AcDbEntity
  8
0
100
AcDbSpline
210
0.0
220
0.0
230
1.0
 70
    11
 71
     3
 72
    40
 73
    36
 74
     0
 42
0.0000000001
 43
0.0000000001
 40
0.0
 40
0.0
 40
0.0
 40
0.0
 40
0.1
 40
0.1
 40
0.1
 40
0.1
 40
0.2
 40
0.2
 40
0.2
 40
0.2
 40
0.3
 40
0.3
 40
0.3
 40
0.3
 40
0.4
 40
0.4
 40
0.4
 40
0.4
 40
0.5
 40
0.5
 40
0.5
 40
0.5
 40
0.6
 40
0.6
 40
0.6
 40
0.6
 40
0.7
 40
0.7
 40
0.7
 40
0.7
 40
0.8
 40
0.8
 40
0.8
 40
0.8
 40
1.0
 40
1.0
 40
1.0
 40
1.0
 10
-4.18177
 20
-3.90339
 30
0.0
 10
-4.18177
 20
-3.91214
 30
0.0
 10
-4.17967
 20
-3.92065
 30
0.0
 10
-4.17553
 20
-3.92882
 30
0.0
 10
-4.17553
 20
-3.92882
 30
0.0
 10
-4.17139
 20
-3.93704
 30
0.0
 10
-4.1652
 20
-3.9434
 30
0.0
 10
-4.15698
 20
-3.94789
 30
0.0
 10
-4.15698
 20
-3.94789
 30
0.0
 10
-4.14875
 20
-3.95239
 30
0.0
 10
-4.13994
 20
-3.95466
 30
0.0
 10
-4.13049
 20
-3.95466
 30
0.0
 10
-4.13049
 20
-3.95466
 30
0.0
 10
-4.11579
 20
-3.95466
 30
0.0
 10
-4.10366
 20
-3.94994
 30
0.0
 10
-4.09409
 20
-3.94043
 30
0.0
 10
-4.09409
 20
-3.94043
 30
0.0
 10
-4.08453
 20
-3.93098
 30
0.0
 10
-4.07974
 20
-3.91896
 30
0.0
 10
-4.07974
 20
-3.90438
 30
0.0
 10
-4.07974
 20
-3.90438
 30
0.0
 10
-4.07974
 20
-3.88956
 30
0.0
 10
-4.08464
 20
-3.87731
 30
0.0
 10
-4.0945
 20
-3.86763
 30
0.0
 10
-4.0945
 20
-3.86763
 30
0.0
 10
-4.10436
 20
-3.85794
 30
0.0
 10
-4.11673
 20
-3.8531
 30
0.0
 10
-4.13154
 20
-3.8531
 30
0.0
 10
-4.13154
 20
-3.8531
 30
0.0
 10
-4.14601
 20
-3.8531
 30
0.0
 10
-4.15797
 20
-3.85789
 30
0.0
 10
-4.16748
 20
-3.86745
 30
0.0
 10
-4.16748
 20
-3.86745
 30
0.0
 10
-4.17699
 20
-3.87708
 30
0.0
 10
-4.18177
 20
-3.88904
 30
0.0
 10
-4.18177
 20
-3.90339
 30
0.0
  0
SPLINE
  5
179
330
1F
100
AcDbEntity
  8
0
100
AcDbSpline
210
0.0
220
0.0
230
1.0
 70
    11
 71
     3
 72
    52
 73
    48
 74
     0
 42
0.0000000001
 43
0.0000000001
 40
0.0
 40
0.0
 40
0.0
 40
0.0
 40
0.0769230769230769
 40
0.0769230769230769
 40
0.0769230769230769
 40
0.0769230769230769
 40
0.1538461538461539
 40
0.1538461538461539
 40
0.1538461538461539
 40
0.1538461538461539
 40
0.2307692307692308
 40
0.2307692307692308
 40
0.2307692307692308
 40
0.2307692307692308
 40
0.3076923076923077
 40
0.3076923076923077
 40
0.3076923076923077
 40
0.3076923076923077
 40
0.3846153846153846
 40
0.3846153846153846
 40
0.3846153846153846
 40
0.3846153846153846
 40
0.4615384615384616
 40
0.4615384615384616
 40
0.4615384615384616
 40
0.4615384615384616
 40
0.5384615384615384
 40
0.5384615384615384
 40
0.5384615384615384
 40
0.5384615384615384
 40
0.6153846153846154
 40
0.6153846153846154
 40
0.6153846153846154
 40
0.6153846153846154
 40
0.6923076923076923
 40
0.6923076923076923
 40
0.6923076923076923
 40
0.6923076923076923
 40
0.7692307692307693
 40
0.7692307692307693
 40
0.7692307692307693
 40
0.7692307692307693
 40
0.8461538461538461
 40
0.8461538461538461
 40
0.8461538461538461
 40
0.8461538461538461
 40
1.0
 40
1.0
 40
1.0
 40
1.0
 10
-4.01838
 20
-3.85211
 30
0.0
 10
-4.01838
 20
-3.82248
 30
0.0
 10
-4.01534
 20
-3.79862
 30
0.0
 10
-4.00922
 20
-3.78059
 30
0.0
 10
-4.00922
 20
-3.78059
 30
0.0
 10
-4.00315
 20
-3.76251
 30
0.0
 10
-3.99405
 20
-3.74857
 30
0.0
 10
-3.98203
 20
-3.73877
 30
0.0
 10
-3.98203
 20
-3.73877
 30
0.0
 10
-3.97002
 20
-3.72897
 30
0.0
 10
-3.95491
 20
-3.72407
 30
0.0
 10
-3.93671
 20
-3.72407
 30
0.0
 10
-3.93671
 20
-3.72407
 30
0.0
 10
-3.92323
 20
-3.72407
 30
0.0
 10
-3.91145
 20
-3.72681
 30
0.0
 10
-3.9013
 20
-3.73224
 30
0.0
 10
-3.9013
 20
-3.73224
 30
0.0
 10
-3.89115
 20
-3.7376
 30
0.0
 10
-3.88281
 20
-3.74542
 30
0.0
 10
-3.87616
 20
-3.75563
 30
0.0
 10
-3.87616
 20
-3.75563
 30
0.0
 10
-3.86957
 20
-3.76584
 30
0.0
 10
-3.86438
 20
-3.77826
 30
0.0
 10
-3.86064
 20
-3.7929
 30
0.0
 10
-3.86064
 20
-3.7929
 30
0.0
 10
-3.85685
 20
-3.80754
 30
0.0
 10
-3.85498
 20
-3.82726
 30
0.0
 10
-3.85498
 20
-3.85211
 30
0.0
 10
-3.85498
 20
-3.85211
 30
0.0
 10
-3.85498
 20
-3.88151
 30
0.0
 10
-3.85802
 20
-3.90519
 30
0.0
 10
-3.86403
 20
-3.92328
 30
0.0
 10
-3.86403
 20
-3.92328
 30
0.0
 10
-3.87009
 20
-3.94136
 30
0.0
 10
-3.87913
 20
-3.9553
 30
0.0
 10
-3.89115
 20
-3.96516
 30
0.0
 10
-3.89115
 20
-3.96516
 30
0.0
 10
-3.90317
 20
-3.97502
 30
0.0
 10
-3.91833
 20
-3.97992
 30
0.0
 10
-3.93671
 20
-3.97992
 30
0.0
 10
-3.93671
 20
-3.97992
 30
0.0
 10
-3.96086
 20
-3.97992
 30
0.0
 10
-3.97982
 20
-3.97129
 30
0.0
 10
-3.99358
 20
-3.95396
 30
0.0
 10
-3.99358
 20
-3.95396
 30
0.0
 10
-4.01009
 20
-3.93314
 30
0.0
 10
-4.01838
 20
-3.89913
 30
0.0
 10
-4.01838
 20
-3.85211
 30
0.0
  0
SPLINE
  5
17A
330
1F
100
AcDbEntity
  8
0
100
AcDbSpline
210
0.0
220
0.0
230
1.0
 70
    11
 71
     3
 72
    36
 73
    32
 74
     0
 42
0.0000000001
 43
0.0000000001
 40
0.0
 40
0.0
 40
0.0
 40
0.0
 40
0.1111111111111111
 40
0.1111111111111111
 40
0.1111111111111111
 40
0.1111111111111111
 40
0.2222222222222222
 40
0.2222222222222222
 40
0.2222222222222222
 40
0.2222222222222222
 40
0.3333333333333333
 40
0.3333333333333333
 40
0.3333333333333333
 40
0.3333333333333333
 40
0.4444444444444444
 40
0.4444444444444444
 40
0.4444444444444444
 40
0.4444444444444444
 40
0.5555555555555556
 40
0.5555555555555556
 40
0.5555555555555556
 40
0.5555555555555556
 40
0.6666666666666666
 40
0.6666666666666666
 40
0.6666666666666666
 40
0.6666666666666666
 40
0.7777777777777778
 40
0.7777777777777778
 40
0.7777777777777778
 40
0.7777777777777778
 40
1.0
 40
1.0
 40
1.0
 40
1.0
 10
-3.98676
 20
-3.85211
 30
0.0
 10
-3.98676
 20
-3.89324
 30
0.0
 10
-3.98192
 20
-3.92059
 30
0.0
 10
-3.97229
 20
-3.93424
 30
0.0
 10
-3.97229
 20
-3.93424
 30
0.0
 10
-3.96267
 20
-3.94784
 30
0.0
 10
-3.95083
 20
-3.95466
 30
0.0
 10
-3.93671
 20
-3.95466
 30
0.0
 10
-3.93671
 20
-3.95466
 30
0.0
 10
-3.92253
 20
-3.95466
 30
0.0
 10
-3.91069
 20
-3.94778
 30
0.0
 10
-3.90107
 20
-3.93413
 30
0.0
 10
-3.90107
 20
-3.93413
 30
0.0
 10
-3.89144
 20
-3.92048
 30
0.0
 10
-3.8866
 20
-3.89312
 30
0.0
 10
-3.8866
 20
-3.85211
 30
0.0
 10
-3.8866
 20
-3.85211
 30
0.0
 10
-3.8866
 20
-3.81087
 30
0.0
 10
-3.89144
 20
-3.78345
 30
0.0
 10
-3.90107
 20
-3.76992
 30
0.0
 10
-3.90107
 20
-3.76992
 30
0.0
 10
-3.91069
 20
-3.75633
 30
0.0
 10
-3.92265
 20
-3.74956
 30
0.0
 10
-3.937
 20
-3.74956
 30
0.0
 10
-3.937
 20
-3.74956
 30
0.0
 10
-3.95118
 20
-3.74956
 30
0.0
 10
-3.96243
 20
-3.75557
 30
0.0
 10
-3.97089
 20
-3.76753
 30
0.0
 10
-3.97089
 20
-3.76753
 30
0.0
 10
-3.98145
 20
-3.78275
 30
0.0
 10
-3.98676
 20
-3.81099
 30
0.0
 10
-3.98676
 20
-3.85211
 30
0.0
  0
ENDSEC
  0
SECTION
  2
OBJECTS
  0
DICTIONARY
  5
C
330
0
100
AcDbDictionary
281
     1
  3
ACAD_GROUP
350
D
  3
ACAD_LAYOUT
350
1A
  3
ACAD_MATERIAL
350
3B
  3
ACAD_MLEADERSTYLE
350
19C
  3
ACAD_MLINESTYLE
350
17
  3
ACAD_PLOTSETTINGS
350
19
  3
ACAD_PLOTSTYLENAME
350
E
  3
ACAD_TABLESTYLE
350
19B
  3
ACAD_VISUALSTYLE
350
2A
  0
DICTIONARY
  5
D
102
{ACAD_REACTORS
330
C
102
}
330
C
100
AcDbDictionary
281
     1
  0
DICTIONARY
  5
1A
102
{ACAD_REACTORS
330
C
102
}
330
C
100
AcDbDictionary
281
     1
  3
Layout1
350
1E
  3
Layout2
350
26
  3
Model
350
22
  0
DICTIONARY
  5
3B
102
{ACAD_REACTORS
330
C
102
}
330
C
100
AcDbDictionary
281
     1
  3
ByBlock
350
3D
  3
ByLayer
350
3C
  3
Global
350
3E
  0
DICTIONARY
  5
19C
102
{ACAD_REACTORS
330
C
102
}
330
C
100
AcDbDictionary
281
     1
  0
DICTIONARY
  5
17
102
{ACAD_REACTORS
330
C
102
}
330
C
100
AcDbDictionary
281
     1
  3
Standard
350
18
  0
DICTIONARY
  5
19
102
{ACAD_REACTORS
330
C
102
}
330
C
100
AcDbDictionary
281
     1
  0
ACDBDICTIONARYWDFLT
  5
E
102
{ACAD_REACTORS
330
C
102
}
330
C
100
AcDbDictionary
281
     1
  3
Normal
350
F
100
AcDbDictionaryWithDefault
340
F
  0
DICTIONARY
  5
19B
102
{ACAD_REACTORS
330
C
102
}
330
C
100
AcDbDictionary
281
     1
  0
DICTIONARY
  5
2A
102
{ACAD_REACTORS
330
C
102
}
330
C
100
AcDbDictionary
281
     1
  3
2dWireframe
350
2F
  3
3D Hidden
350
31
  3
3dWireframe
350
30
  3
Basic
350
32
  3
Brighten
350
36
  3
ColorChange
350
3A
  3
Conceptual
350
34
  3
Dim
350
35
  3
Facepattern
350
39
  3
Flat
350
2B
  3
FlatWithEdges
350
2C
  3
Gouraud
350
2D
  3
GouraudWithEdges
350
2E
  3
Linepattern
350
38
  3
Realistic
350
33
  3
Thicken
350
37
  0
LAYOUT
  5
1E
102
{ACAD_REACTORS
330
1A
102
}
330
1A
100
AcDbPlotSettings
  1

  2
none_device
  4

  6

 40
0.0
 41
0.0
 42
0.0
 43
0.0
 44
0.0
 45
0.0
 46
0.0
 47
0.0
 48
0.0
 49
0.0
140
0.0
141
0.0
142
1.0
143
1.0
 70
   688
 72
     0
 73
     0
 74
     5
  7

 75
    16
 76
     0
 77
     2
 78
   300
147
1.0
148
0.0
149
0.0
100
AcDbLayout
  1
Layout1
 70
     1
 71
     1
 10
0.0
 20
0.0
 11
12.0
 21
9.0
 12
0.0
 22
0.0
 32
0.0
 14
1.000000000000000E+20
 24
1.000000000000000E+20
 34
1.000000000000000E+20
 15
-1.000000000000000E+20
 25
-1.000000000000000E+20
 35
-1.000000000000000E+20
146
0.0
 13
0.0
 23
0.0
 33
0.0
 16
1.0
 26
0.0
 36
0.0
 17
0.0
 27
1.0
 37
0.0
 76
     0
330
1B
  0
LAYOUT
  5
26
102
{ACAD_REACTORS
330
1A
102
}
330
1A
100
AcDbPlotSettings
  1

  2
none_device
  4

  6

 40
0.0
 41
0.0
 42
0.0
 43
0.0
 44
0.0
 45
0.0
 46
0.0
 47
0.0
 48
0.0
 49
0.0
140
0.0
141
0.0
142
1.0
143
1.0
 70
   688
 72
     0
 73
     0
 74
     5
  7

 75
    16
 76
     0
 77
     2
 78
   300
147
1.0
148
0.0
149
0.0
100
AcDbLayout
  1
Layout2
 70
     1
 71
     2
 10
0.0
 20
0.0
 11
0.0
 21
0.0
 12
0.0
 22
0.0
 32
0.0
 14
0.0
 24
0.0
 34
0.0
 15
0.0
 25
0.0
 35
0.0
146
0.0
 13
0.0
 23
0.0
 33
0.0
 16
1.0
 26
0.0
 36
0.0
 17
0.0
 27
1.0
 37
0.0
 76
     0
330
23
  0
LAYOUT
  5
22
102
{ACAD_REACTORS
330
1A
102
}
330
1A
100
AcDbPlotSettings
  1

  2
none_device
  4

  6

 40
0.0
 41
0.0
 42
0.0
 43
0.0
 44
0.0
 45
0.0
 46
0.0
 47
0.0
 48
0.0
 49
0.0
140
0.0
141
0.0
142
1.0
143
1.0
 70
  1712
 72
     0
 73
     0
 74
     0
  7

 75
     0
 76
     0
 77
     2
 78
   300
147
1.0
148
0.0
149
0.0
100
AcDbLayout
  1
Model
 70
     1
 71
     0
 10
0.0
 20
0.0
 11
12.0
 21
9.0
 12
0.0
 22
0.0
 32
0.0
 14
-7.76227
 24
-4.20996
 34
0.0
 15
7.77248
 25
12.27654
 35
0.0
146
0.0
 13
0.0
 23
0.0
 33
0.0
 16
1.0
 26
0.0
 36
0.0
 17
0.0
 27
1.0
 37
0.0
 76
     0
330
1F
331
29
  0
MATERIAL
  5
3D
102
{ACAD_REACTORS
330
3B
102
}
330
3B
100
AcDbMaterial
  1
ByBlock
 72
     1
 94
      127
  0
MATERIAL
  5
3C
102
{ACAD_REACTORS
330
3B
102
}
330
3B
100
AcDbMaterial
  1
ByLayer
 72
     1
 94
      127
  0
MATERIAL
  5
3E
102
{ACAD_REACTORS
330
3B
102
}
330
3B
100
AcDbMaterial
  1
Global
 72
     1
 94
      127
  0
MLINESTYLE
  5
18
102
{ACAD_REACTORS
330
17
102
}
330
17
100
AcDbMlineStyle
  2
Standard
 70
     0
  3

 62
   256
 51
90.0
 52
90.0
 71
     2
 49
0.5
 62
   256
  6
BYLAYER
 49
-0.5
 62
   256
  6
BYLAYER
  0
ACDBPLACEHOLDER
  5
F
102
{ACAD_REACTORS
330
E
102
}
330
E
  0
VISUALSTYLE
  5
2F
102
{ACAD_REACTORS
330
2A
102
}
102
{ACAD_XDICTIONARY
360
183
102
}
330
2A
100
AcDbVisualStyle
  2
2dWireframe
 70
     4
 71
     0
 72
     2
 73
     0
 90
        0
 40
-0.6
 41
-30.0
 62
     5
 63
     7
421
 16777215
 74
     1
 91
        4
 64
     7
 65
   257
 75
     1
175
     1
 42
1.0
 92
        0
 66
   257
 43
1.0
 76
     1
 77
     6
 78
     2
 67
     7
 79
     5
170
     0
171
     0
290
     0
174
     0
 93
        1
 44
0.0
173
     0
291
     0
 45
0.0
  0
VISUALSTYLE
  5
31
102
{ACAD_REACTORS
330
2A
102
}
102
{ACAD_XDICTIONARY
360
187
102
}
330
2A
100
AcDbVisualStyle
  2
3D Hidden
 70
     6
 71
     1
 72
     2
 73
     2
 90
        0
 40
-0.6
 41
-30.0
 62
     5
 63
     7
421
 16777215
 74
     2
 91
        2
 64
     7
 65
   257
 75
     2
175
     1
 42
40.0
 92
        0
 66
   257
 43
1.0
 76
     1
 77
     6
 78
     2
 67
     7
 79
     3
170
     0
171
     0
290
     0
174
     0
 93
        1
 44
0.0
173
     0
291
     0
 45
0.0
  0
VISUALSTYLE
  5
30
102
{ACAD_REACTORS
330
2A
102
}
102
{ACAD_XDICTIONARY
360
185
102
}
330
2A
100
AcDbVisualStyle
  2
3dWireframe
 70
     5
 71
     0
 72
     2
 73
     0
 90
        0
 40
-0.6
 41
-30.0
 62
     5
 63
     7
421
 16777215
 74
     1
 91
        4
 64
     7
 65
   257
 75
     1
175
     1
 42
1.0
 92
        0
 66
   257
 43
1.0
 76
     1
 77
     6
 78
     2
 67
     7
 79
     5
170
     0
171
     0
290
     0
174
     0
 93
        1
 44
0.0
173
     0
291
     0
 45
0.0
  0
VISUALSTYLE
  5
32
102
{ACAD_REACTORS
330
2A
102
}
102
{ACAD_XDICTIONARY
360
189
102
}
330
2A
100
AcDbVisualStyle
  2
Basic
 70
     7
 71
     1
 72
     0
 73
     1
 90
        0
 40
-0.6
 41
-30.0
 62
     5
 63
     7
421
 16777215
 74
     0
 91
        4
 64
     7
 65
   257
 75
     1
175
     1
 42
1.0
 92
        8
 66
     7
 43
1.0
 76
     1
 77
     6
 78
     2
 67
     7
 79
     5
170
     0
171
     0
290
     0
174
     0
 93
        1
 44
0.0
173
     0
291
     1
 45
0.0
  0
VISUALSTYLE
  5
36
102
{ACAD_REACTORS
330
2A
102
}
102
{ACAD_XDICTIONARY
360
191
102
}
330
2A
100
AcDbVisualStyle
  2
Brighten
 70
    12
 71
     2
 72
     2
 73
     0
 90
        0
 40
-0.6
 41
-30.0
 62
     5
 63
     7
421
 16777215
 74
     1
 91
        4
 64
     7
 65
   257
 75
     1
175
     1
 42
1.0
 92
        8
 66
     7
 43
1.0
 76
     1
 77
     6
 78
     2
 67
     7
 79
     5
170
     0
171
     0
290
     0
174
     0
 93
        1
 44
50.0
173
     0
291
     1
 45
0.0
  0
VISUALSTYLE
  5
3A
102
{ACAD_REACTORS
330
2A
102
}
102
{ACAD_XDICTIONARY
360
199
102
}
330
2A
100
AcDbVisualStyle
  2
ColorChange
 70
    16
 71
     2
 72
     2
 73
     3
 90
        0
 40
-0.6
 41
-30.0
 62
     5
 63
     8
421
  8421504
 74
     1
 91
        4
 64
     7
 65
   257
 75
     1
175
     1
 42
1.0
 92
        8
 66
     8
424
  8421504
 43
1.0
 76
     1
 77
     6
 78
     2
 67
     7
 79
     5
170
     0
171
     0
290
     0
174
     0
 93
        1
 44
0.0
173
     0
291
     1
 45
0.0
  0
VISUALSTYLE
  5
34
102
{ACAD_REACTORS
330
2A
102
}
102
{ACAD_XDICTIONARY
360
18D
102
}
330
2A
100
AcDbVisualStyle
  2
Conceptual
 70
     9
 71
     3
 72
     2
 73
     0
 90
        0
 40
-0.6
 41
-30.0
 62
     5
 63
     7
421
 16777215
 74
     2
 91
        2
 64
     7
 65
   257
 75
     1
175
     1
 42
40.0
 92
        8
 66
     7
 43
1.0
 76
     1
 77
     6
 78
     2
 67
     7
 79
     3
170
     0
171
     0
290
     0
174
     0
 93
        1
 44
0.0
173
     0
291
     0
 45
0.0
  0
VISUALSTYLE
  5
35
102
{ACAD_REACTORS
330
2A
102
}
102
{ACAD_XDICTIONARY
360
18F
102
}
330
2A
100
AcDbVisualStyle
  2
Dim
 70
    11
 71
     2
 72
     2
 73
     0
 90
        0
 40
-0.6
 41
-30.0
 62
     5
 63
     7
421
 16777215
 74
     1
 91
        4
 64
     7
 65
   257
 75
     1
175
     1
 42
1.0
 92
        8
 66
     7
 43
1.0
 76
     1
 77
     6
 78
     2
 67
     7
 79
     5
170
     0
171
     0
290
     0
174
     0
 93
        1
 44
-50.0
173
     0
291
     1
 45
0.0
  0
VISUALSTYLE
  5
39
102
{ACAD_REACTORS
330
2A
102
}
102
{ACAD_XDICTIONARY
360
197
102
}
330
2A
100
AcDbVisualStyle
  2
Facepattern
 70
    15
 71
     2
 72
     2
 73
     0
 90
        0
 40
-0.6
 41
-30.0
 62
     5
 63
     7
421
 16777215
 74
     1
 91
        4
 64
     7
 65
   257
 75
     1
175
     1
 42
1.0
 92
        8
 66
     7
 43
1.0
 76
     1
 77
     6
 78
     2
 67
     7
 79
     5
170
     0
171
     0
290
     0
174
     0
 93
        1
 44
0.0
173
     0
291
     1
 45
0.0
  0
VISUALSTYLE
  5
2B
102
{ACAD_REACTORS
330
2A
102
}
102
{ACAD_XDICTIONARY
360
17B
102
}
330
2A
100
AcDbVisualStyle
  2
Flat
 70
     0
 71
     2
 72
     1
 73
     1
 90
        2
 40
-0.6
 41
30.0
 62
     5
 63
     7
421
 16777215
 74
     0
 91
        4
 64
     7
 65
   257
 75
     1
175
     1
 42
1.0
 92
        8
 66
     7
 43
1.0
 76
     1
 77
     6
 78
     2
 67
     7
 79
     5
170
     0
171
     0
290
     0
174
     0
 93
       13
 44
0.0
173
     0
291
     1
 45
0.0
  0
VISUALSTYLE
  5
2C
102
{ACAD_REACTORS
330
2A
102
}
102
{ACAD_XDICTIONARY
360
17D
102
}
330
2A
100
AcDbVisualStyle
  2
FlatWithEdges
 70
     1
 71
     2
 72
     1
 73
     1
 90
        2
 40
-0.6
 41
30.0
 62
     5
 63
     7
421
 16777215
 74
     1
 91
        4
 64
     7
 65
   257
 75
     1
175
     1
 42
1.0
 92
        0
 66
   257
 43
1.0
 76
     1
 77
     6
 78
     2
 67
     7
 79
     5
170
     0
171
     0
290
     0
174
     0
 93
       13
 44
0.0
173
     0
291
     1
 45
0.0
  0
VISUALSTYLE
  5
2D
102
{ACAD_REACTORS
330
2A
102
}
102
{ACAD_XDICTIONARY
360
17F
102
}
330
2A
100
AcDbVisualStyle
  2
Gouraud
 70
     2
 71
     2
 72
     2
 73
     1
 90
        2
 40
-0.6
 41
30.0
 62
     5
 63
     7
421
 16777215
 74
     0
 91
        4
 64
     7
 65
   257
 75
     1
175
     1
 42
1.0
 92
        0
 66
     7
 43
1.0
 76
     1
 77
     6
 78
     2
 67
     7
 79
     5
170
     0
171
     0
290
     0
174
     0
 93
       13
 44
0.0
173
     0
291
     1
 45
0.0
  0
VISUALSTYLE
  5
2E
102
{ACAD_REACTORS
330
2A
102
}
102
{ACAD_XDICTIONARY
360
181
102
}
330
2A
100
AcDbVisualStyle
  2
GouraudWithEdges
 70
     3
 71
     2
 72
     2
 73
     1
 90
        2
 40
-0.6
 41
30.0
 62
     5
 63
     7
421
 16777215
 74
     1
 91
        4
 64
     7
 65
   257
 75
     1
175
     1
 42
1.0
 92
        0
 66
   257
 43
1.0
 76
     1
 77
     6
 78
     2
 67
     7
 79
     5
170
     0
171
     0
290
     0
174
     0
 93
       13
 44
0.0
173
     0
291
     1
 45
0.0
  0
VISUALSTYLE
  5
38
102
{ACAD_REACTORS
330
2A
102
}
102
{ACAD_XDICTIONARY
360
195
102
}
330
2A
100
AcDbVisualStyle
  2
Linepattern
 70
    14
 71
     2
 72
     2
 73
     0
 90
        0
 40
-0.6
 41
-30.0
 62
     5
 63
     7
421
 16777215
 74
     1
 91
        4
 64
     7
 65
   257
 75
     7
175
     7
 42
1.0
 92
        8
 66
     7
 43
1.0
 76
     1
 77
     6
 78
     2
 67
     7
 79
     5
170
     0
171
     0
290
     0
174
     0
 93
        1
 44
0.0
173
     0
291
     1
 45
0.0
  0
VISUALSTYLE
  5
33
102
{ACAD_REACTORS
330
2A
102
}
102
{ACAD_XDICTIONARY
360
18B
102
}
330
2A
100
AcDbVisualStyle
  2
Realistic
 70
     8
 71
     2
 72
     2
 73
     0
 90
        0
 40
-0.6
 41
-30.0
 62
     5
 63
     7
421
 16777215
 74
     1
 91
        0
 64
     7
 65
   257
 75
     1
175
     1
 42
1.0
 92
        8
 66
     8
424
  7895160
 43
1.0
 76
     1
 77
     6
 78
     2
 67
     7
 79
     5
170
     0
171
     0
290
     0
174
     0
 93
       13
 44
0.0
173
     0
291
     0
 45
0.0
  0
VISUALSTYLE
  5
37
102
{ACAD_REACTORS
330
2A
102
}
102
{ACAD_XDICTIONARY
360
193
102
}
330
2A
100
AcDbVisualStyle
  2
Thicken
 70
    13
 71
     2
 72
     2
 73
     0
 90
        0
 40
-0.6
 41
-30.0
 62
     5
 63
     7
421
 16777215
 74
     1
 91
        4
 64
     7
 65
   257
 75
     1
175
     1
 42
1.0
 92
       12
 66
     7
 43
1.0
 76
     1
 77
     6
 78
     2
 67
     7
 79
     5
170
     0
171
     0
290
     0
174
     0
 93
        1
 44
0.0
173
     0
291
     1
 45
0.0
  0
DICTIONARY
  5
183
330
2F
100
AcDbDictionary
280
     1
281
     1
  3
ACAD_XREC_ROUNDTRIP
360
184
  0
DICTIONARY
  5
187
330
31
100
AcDbDictionary
280
     1
281
     1
  3
ACAD_XREC_ROUNDTRIP
360
188
  0
DICTIONARY
  5
185
330
30
100
AcDbDictionary
280
     1
281
     1
  3
ACAD_XREC_ROUNDTRIP
360
186
  0
DICTIONARY
  5
189
330
32
100
AcDbDictionary
280
     1
281
     1
  3
ACAD_XREC_ROUNDTRIP
360
18A
  0
DICTIONARY
  5
191
330
36
100
AcDbDictionary
280
     1
281
     1
  3
ACAD_XREC_ROUNDTRIP
360
192
  0
DICTIONARY
  5
199
330
3A
100
AcDbDictionary
280
     1
281
     1
  3
ACAD_XREC_ROUNDTRIP
360
19A
  0
DICTIONARY
  5
18D
330
34
100
AcDbDictionary
280
     1
281
     1
  3
ACAD_XREC_ROUNDTRIP
360
18E
  0
DICTIONARY
  5
18F
330
35
100
AcDbDictionary
280
     1
281
     1
  3
ACAD_XREC_ROUNDTRIP
360
190
  0
DICTIONARY
  5
197
330
39
100
AcDbDictionary
280
     1
281
     1
  3
ACAD_XREC_ROUNDTRIP
360
198
  0
DICTIONARY
  5
17B
330
2B
100
AcDbDictionary
280
     1
281
     1
  3
ACAD_XREC_ROUNDTRIP
360
17C
  0
DICTIONARY
  5
17D
330
2C
100
AcDbDictionary
280
     1
281
     1
  3
ACAD_XREC_ROUNDTRIP
360
17E
  0
DICTIONARY
  5
17F
330
2D
100
AcDbDictionary
280
     1
281
     1
  3
ACAD_XREC_ROUNDTRIP
360
180
  0
DICTIONARY
  5
181
330
2E
100
AcDbDictionary
280
     1
281
     1
  3
ACAD_XREC_ROUNDTRIP
360
182
  0
DICTIONARY
  5
195
330
38
100
AcDbDictionary
280
     1
281
     1
  3
ACAD_XREC_ROUNDTRIP
360
196
  0
DICTIONARY
  5
18B
330
33
100
AcDbDictionary
280
     1
281
     1
  3
ACAD_XREC_ROUNDTRIP
360
18C
  0
DICTIONARY
  5
193
330
37
100
AcDbDictionary
280
     1
281
     1
  3
ACAD_XREC_ROUNDTRIP
360
194
  0
XRECORD
  5
184
102
{ACAD_REACTORS
330
183
102
}
330
183
100
AcDbXrecord
280
     1
102
RTVSPropertyOp0
 70
     1
102
RTVSPropertyOp1
 70
     1
102
RTVSPropertyOp2
 70
     1
102
RTVSPropertyOp3
 70
     1
102
RTVSPropertyOp4
 70
     1
102
RTVSPropertyOp5
 70
     1
102
RTVSPropertyOp6
 70
     1
102
RTVSPropertyOp7
 70
     1
102
RTVSPropertyOp8
 70
     1
102
RTVSPropertyOp9
 70
     1
102
RTVSPropertyOp10
 70
     1
102
RTVSPropertyOp11
 70
     1
102
RTVSPropertyOp12
 70
     1
102
RTVSPropertyOp13
 70
     1
102
RTVSPropertyOp14
 70
     1
102
RTVSPropertyOp15
 70
     1
102
RTVSPropertyOp16
 70
     1
102
RTVSPropertyOp17
 70
     1
102
RTVSPropertyOp18
 70
     1
102
RTVSPropertyOp19
 70
     1
102
RTVSPropertyOp20
 70
     1
102
RTVSPropertyOp21
 70
     1
102
RTVSPropertyOp22
 70
     1
102
RTVSPropertyOp23
 70
     1
102
RTVSPropertyOp24
 70
     1
102
RTVSPropertyOp25
 70
     1
102
RTVSPropertyOp26
 70
     1
102
RTVSPropertyOp27
 70
     1
  0
XRECORD
  5
188
102
{ACAD_REACTORS
330
187
102
}
330
187
100
AcDbXrecord
280
     1
102
RTVSPropertyOp0
 70
     1
102
RTVSPropertyOp1
 70
     1
102
RTVSPropertyOp2
 70
     1
102
RTVSPropertyOp3
 70
     1
102
RTVSPropertyOp4
 70
     1
102
RTVSPropertyOp5
 70
     1
102
RTVSPropertyOp6
 70
     1
102
RTVSPropertyOp7
 70
     1
102
RTVSPropertyOp8
 70
     1
102
RTVSPropertyOp9
 70
     1
102
RTVSPropertyOp10
 70
     1
102
RTVSPropertyOp11
 70
     1
102
RTVSPropertyOp12
 70
     1
102
RTVSPropertyOp13
 70
     1
102
RTVSPropertyOp14
 70
     1
102
RTVSPropertyOp15
 70
     1
102
RTVSPropertyOp16
 70
     1
102
RTVSPropertyOp17
 70
     1
102
RTVSPropertyOp18
 70
     1
102
RTVSPropertyOp19
 70
     1
102
RTVSPropertyOp20
 70
     1
102
RTVSPropertyOp21
 70
     1
102
RTVSPropertyOp22
 70
     1
102
RTVSPropertyOp23
 70
     1
102
RTVSPropertyOp24
 70
     1
102
RTVSPropertyOp25
 70
     1
102
RTVSPropertyOp26
 70
     1
102
RTVSPropertyOp27
 70
     1
  0
XRECORD
  5
186
102
{ACAD_REACTORS
330
185
102
}
330
185
100
AcDbXrecord
280
     1
102
RTVSPropertyOp0
 70
     1
102
RTVSPropertyOp1
 70
     1
102
RTVSPropertyOp2
 70
     1
102
RTVSPropertyOp3
 70
     1
102
RTVSPropertyOp4
 70
     1
102
RTVSPropertyOp5
 70
     1
102
RTVSPropertyOp6
 70
     1
102
RTVSPropertyOp7
 70
     1
102
RTVSPropertyOp8
 70
     1
102
RTVSPropertyOp9
 70
     1
102
RTVSPropertyOp10
 70
     1
102
RTVSPropertyOp11
 70
     1
102
RTVSPropertyOp12
 70
     1
102
RTVSPropertyOp13
 70
     1
102
RTVSPropertyOp14
 70
     1
102
RTVSPropertyOp15
 70
     1
102
RTVSPropertyOp16
 70
     1
102
RTVSPropertyOp17
 70
     1
102
RTVSPropertyOp18
 70
     1
102
RTVSPropertyOp19
 70
     1
102
RTVSPropertyOp20
 70
     1
102
RTVSPropertyOp21
 70
     1
102
RTVSPropertyOp22
 70
     1
102
RTVSPropertyOp23
 70
     1
102
RTVSPropertyOp24
 70
     1
102
RTVSPropertyOp25
 70
     1
102
RTVSPropertyOp26
 70
     1
102
RTVSPropertyOp27
 70
     1
  0
XRECORD
  5
18A
102
{ACAD_REACTORS
330
189
102
}
330
189
100
AcDbXrecord
280
     1
102
RTVSPropertyOp0
 70
     1
102
RTVSPropertyOp1
 70
     1
102
RTVSPropertyOp2
 70
     1
102
RTVSPropertyOp3
 70
     1
102
RTVSPropertyOp4
 70
     1
102
RTVSPropertyOp5
 70
     1
102
RTVSPropertyOp6
 70
     1
102
RTVSPropertyOp7
 70
     1
102
RTVSPropertyOp8
 70
     1
102
RTVSPropertyOp9
 70
     1
102
RTVSPropertyOp10
 70
     1
102
RTVSPropertyOp11
 70
     1
102
RTVSPropertyOp12
 70
     1
102
RTVSPropertyOp13
 70
     1
102
RTVSPropertyOp14
 70
     1
102
RTVSPropertyOp15
 70
     1
102
RTVSPropertyOp16
 70
     1
102
RTVSPropertyOp17
 70
     1
102
RTVSPropertyOp18
 70
     1
102
RTVSPropertyOp19
 70
     1
102
RTVSPropertyOp20
 70
     1
102
RTVSPropertyOp21
 70
     1
102
RTVSPropertyOp22
 70
     1
102
RTVSPropertyOp23
 70
     1
102
RTVSPropertyOp24
 70
     1
102
RTVSPropertyOp25
 70
     1
102
RTVSPropertyOp26
 70
     1
102
RTVSPropertyOp27
 70
     1
  0
XRECORD
  5
192
102
{ACAD_REACTORS
330
191
102
}
330
191
100
AcDbXrecord
280
     1
102
RTVSPropertyOp0
 70
     1
102
RTVSPropertyOp1
 70
     1
102
RTVSPropertyOp2
 70
     1
102
RTVSPropertyOp3
 70
     1
102
RTVSPropertyOp4
 70
     1
102
RTVSPropertyOp5
 70
     1
102
RTVSPropertyOp6
 70
     1
102
RTVSPropertyOp7
 70
     1
102
RTVSPropertyOp8
 70
     1
102
RTVSPropertyOp9
 70
     1
102
RTVSPropertyOp10
 70
     1
102
RTVSPropertyOp11
 70
     1
102
RTVSPropertyOp12
 70
     1
102
RTVSPropertyOp13
 70
     1
102
RTVSPropertyOp14
 70
     1
102
RTVSPropertyOp15
 70
     1
102
RTVSPropertyOp16
 70
     1
102
RTVSPropertyOp17
 70
     1
102
RTVSPropertyOp18
 70
     1
102
RTVSPropertyOp19
 70
     1
102
RTVSPropertyOp20
 70
     1
102
RTVSPropertyOp21
 70
     1
102
RTVSPropertyOp22
 70
     1
102
RTVSPropertyOp23
 70
     1
102
RTVSPropertyOp24
 70
     1
102
RTVSPropertyOp25
 70
     1
102
RTVSPropertyOp26
 70
     1
102
RTVSPropertyOp27
 70
     1
  0
XRECORD
  5
19A
102
{ACAD_REACTORS
330
199
102
}
330
199
100
AcDbXrecord
280
     1
102
RTVSPropertyOp0
 70
     1
102
RTVSPropertyOp1
 70
     1
102
RTVSPropertyOp2
 70
     1
102
RTVSPropertyOp3
 70
     1
102
RTVSPropertyOp4
 70
     1
102
RTVSPropertyOp5
 70
     1
102
RTVSPropertyOp6
 70
     1
102
RTVSPropertyOp7
 70
     1
102
RTVSPropertyOp8
 70
     1
102
RTVSPropertyOp9
 70
     1
102
RTVSPropertyOp10
 70
     1
102
RTVSPropertyOp11
 70
     1
102
RTVSPropertyOp12
 70
     1
102
RTVSPropertyOp13
 70
     1
102
RTVSPropertyOp14
 70
     1
102
RTVSPropertyOp15
 70
     1
102
RTVSPropertyOp16
 70
     1
102
RTVSPropertyOp17
 70
     1
102
RTVSPropertyOp18
 70
     1
102
RTVSPropertyOp19
 70
     1
102
RTVSPropertyOp20
 70
     1
102
RTVSPropertyOp21
 70
     1
102
RTVSPropertyOp22
 70
     1
102
RTVSPropertyOp23
 70
     1
102
RTVSPropertyOp24
 70
     1
102
RTVSPropertyOp25
 70
     1
102
RTVSPropertyOp26
 70
     1
102
RTVSPropertyOp27
 70
     1
  0
XRECORD
  5
18E
102
{ACAD_REACTORS
330
18D
102
}
330
18D
100
AcDbXrecord
280
     1
102
RTVSPropertyOp0
 70
     1
102
RTVSPropertyOp1
 70
     1
102
RTVSPropertyOp2
 70
     1
102
RTVSPropertyOp3
 70
     1
102
RTVSPropertyOp4
 70
     1
102
RTVSPropertyOp5
 70
     1
102
RTVSPropertyOp6
 70
     1
102
RTVSPropertyOp7
 70
     1
102
RTVSPropertyOp8
 70
     1
102
RTVSPropertyOp9
 70
     1
102
RTVSPropertyOp10
 70
     1
102
RTVSPropertyOp11
 70
     1
102
RTVSPropertyOp12
 70
     1
102
RTVSPropertyOp13
 70
     1
102
RTVSPropertyOp14
 70
     1
102
RTVSPropertyOp15
 70
     1
102
RTVSPropertyOp16
 70
     1
102
RTVSPropertyOp17
 70
     1
102
RTVSPropertyOp18
 70
     1
102
RTVSPropertyOp19
 70
     1
102
RTVSPropertyOp20
 70
     1
102
RTVSPropertyOp21
 70
     1
102
RTVSPropertyOp22
 70
     1
102
RTVSPropertyOp23
 70
     1
102
RTVSPropertyOp24
 70
     1
102
RTVSPropertyOp25
 70
     1
102
RTVSPropertyOp26
 70
     1
102
RTVSPropertyOp27
 70
     1
  0
XRECORD
  5
190
102
{ACAD_REACTORS
330
18F
102
}
330
18F
100
AcDbXrecord
280
     1
102
RTVSPropertyOp0
 70
     1
102
RTVSPropertyOp1
 70
     1
102
RTVSPropertyOp2
 70
     1
102
RTVSPropertyOp3
 70
     1
102
RTVSPropertyOp4
 70
     1
102
RTVSPropertyOp5
 70
     1
102
RTVSPropertyOp6
 70
     1
102
RTVSPropertyOp7
 70
     1
102
RTVSPropertyOp8
 70
     1
102
RTVSPropertyOp9
 70
     1
102
RTVSPropertyOp10
 70
     1
102
RTVSPropertyOp11
 70
     1
102
RTVSPropertyOp12
 70
     1
102
RTVSPropertyOp13
 70
     1
102
RTVSPropertyOp14
 70
     1
102
RTVSPropertyOp15
 70
     1
102
RTVSPropertyOp16
 70
     1
102
RTVSPropertyOp17
 70
     1
102
RTVSPropertyOp18
 70
     1
102
RTVSPropertyOp19
 70
     1
102
RTVSPropertyOp20
 70
     1
102
RTVSPropertyOp21
 70
     1
102
RTVSPropertyOp22
 70
     1
102
RTVSPropertyOp23
 70
     1
102
RTVSPropertyOp24
 70
     1
102
RTVSPropertyOp25
 70
     1
102
RTVSPropertyOp26
 70
     1
102
RTVSPropertyOp27
 70
     1
  0
XRECORD
  5
198
102
{ACAD_REACTORS
330
197
102
}
330
197
100
AcDbXrecord
280
     1
102
RTVSPropertyOp0
 70
     1
102
RTVSPropertyOp1
 70
     1
102
RTVSPropertyOp2
 70
     1
102
RTVSPropertyOp3
 70
     1
102
RTVSPropertyOp4
 70
     1
102
RTVSPropertyOp5
 70
     1
102
RTVSPropertyOp6
 70
     1
102
RTVSPropertyOp7
 70
     1
102
RTVSPropertyOp8
 70
     1
102
RTVSPropertyOp9
 70
     1
102
RTVSPropertyOp10
 70
     1
102
RTVSPropertyOp11
 70
     1
102
RTVSPropertyOp12
 70
     1
102
RTVSPropertyOp13
 70
     1
102
RTVSPropertyOp14
 70
     1
102
RTVSPropertyOp15
 70
     1
102
RTVSPropertyOp16
 70
     1
102
RTVSPropertyOp17
 70
     1
102
RTVSPropertyOp18
 70
     1
102
RTVSPropertyOp19
 70
     1
102
RTVSPropertyOp20
 70
     1
102
RTVSPropertyOp21
 70
     1
102
RTVSPropertyOp22
 70
     1
102
RTVSPropertyOp23
 70
     1
102
RTVSPropertyOp24
 70
     1
102
RTVSPropertyOp25
 70
     1
102
RTVSPropertyOp26
 70
     1
102
RTVSPropertyOp27
 70
     1
  0
XRECORD
  5
17C
102
{ACAD_REACTORS
330
17B
102
}
330
17B
100
AcDbXrecord
280
     1
102
RTVSPropertyOp0
 70
     1
102
RTVSPropertyOp1
 70
     1
102
RTVSPropertyOp2
 70
     1
102
RTVSPropertyOp3
 70
     1
102
RTVSPropertyOp4
 70
     1
102
RTVSPropertyOp5
 70
     1
102
RTVSPropertyOp6
 70
     1
102
RTVSPropertyOp7
 70
     1
102
RTVSPropertyOp8
 70
     1
102
RTVSPropertyOp9
 70
     1
102
RTVSPropertyOp10
 70
     1
102
RTVSPropertyOp11
 70
     1
102
RTVSPropertyOp12
 70
     1
102
RTVSPropertyOp13
 70
     1
102
RTVSPropertyOp14
 70
     1
102
RTVSPropertyOp15
 70
     1
102
RTVSPropertyOp16
 70
     1
102
RTVSPropertyOp17
 70
     1
102
RTVSPropertyOp18
 70
     1
102
RTVSPropertyOp19
 70
     1
102
RTVSPropertyOp20
 70
     1
102
RTVSPropertyOp21
 70
     1
102
RTVSPropertyOp22
 70
     1
102
RTVSPropertyOp23
 70
     1
102
RTVSPropertyOp24
 70
     1
102
RTVSPropertyOp25
 70
     1
102
RTVSPropertyOp26
 70
     1
102
RTVSPropertyOp27
 70
     1
  0
XRECORD
  5
17E
102
{ACAD_REACTORS
330
17D
102
}
330
17D
100
AcDbXrecord
280
     1
102
RTVSPropertyOp0
 70
     1
102
RTVSPropertyOp1
 70
     1
102
RTVSPropertyOp2
 70
     1
102
RTVSPropertyOp3
 70
     1
102
RTVSPropertyOp4
 70
     1
102
RTVSPropertyOp5
 70
     1
102
RTVSPropertyOp6
 70
     1
102
RTVSPropertyOp7
 70
     1
102
RTVSPropertyOp8
 70
     1
102
RTVSPropertyOp9
 70
     1
102
RTVSPropertyOp10
 70
     1
102
RTVSPropertyOp11
 70
     1
102
RTVSPropertyOp12
 70
     1
102
RTVSPropertyOp13
 70
     1
102
RTVSPropertyOp14
 70
     1
102
RTVSPropertyOp15
 70
     1
102
RTVSPropertyOp16
 70
     1
102
RTVSPropertyOp17
 70
     1
102
RTVSPropertyOp18
 70
     1
102
RTVSPropertyOp19
 70
     1
102
RTVSPropertyOp20
 70
     1
102
RTVSPropertyOp21
 70
     1
102
RTVSPropertyOp22
 70
     1
102
RTVSPropertyOp23
 70
     1
102
RTVSPropertyOp24
 70
     1
102
RTVSPropertyOp25
 70
     1
102
RTVSPropertyOp26
 70
     1
102
RTVSPropertyOp27
 70
     1
  0
XRECORD
  5
180
102
{ACAD_REACTORS
330
17F
102
}
330
17F
100
AcDbXrecord
280
     1
102
RTVSPropertyOp0
 70
     1
102
RTVSPropertyOp1
 70
     1
102
RTVSPropertyOp2
 70
     1
102
RTVSPropertyOp3
 70
     1
102
RTVSPropertyOp4
 70
     1
102
RTVSPropertyOp5
 70
     1
102
RTVSPropertyOp6
 70
     1
102
RTVSPropertyOp7
 70
     1
102
RTVSPropertyOp8
 70
     1
102
RTVSPropertyOp9
 70
     1
102
RTVSPropertyOp10
 70
     1
102
RTVSPropertyOp11
 70
     1
102
RTVSPropertyOp12
 70
     1
102
RTVSPropertyOp13
 70
     1
102
RTVSPropertyOp14
 70
     1
102
RTVSPropertyOp15
 70
     1
102
RTVSPropertyOp16
 70
     1
102
RTVSPropertyOp17
 70
     1
102
RTVSPropertyOp18
 70
     1
102
RTVSPropertyOp19
 70
     1
102
RTVSPropertyOp20
 70
     1
102
RTVSPropertyOp21
 70
     1
102
RTVSPropertyOp22
 70
     1
102
RTVSPropertyOp23
 70
     1
102
RTVSPropertyOp24
 70
     1
102
RTVSPropertyOp25
 70
     1
102
RTVSPropertyOp26
 70
     1
102
RTVSPropertyOp27
 70
     1
  0
XRECORD
  5
182
102
{ACAD_REACTORS
330
181
102
}
330
181
100
AcDbXrecord
280
     1
102
RTVSPropertyOp0
 70
     1
102
RTVSPropertyOp1
 70
     1
102
RTVSPropertyOp2
 70
     1
102
RTVSPropertyOp3
 70
     1
102
RTVSPropertyOp4
 70
     1
102
RTVSPropertyOp5
 70
     1
102
RTVSPropertyOp6
 70
     1
102
RTVSPropertyOp7
 70
     1
102
RTVSPropertyOp8
 70
     1
102
RTVSPropertyOp9
 70
     1
102
RTVSPropertyOp10
 70
     1
102
RTVSPropertyOp11
 70
     1
102
RTVSPropertyOp12
 70
     1
102
RTVSPropertyOp13
 70
     1
102
RTVSPropertyOp14
 70
     1
102
RTVSPropertyOp15
 70
     1
102
RTVSPropertyOp16
 70
     1
102
RTVSPropertyOp17
 70
     1
102
RTVSPropertyOp18
 70
     1
102
RTVSPropertyOp19
 70
     1
102
RTVSPropertyOp20
 70
     1
102
RTVSPropertyOp21
 70
     1
102
RTVSPropertyOp22
 70
     1
102
RTVSPropertyOp23
 70
     1
102
RTVSPropertyOp24
 70
     1
102
RTVSPropertyOp25
 70
     1
102
RTVSPropertyOp26
 70
     1
102
RTVSPropertyOp27
 70
     1
  0
XRECORD
  5
196
102
{ACAD_REACTORS
330
195
102
}
330
195
100
AcDbXrecord
280
     1
102
RTVSPropertyOp0
 70
     1
102
RTVSPropertyOp1
 70
     1
102
RTVSPropertyOp2
 70
     1
102
RTVSPropertyOp3
 70
     1
102
RTVSPropertyOp4
 70
     1
102
RTVSPropertyOp5
 70
     1
102
RTVSPropertyOp6
 70
     1
102
RTVSPropertyOp7
 70
     1
102
RTVSPropertyOp8
 70
     1
102
RTVSPropertyOp9
 70
     1
102
RTVSPropertyOp10
 70
     1
102
RTVSPropertyOp11
 70
     1
102
RTVSPropertyOp12
 70
     1
102
RTVSPropertyOp13
 70
     1
102
RTVSPropertyOp14
 70
     1
102
RTVSPropertyOp15
 70
     1
102
RTVSPropertyOp16
 70
     1
102
RTVSPropertyOp17
 70
     1
102
RTVSPropertyOp18
 70
     1
102
RTVSPropertyOp19
 70
     1
102
RTVSPropertyOp20
 70
     1
102
RTVSPropertyOp21
 70
     1
102
RTVSPropertyOp22
 70
     1
102
RTVSPropertyOp23
 70
     1
102
RTVSPropertyOp24
 70
     1
102
RTVSPropertyOp25
 70
     1
102
RTVSPropertyOp26
 70
     1
102
RTVSPropertyOp27
 70
     1
  0
XRECORD
  5
18C
102
{ACAD_REACTORS
330
18B
102
}
330
18B
100
AcDbXrecord
280
     1
102
RTVSPropertyOp0
 70
     1
102
RTVSPropertyOp1
 70
     1
102
RTVSPropertyOp2
 70
     1
102
RTVSPropertyOp3
 70
     1
102
RTVSPropertyOp4
 70
     1
102
RTVSPropertyOp5
 70
     1
102
RTVSPropertyOp6
 70
     1
102
RTVSPropertyOp7
 70
     1
102
RTVSPropertyOp8
 70
     1
102
RTVSPropertyOp9
 70
     1
102
RTVSPropertyOp10
 70
     1
102
RTVSPropertyOp11
 70
     1
102
RTVSPropertyOp12
 70
     1
102
RTVSPropertyOp13
 70
     1
102
RTVSPropertyOp14
 70
     1
102
RTVSPropertyOp15
 70
     1
102
RTVSPropertyOp16
 70
     1
102
RTVSPropertyOp17
 70
     1
102
RTVSPropertyOp18
 70
     1
102
RTVSPropertyOp19
 70
     1
102
RTVSPropertyOp20
 70
     1
102
RTVSPropertyOp21
 70
     1
102
RTVSPropertyOp22
 70
     1
102
RTVSPropertyOp23
 70
     1
102
RTVSPropertyOp24
 70
     1
102
RTVSPropertyOp25
 70
     1
102
RTVSPropertyOp26
 70
     1
102
RTVSPropertyOp27
 70
     1
  0
XRECORD
  5
194
102
{ACAD_REACTORS
330
193
102
}
330
193
100
AcDbXrecord
280
     1
102
RTVSPropertyOp0
 70
     1
102
RTVSPropertyOp1
 70
     1
102
RTVSPropertyOp2
 70
     1
102
RTVSPropertyOp3
 70
     1
102
RTVSPropertyOp4
 70
     1
102
RTVSPropertyOp5
 70
     1
102
RTVSPropertyOp6
 70
     1
102
RTVSPropertyOp7
 70
     1
102
RTVSPropertyOp8
 70
     1
102
RTVSPropertyOp9
 70
     1
102
RTVSPropertyOp10
 70
     1
102
RTVSPropertyOp11
 70
     1
102
RTVSPropertyOp12
 70
     1
102
RTVSPropertyOp13
 70
     1
102
RTVSPropertyOp14
 70
     1
102
RTVSPropertyOp15
 70
     1
102
RTVSPropertyOp16
 70
     1
102
RTVSPropertyOp17
 70
     1
102
RTVSPropertyOp18
 70
     1
102
RTVSPropertyOp19
 70
     1
102
RTVSPropertyOp20
 70
     1
102
RTVSPropertyOp21
 70
     1
102
RTVSPropertyOp22
 70
     1
102
RTVSPropertyOp23
 70
     1
102
RTVSPropertyOp24
 70
     1
102
RTVSPropertyOp25
 70
     1
102
RTVSPropertyOp26
 70
     1
102
RTVSPropertyOp27
 70
     1
  0
ENDSEC
  0
EOF
