  0
SECTION
  2
HEADER
  9
$ACADVER
  1
AC1021
  9
$ACADMAINTVER
 70
    25
  9
$DWGCODEPAGE
  3
ANSI_1252
  9
$INSBASE
 10
0.0
 20
0.0
 30
0.0
  9
$EXTMIN
 10
-16.20577
 20
-9.99282
 30
0.0
  9
$EXTMAX
 10
16.41021
 20
12.89034
 30
0.0
  9
$LIMMIN
 10
0.0
 20
0.0
  9
$LIMMAX
 10
12.0
 20
9.0
  9
$ORTHOMODE
 70
     0
  9
$REGENMODE
 70
     1
  9
$FILLMODE
 70
     1
  9
$QTEXTMODE
 70
     0
  9
$MIRRTEXT
 70
     1
  9
$LTSCALE
 40
1.0
  9
$ATTMODE
 70
     1
  9
$TEXTSIZE
 40
0.2
  9
$TRACEWID
 40
0.05
  9
$TEXTSTYLE
  7
Standard
  9
$CLAYER
  8
0
  9
$CELTYPE
  6
ByLayer
  9
$CECOLOR
 62
   256
  9
$CELTSCALE
 40
1.0
  9
$DISPSILH
 70
     0
  9
$DIMSCALE
 40
1.0
  9
$DIMASZ
 40
0.18
  9
$DIMEXO
 40
0.0625
  9
$DIMDLI
 40
0.38
  9
$DIMRND
 40
0.0
  9
$DIMDLE
 40
0.0
  9
$DIMEXE
 40
0.18
  9
$DIMTP
 40
0.0
  9
$DIMTM
 40
0.0
  9
$DIMTXT
 40
0.18
  9
$DIMCEN
 40
0.09
  9
$DIMTSZ
 40
0.0
  9
$DIMTOL
 70
     0
  9
$DIMLIM
 70
     0
  9
$DIMTIH
 70
     1
  9
$DIMTOH
 70
     1
  9
$DIMSE1
 70
     0
  9
$DIMSE2
 70
     0
  9
$DIMTAD
 70
     0
  9
$DIMZIN
 70
     0
  9
$DIMBLK
  1

  9
$DIMASO
 70
     1
  9
$DIMSHO
 70
     1
  9
$DIMPOST
  1

  9
$DIMAPOST
  1

  9
$DIMALT
 70
     0
  9
$DIMALTD
 70
     2
  9
$DIMALTF
 40
25.4
  9
$DIMLFAC
 40
1.0
  9
$DIMTOFL
 70
     0
  9
$DIMTVP
 40
0.0
  9
$DIMTIX
 70
     0
  9
$DIMSOXD
 70
     0
  9
$DIMSAH
 70
     0
  9
$DIMBLK1
  1

  9
$DIMBLK2
  1

  9
$DIMSTYLE
  2
Standard
  9
$DIMCLRD
 70
     0
  9
$DIMCLRE
 70
     0
  9
$DIMCLRT
 70
     0
  9
$DIMTFAC
 40
1.0
  9
$DIMGAP
 40
0.09
  9
$DIMJUST
 70
     0
  9
$DIMSD1
 70
     0
  9
$DIMSD2
 70
     0
  9
$DIMTOLJ
 70
     1
  9
$DIMTZIN
 70
     0
  9
$DIMALTZ
 70
     0
  9
$DIMALTTZ
 70
     0
  9
$DIMUPT
 70
     0
  9
$DIMDEC
 70
     4
  9
$DIMTDEC
 70
     4
  9
$DIMALTU
 70
     2
  9
$DIMALTTD
 70
     2
  9
$DIMTXSTY
  7
Standard
  9
$DIMAUNIT
 70
     0
  9
$DIMADEC
 70
     0
  9
$DIMALTRND
 40
0.0
  9
$DIMAZIN
 70
     0
  9
$DIMDSEP
 70
    46
  9
$DIMATFIT
 70
     3
  9
$DIMFRAC
 70
     0
  9
$DIMLDRBLK
  1

  9
$DIMLUNIT
 70
     2
  9
$DIMLWD
 70
    -2
  9
$DIMLWE
 70
    -2
  9
$DIMTMOVE
 70
     0
  9
$DIMFXL
 40
1.0
  9
$DIMFXLON
 70
     0
  9
$DIMJOGANG
 40
0.7853981633974483
  9
$DIMTFILL
 70
     0
  9
$DIMTFILLCLR
 70
     0
  9
$DIMARCSYM
 70
     0
  9
$DIMLTYPE
  6

  9
$DIMLTEX1
  6

  9
$DIMLTEX2
  6

  9
$LUNITS
 70
     2
  9
$LUPREC
 70
     4
  9
$SKETCHINC
 40
0.1
  9
$FILLETRAD
 40
0.5
  9
$AUNITS
 70
     0
  9
$AUPREC
 70
     0
  9
$MENU
  1
.
  9
$ELEVATION
 40
0.0
  9
$PELEVATION
 40
0.0
  9
$THICKNESS
 40
0.0
  9
$LIMCHECK
 70
     0
  9
$CHAMFERA
 40
0.5
  9
$CHAMFERB
 40
0.5
  9
$CHAMFERC
 40
1.0
  9
$CHAMFERD
 40
0.0
  9
$SKPOLY
 70
     0
  9
$TDCREATE
 40
2456615.371519838
  9
$TDUCREATE
 40
2456615.329853171
  9
$TDUPDATE
 40
2456615.37151985
  9
$TDUUPDATE
 40
2456615.329853183
  9
$TDINDWG
 40
0.0000000116
  9
$TDUSRTIMER
 40
0.0000000116
  9
$USRTIMER
 70
     1
  9
$ANGBASE
 50
0.0
  9
$ANGDIR
 70
     0
  9
$PDMODE
 70
     0
  9
$PDSIZE
 40
0.0
  9
$PLINEWID
 40
0.0
  9
$SPLFRAME
 70
     0
  9
$SPLINETYPE
 70
     6
  9
$SPLINESEGS
 70
     8
  9
$HANDSEED
  5
223
  9
$SURFTAB1
 70
     6
  9
$SURFTAB2
 70
     6
  9
$SURFTYPE
 70
     6
  9
$SURFU
 70
     6
  9
$SURFV
 70
     6
  9
$UCSBASE
  2

  9
$UCSNAME
  2

  9
$UCSORG
 10
0.0
 20
0.0
 30
0.0
  9
$UCSXDIR
 10
1.0
 20
0.0
 30
0.0
  9
$UCSYDIR
 10
0.0
 20
1.0
 30
0.0
  9
$UCSORTHOREF
  2

  9
$UCSORTHOVIEW
 70
     0
  9
$UCSORGTOP
 10
0.0
 20
0.0
 30
0.0
  9
$UCSORGBOTTOM
 10
0.0
 20
0.0
 30
0.0
  9
$UCSORGLEFT
 10
0.0
 20
0.0
 30
0.0
  9
$UCSORGRIGHT
 10
0.0
 20
0.0
 30
0.0
  9
$UCSORGFRONT
 10
0.0
 20
0.0
 30
0.0
  9
$UCSORGBACK
 10
0.0
 20
0.0
 30
0.0
  9
$PUCSBASE
  2

  9
$PUCSNAME
  2

  9
$PUCSORG
 10
0.0
 20
0.0
 30
0.0
  9
$PUCSXDIR
 10
1.0
 20
0.0
 30
0.0
  9
$PUCSYDIR
 10
0.0
 20
1.0
 30
0.0
  9
$PUCSORTHOREF
  2

  9
$PUCSORTHOVIEW
 70
     0
  9
$PUCSORGTOP
 10
0.0
 20
0.0
 30
0.0
  9
$PUCSORGBOTTOM
 10
0.0
 20
0.0
 30
0.0
  9
$PUCSORGLEFT
 10
0.0
 20
0.0
 30
0.0
  9
$PUCSORGRIGHT
 10
0.0
 20
0.0
 30
0.0
  9
$PUCSORGFRONT
 10
0.0
 20
0.0
 30
0.0
  9
$PUCSORGBACK
 10
0.0
 20
0.0
 30
0.0
  9
$USERI1
 70
     0
  9
$USERI2
 70
     0
  9
$USERI3
 70
     0
  9
$USERI4
 70
     0
  9
$USERI5
 70
     0
  9
$USERR1
 40
0.0
  9
$USERR2
 40
0.0
  9
$USERR3
 40
0.0
  9
$USERR4
 40
0.0
  9
$USERR5
 40
0.0
  9
$WORLDVIEW
 70
     1
  9
$SHADEDGE
 70
     3
  9
$SHADEDIF
 70
    70
  9
$TILEMODE
 70
     1
  9
$MAXACTVP
 70
    64
  9
$PINSBASE
 10
0.0
 20
0.0
 30
0.0
  9
$PLIMCHECK
 70
     0
  9
$PEXTMIN
 10
1.000000000000000E+20
 20
1.000000000000000E+20
 30
1.000000000000000E+20
  9
$PEXTMAX
 10
-1.000000000000000E+20
 20
-1.000000000000000E+20
 30
-1.000000000000000E+20
  9
$PLIMMIN
 10
0.0
 20
0.0
  9
$PLIMMAX
 10
12.0
 20
9.0
  9
$UNITMODE
 70
     0
  9
$VISRETAIN
 70
     1
  9
$PLINEGEN
 70
     0
  9
$PSLTSCALE
 70
     1
  9
$TREEDEPTH
 70
  3020
  9
$CMLSTYLE
  2
Standard
  9
$CMLJUST
 70
     0
  9
$CMLSCALE
 40
1.0
  9
$PROXYGRAPHICS
 70
     1
  9
$MEASUREMENT
 70
     0
  9
$CELWEIGHT
370
    -1
  9
$ENDCAPS
280
     0
  9
$JOINSTYLE
280
     0
  9
$LWDISPLAY
290
     0
  9
$INSUNITS
 70
     5
  9
$HYPERLINKBASE
  1

  9
$STYLESHEET
  1

  9
$XEDIT
290
     1
  9
$CEPSNTYPE
380
     0
  9
$PSTYLEMODE
290
     1
  9
$FINGERPRINTGUID
  2
{59A9D058-E692-468D-93F3-10C7DFD21AB8}
  9
$VERSIONGUID
  2
{FAEB1C32-E019-11D5-929B-00C0DF256EC4}
  9
$EXTNAMES
290
     1
  9
$PSVPSCALE
 40
0.0
  9
$OLESTARTUP
290
     0
  9
$SORTENTS
280
   127
  9
$INDEXCTL
280
     0
  9
$HIDETEXT
280
     1
  9
$XCLIPFRAME
290
     0
  9
$HALOGAP
280
     0
  9
$OBSCOLOR
 70
   257
  9
$OBSLTYPE
280
     0
  9
$INTERSECTIONDISPLAY
280
     0
  9
$INTERSECTIONCOLOR
 70
   257
  9
$DIMASSOC
280
     2
  9
$PROJECTNAME
  1

  9
$CAMERADISPLAY
290
     0
  9
$LENSLENGTH
 40
50.0
  9
$CAMERAHEIGHT
 40
0.0
  9
$STEPSPERSEC
 40
2.0
  9
$STEPSIZE
 40
6.0
  9
$3DDWFPREC
 40
2.0
  9
$PSOLWIDTH
 40
0.25
  9
$PSOLHEIGHT
 40
4.0
  9
$LOFTANG1
 40
1.570796326794897
  9
$LOFTANG2
 40
1.570796326794897
  9
$LOFTMAG1
 40
0.0
  9
$LOFTMAG2
 40
0.0
  9
$LOFTPARAM
 70
     7
  9
$LOFTNORMALS
280
     1
  9
$LATITUDE
 40
37.795
  9
$LONGITUDE
 40
-122.394
  9
$NORTHDIRECTION
 40
0.0
  9
$TIMEZONE
 70
 -8000
  9
$LIGHTGLYPHDISPLAY
280
     1
  9
$TILEMODELIGHTSYNCH
280
     1
  9
$SOLIDHIST
280
     1
  9
$SHOWHIST
280
     1
  9
$DWFFRAME
280
     2
  9
$DGNFRAME
280
     2
  9
$REALWORLDSCALE
290
     1
  9
$INTERFERECOLOR
 62
   256
  9
$CSHADOW
280
     0
  9
$SHADOWPLANELOCATION
 40
0.0
  0
ENDSEC
  0
SECTION
  2
CLASSES
  0
CLASS
  1
ACDBDICTIONARYWDFLT
  2
AcDbDictionaryWithDefault
  3
ObjectDBX Classes
 90
        0
 91
        4
280
     0
281
     0
  0
CLASS
  1
VISUALSTYLE
  2
AcDbVisualStyle
  3
ObjectDBX Classes
 90
     4095
 91
        4
280
     0
281
     0
  0
CLASS
  1
MATERIAL
  2
AcDbMaterial
  3
ObjectDBX Classes
 90
     1153
 91
        4
280
     0
281
     0
  0
ENDSEC
  0
SECTION
  2
TABLES
  0
TABLE
  2
VPORT
  5
8
330
0
100
AcDbSymbolTable
 70
     1
  0
VPORT
  5
29
330
8
100
AcDbSymbolTableRecord
100
AcDbViewportTableRecord
  2
*Active
 70
     0
 10
0.0
 20
0.0
 11
1.0
 21
1.0
 12
10.42990654205607
 22
4.5
 13
0.0
 23
0.0
 14
0.5
 24
0.5
 15
0.5
 25
0.5
 16
0.0
 26
0.0
 36
1.0
 17
0.0
 27
0.0
 37
0.0
 40
9.0
 41
1.972972972850329
 42
50.0
 43
0.0
 44
0.0
 50
0.0
 51
0.0
 71
     0
 72
   100
 73
     1
 74
     3
 75
     0
 76
     0
 77
     0
 78
     0
281
     0
 65
     1
110
0.0
120
0.0
130
0.0
111
1.0
121
0.0
131
0.0
112
0.0
122
1.0
132
0.0
 79
     0
146
0.0
 60
     3
 61
     5
292
     1
282
     1
141
0.0
142
0.0
 63
   250
  0
ENDTAB
  0
TABLE
  2
LTYPE
  5
5
330
0
100
AcDbSymbolTable
 70
     1
  0
LTYPE
  5
14
330
5
100
AcDbSymbolTableRecord
100
AcDbLinetypeTableRecord
  2
ByBlock
 70
     0
  3

 72
    65
 73
     0
 40
0.0
  0
LTYPE
  5
15
330
5
100
AcDbSymbolTableRecord
100
AcDbLinetypeTableRecord
  2
ByLayer
 70
     0
  3

 72
    65
 73
     0
 40
0.0
  0
LTYPE
  5
16
330
5
100
AcDbSymbolTableRecord
100
AcDbLinetypeTableRecord
  2
Continuous
 70
     0
  3
Solid line
 72
    65
 73
     0
 40
0.0
  0
ENDTAB
  0
TABLE
  2
LAYER
  5
2
330
0
100
AcDbSymbolTable
 70
     1
  0
LAYER
  5
10
330
2
100
AcDbSymbolTableRecord
100
AcDbLayerTableRecord
  2
0
 70
     0
 62
     7
  6
Continuous
370
    -3
390
F
347
3E
  0
ENDTAB
  0
TABLE
  2
STYLE
  5
3
330
0
100
AcDbSymbolTable
 70
     1
  0
STYLE
  5
11
330
3
100
AcDbSymbolTableRecord
100
AcDbTextStyleTableRecord
  2
Standard
 70
     0
 40
0.0
 41
1.0
 50
0.0
 71
     0
 42
0.2
  3
txt
  4

  0
ENDTAB
  0
TABLE
  2
VIEW
  5
6
330
0
100
AcDbSymbolTable
 70
     0
  0
ENDTAB
  0
TABLE
  2
UCS
  5
7
330
0
100
AcDbSymbolTable
 70
     0
  0
ENDTAB
  0
TABLE
  2
APPID
  5
9
330
0
100
AcDbSymbolTable
 70
     2
  0
APPID
  5
12
330
9
100
AcDbSymbolTableRecord
100
AcDbRegAppTableRecord
  2
ACAD
 70
     0
  0
APPID
  5
3F
330
9
100
AcDbSymbolTableRecord
100
AcDbRegAppTableRecord
  2
ODA
 70
     0
  0
ENDTAB
  0
TABLE
  2
DIMSTYLE
  5
A
330
0
100
AcDbSymbolTable
 70
     1
100
AcDbDimStyleTable
  0
DIMSTYLE
105
27
330
A
100
AcDbSymbolTableRecord
100
AcDbDimStyleTableRecord
  2
Standard
 70
     0
178
     0
340
11
  0
ENDTAB
  0
TABLE
  2
BLOCK_RECORD
  5
1
330
0
100
AcDbSymbolTable
 70
     1
  0
BLOCK_RECORD
  5
1F
330
1
100
AcDbSymbolTableRecord
100
AcDbBlockTableRecord
  2
*Model_Space
340
22
 70
     0
280
     1
281
     0
  0
BLOCK_RECORD
  5
1B
330
1
100
AcDbSymbolTableRecord
100
AcDbBlockTableRecord
  2
*Paper_Space
340
1E
 70
     0
280
     1
281
     0
  0
BLOCK_RECORD
  5
23
330
1
100
AcDbSymbolTableRecord
100
AcDbBlockTableRecord
  2
*Paper_Space0
340
26
 70
     0
280
     1
281
     0
  0
ENDTAB
  0
ENDSEC
  0
SECTION
  2
BLOCKS
  0
BLOCK
  5
20
330
1F
100
AcDbEntity
  8
0
100
AcDbBlockBegin
  2
*Model_Space
 70
     0
 10
0.0
 20
0.0
 30
0.0
  3
*Model_Space
  1

  0
ENDBLK
  5
21
330
1F
100
AcDbEntity
  8
0
100
AcDbBlockEnd
  0
BLOCK
  5
1C
330
1B
100
AcDbEntity
 67
     1
  8
0
100
AcDbBlockBegin
  2
*Paper_Space
 70
     0
 10
0.0
 20
0.0
 30
0.0
  3
*Paper_Space
  1

  0
ENDBLK
  5
1D
330
1B
100
AcDbEntity
 67
     1
  8
0
100
AcDbBlockEnd
  0
BLOCK
  5
24
330
23
100
AcDbEntity
  8
0
100
AcDbBlockBegin
  2
*Paper_Space0
 70
     0
 10
0.0
 20
0.0
 30
0.0
  3
*Paper_Space0
  1

  0
ENDBLK
  5
25
330
23
100
AcDbEntity
  8
0
100
AcDbBlockEnd
  0
ENDSEC
  0
SECTION
  2
ENTITIES
  0
SPLINE
  5
40
330
1F
100
AcDbEntity
  8
0
370
    15
100
AcDbSpline
210
0.0
220
0.0
230
1.0
 70
     8
 71
     3
 72
    84
 73
    80
 74
     0
 42
0.0000000001
 43
0.0000000001
 40
0.0
 40
0.0
 40
0.0
 40
0.0
 40
0.0476190476190476
 40
0.0476190476190476
 40
0.0476190476190476
 40
0.0476190476190476
 40
0.0952380952380952
 40
0.0952380952380952
 40
0.0952380952380952
 40
0.0952380952380952
 40
0.1428571428571428
 40
0.1428571428571428
 40
0.1428571428571428
 40
0.1428571428571428
 40
0.1904761904761905
 40
0.1904761904761905
 40
0.1904761904761905
 40
0.1904761904761905
 40
0.2380952380952381
 40
0.2380952380952381
 40
0.2380952380952381
 40
0.2380952380952381
 40
0.2857142857142857
 40
0.2857142857142857
 40
0.2857142857142857
 40
0.2857142857142857
 40
0.3333333333333333
 40
0.3333333333333333
 40
0.3333333333333333
 40
0.3333333333333333
 40
0.3809523809523809
 40
0.3809523809523809
 40
0.3809523809523809
 40
0.3809523809523809
 40
0.4285714285714285
 40
0.4285714285714285
 40
0.4285714285714285
 40
0.4285714285714285
 40
0.4761904761904762
 40
0.4761904761904762
 40
0.4761904761904762
 40
0.4761904761904762
 40
0.5238095238095238
 40
0.5238095238095238
 40
0.5238095238095238
 40
0.5238095238095238
 40
0.5714285714285714
 40
0.5714285714285714
 40
0.5714285714285714
 40
0.5714285714285714
 40
0.6190476190476191
 40
0.6190476190476191
 40
0.6190476190476191
 40
0.6190476190476191
 40
0.6666666666666666
 40
0.6666666666666666
 40
0.6666666666666666
 40
0.6666666666666666
 40
0.7142857142857143
 40
0.7142857142857143
 40
0.7142857142857143
 40
0.7142857142857143
 40
0.7619047619047619
 40
0.7619047619047619
 40
0.7619047619047619
 40
0.7619047619047619
 40
0.8095238095238095
 40
0.8095238095238095
 40
0.8095238095238095
 40
0.8095238095238095
 40
0.8571428571428571
 40
0.8571428571428571
 40
0.8571428571428571
 40
0.8571428571428571
 40
0.9047619047619048
 40
0.9047619047619048
 40
0.9047619047619048
 40
0.9047619047619048
 40
1.0
 40
1.0
 40
1.0
 40
1.0
 10
-13.45973
 20
12.34783
 30
0.0
 10
-13.55353
 20
12.3478
 30
0.0
 10
-13.64732
 20
12.34778
 30
0.0
 10
-13.74111
 20
12.34766
 30
0.0
 10
-13.74111
 20
12.34766
 30
0.0
 10
-13.8302
 20
12.34755
 30
0.0
 10
-13.91928
 20
12.34736
 30
0.0
 10
-14.00836
 20
12.34713
 30
0.0
 10
-14.00836
 20
12.34713
 30
0.0
 10
-14.08899
 20
12.34693
 30
0.0
 10
-14.16962
 20
12.34669
 30
0.0
 10
-14.25023
 20
12.34634
 30
0.0
 10
-14.25023
 20
12.34634
 30
0.0
 10
-14.32234
 20
12.34604
 30
0.0
 10
-14.39443
 20
12.34565
 30
0.0
 10
-14.46657
 20
12.34544
 30
0.0
 10
-14.46657
 20
12.34544
 30
0.0
 10
-14.52899
 20
12.34526
 30
0.0
 10
-14.59144
 20
12.34522
 30
0.0
 10
-14.65372
 20
12.34454
 30
0.0
 10
-14.65372
 20
12.34454
 30
0.0
 10
-14.7057
 20
12.34398
 30
0.0
 10
-14.75755
 20
12.34297
 30
0.0
 10
-14.80991
 20
12.34336
 30
0.0
 10
-14.80991
 20
12.34336
 30
0.0
 10
-14.83976
 20
12.34358
 30
0.0
 10
-14.86978
 20
12.34425
 30
0.0
 10
-14.89883
 20
12.33845
 30
0.0
 10
-14.89883
 20
12.33845
 30
0.0
 10
-14.90997
 20
12.33622
 30
0.0
 10
-14.92096
 20
12.33304
 30
0.0
 10
-14.93171
 20
12.32921
 30
0.0
 10
-14.93171
 20
12.32921
 30
0.0
 10
-14.94731
 20
12.32365
 30
0.0
 10
-14.96239
 20
12.31671
 30
0.0
 10
-14.97683
 20
12.30862
 30
0.0
 10
-14.97683
 20
12.30862
 30
0.0
 10
-14.99862
 20
12.29641
 30
0.0
 10
-15.01895
 20
12.28156
 30
0.0
 10
-15.03748
 20
12.26474
 30
0.0
 10
-15.03748
 20
12.26474
 30
0.0
 10
-15.06202
 20
12.24247
 30
0.0
 10
-15.0834
 20
12.21673
 30
0.0
 10
-15.10088
 20
12.18852
 30
0.0
 10
-15.10088
 20
12.18852
 30
0.0
 10
-15.11088
 20
12.17239
 30
0.0
 10
-15.11961
 20
12.15546
 30
0.0
 10
-15.12597
 20
12.1377
 30
0.0
 10
-15.12597
 20
12.1377
 30
0.0
 10
-15.136
 20
12.10971
 30
0.0
 10
-15.14017
 20
12.07967
 30
0.0
 10
-15.14176
 20
12.04979
 30
0.0
 10
-15.14176
 20
12.04979
 30
0.0
 10
-15.14348
 20
12.01755
 30
0.0
 10
-15.1422
 20
11.9855
 30
0.0
 10
-15.1415
 20
11.95342
 30
0.0
 10
-15.1415
 20
11.95342
 30
0.0
 10
-15.14006
 20
11.88671
 30
0.0
 10
-15.14112
 20
11.81986
 30
0.0
 10
-15.14158
 20
11.75304
 30
0.0
 10
-15.14158
 20
11.75304
 30
0.0
 10
-15.14211
 20
11.67425
 30
0.0
 10
-15.14178
 20
11.5955
 30
0.0
 10
-15.14165
 20
11.51674
 30
0.0
 10
-15.14165
 20
11.51674
 30
0.0
 10
-15.14149
 20
11.42587
 30
0.0
 10
-15.1416
 20
11.33498
 30
0.0
 10
-15.14165
 20
11.24409
 30
0.0
 10
-15.14165
 20
11.24409
 30
0.0
 10
-15.1417
 20
11.14103
 30
0.0
 10
-15.14168
 20
11.03798
 30
0.0
 10
-15.14167
 20
10.93492
 30
0.0
 10
-15.14167
 20
10.93492
 30
0.0
 10
-15.14166
 20
10.81971
 30
0.0
 10
-15.14166
 20
10.7045
 30
0.0
 10
-15.14166
 20
10.58929
 30
0.0
 10
-15.14166
 20
10.58929
 30
0.0
 10
-15.14166
 20
10.46195
 30
0.0
 10
-15.14166
 20
10.33461
 30
0.0
 10
-15.14165
 20
10.20727
 30
0.0
  0
SPLINE
  5
41
330
1F
100
AcDbEntity
  8
0
370
    15
100
AcDbSpline
210
0.0
220
0.0
230
1.0
 70
     8
 71
     3
 72
   100
 73
    96
 74
     0
 42
0.0000000001
 43
0.0000000001
 40
0.0
 40
0.0
 40
0.0
 40
0.0
 40
0.04
 40
0.04
 40
0.04
 40
0.04
 40
0.08
 40
0.08
 40
0.08
 40
0.08
 40
0.12
 40
0.12
 40
0.12
 40
0.12
 40
0.16
 40
0.16
 40
0.16
 40
0.16
 40
0.2
 40
0.2
 40
0.2
 40
0.2
 40
0.24
 40
0.24
 40
0.24
 40
0.24
 40
0.28
 40
0.28
 40
0.28
 40
0.28
 40
0.32
 40
0.32
 40
0.32
 40
0.32
 40
0.36
 40
0.36
 40
0.36
 40
0.36
 40
0.4
 40
0.4
 40
0.4
 40
0.4
 40
0.44
 40
0.44
 40
0.44
 40
0.44
 40
0.48
 40
0.48
 40
0.48
 40
0.48
 40
0.52
 40
0.52
 40
0.52
 40
0.52
 40
0.56
 40
0.56
 40
0.56
 40
0.56
 40
0.6
 40
0.6
 40
0.6
 40
0.6
 40
0.64
 40
0.64
 40
0.64
 40
0.64
 40
0.68
 40
0.68
 40
0.68
 40
0.68
 40
0.72
 40
0.72
 40
0.72
 40
0.72
 40
0.76
 40
0.76
 40
0.76
 40
0.76
 40
0.8
 40
0.8
 40
0.8
 40
0.8
 40
0.84
 40
0.84
 40
0.84
 40
0.84
 40
0.88
 40
0.88
 40
0.88
 40
0.88
 40
0.92
 40
0.92
 40
0.92
 40
0.92
 40
1.0
 40
1.0
 40
1.0
 40
1.0
 10
-11.77303
 20
10.20727
 30
0.0
 10
-11.77303
 20
10.33344
 30
0.0
 10
-11.77303
 20
10.45961
 30
0.0
 10
-11.77303
 20
10.58579
 30
0.0
 10
-11.77303
 20
10.58579
 30
0.0
 10
-11.77302
 20
10.69933
 30
0.0
 10
-11.77302
 20
10.81288
 30
0.0
 10
-11.77301
 20
10.92642
 30
0.0
 10
-11.77301
 20
10.92642
 30
0.0
 10
-11.77301
 20
11.02733
 30
0.0
 10
-11.77301
 20
11.12823
 30
0.0
 10
-11.77304
 20
11.22914
 30
0.0
 10
-11.77304
 20
11.22914
 30
0.0
 10
-11.77306
 20
11.3174
 30
0.0
 10
-11.7731
 20
11.40566
 30
0.0
 10
-11.77305
 20
11.49389
 30
0.0
 10
-11.77305
 20
11.49389
 30
0.0
 10
-11.773
 20
11.5695
 30
0.0
 10
-11.77289
 20
11.64508
 30
0.0
 10
-11.77309
 20
11.72076
 30
0.0
 10
-11.77309
 20
11.72076
 30
0.0
 10
-11.77326
 20
11.78392
 30
0.0
 10
-11.77365
 20
11.84714
 30
0.0
 10
-11.77321
 20
11.91011
 30
0.0
 10
-11.77321
 20
11.91011
 30
0.0
 10
-11.77294
 20
11.94895
 30
0.0
 10
-11.77236
 20
11.98769
 30
0.0
 10
-11.77305
 20
12.02689
 30
0.0
 10
-11.77305
 20
12.02689
 30
0.0
 10
-11.77364
 20
12.06016
 30
0.0
 10
-11.77515
 20
12.09376
 30
0.0
 10
-11.78441
 20
12.12534
 30
0.0
 10
-11.78441
 20
12.12534
 30
0.0
 10
-11.79221
 20
12.15199
 30
0.0
 10
-11.80553
 20
12.1772
 30
0.0
 10
-11.82126
 20
12.20042
 30
0.0
 10
-11.82126
 20
12.20042
 30
0.0
 10
-11.83283
 20
12.21752
 30
0.0
 10
-11.84571
 20
12.23354
 30
0.0
 10
-11.85995
 20
12.24833
 30
0.0
 10
-11.85995
 20
12.24833
 30
0.0
 10
-11.8693
 20
12.25805
 30
0.0
 10
-11.87925
 20
12.26724
 30
0.0
 10
-11.88968
 20
12.2758
 30
0.0
 10
-11.88968
 20
12.2758
 30
0.0
 10
-11.90293
 20
12.28665
 30
0.0
 10
-11.91697
 20
12.2965
 30
0.0
 10
-11.93174
 20
12.30528
 30
0.0
 10
-11.93174
 20
12.30528
 30
0.0
 10
-11.95147
 20
12.317
 30
0.0
 10
-11.97252
 20
12.32683
 30
0.0
 10
-11.99447
 20
12.33298
 30
0.0
 10
-11.99447
 20
12.33298
 30
0.0
 10
-12.02637
 20
12.34192
 30
0.0
 10
-12.06016
 20
12.34309
 30
0.0
 10
-12.09356
 20
12.34352
 30
0.0
 10
-12.09356
 20
12.34352
 30
0.0
 10
-12.12002
 20
12.34386
 30
0.0
 10
-12.14623
 20
12.34373
 30
0.0
 10
-12.17252
 20
12.3439
 30
0.0
 10
-12.17252
 20
12.3439
 30
0.0
 10
-12.19283
 20
12.34404
 30
0.0
 10
-12.21318
 20
12.34436
 30
0.0
 10
-12.23352
 20
12.34459
 30
0.0
 10
-12.23352
 20
12.34459
 30
0.0
 10
-12.25621
 20
12.34485
 30
0.0
 10
-12.27888
 20
12.34499
 30
0.0
 10
-12.30155
 20
12.3451
 30
0.0
 10
-12.30155
 20
12.3451
 30
0.0
 10
-12.34672
 20
12.34534
 30
0.0
 10
-12.3919
 20
12.34548
 30
0.0
 10
-12.43708
 20
12.34563
 30
0.0
 10
-12.43708
 20
12.34563
 30
0.0
 10
-12.49387
 20
12.34583
 30
0.0
 10
-12.55066
 20
12.34603
 30
0.0
 10
-12.60746
 20
12.34623
 30
0.0
 10
-12.60746
 20
12.34623
 30
0.0
 10
-12.66798
 20
12.34644
 30
0.0
 10
-12.7285
 20
12.34664
 30
0.0
 10
-12.78903
 20
12.34682
 30
0.0
 10
-12.78903
 20
12.34682
 30
0.0
 10
-12.85881
 20
12.34703
 30
0.0
 10
-12.9286
 20
12.34721
 30
0.0
 10
-12.99839
 20
12.34735
 30
0.0
 10
-12.99839
 20
12.34735
 30
0.0
 10
-13.07497
 20
12.3475
 30
0.0
 10
-13.15155
 20
12.34761
 30
0.0
 10
-13.22813
 20
12.34771
 30
0.0
 10
-13.22813
 20
12.34771
 30
0.0
 10
-13.30158
 20
12.3478
 30
0.0
 10
-13.37503
 20
12.34788
 30
0.0
 10
-13.44848
 20
12.34784
 30
0.0
 10
-13.44848
 20
12.34784
 30
0.0
 10
-13.45223
 20
12.34784
 30
0.0
 10
-13.45598
 20
12.34783
 30
0.0
 10
-13.45973
 20
12.34783
 30
0.0
  0
SPLINE
  5
42
330
1F
100
AcDbEntity
  8
0
370
    15
100
AcDbSpline
210
0.0
220
0.0
230
1.0
 70
    24
 71
     3
 72
     8
 73
     4
 74
     0
 42
0.0000000001
 43
0.0000000001
 40
0.0
 40
0.0
 40
0.0
 40
0.0
 40
1.0
 40
1.0
 40
1.0
 40
1.0
 10
-13.30734
 20
12.05534
 30
0.0
 10
-13.30734
 20
12.05534
 30
0.0
 10
-13.60734
 20
12.05534
 30
0.0
 10
-13.60734
 20
12.05534
 30
0.0
  0
SPLINE
  5
43
330
1F
100
AcDbEntity
  8
0
370
    15
100
AcDbSpline
210
0.0
220
0.0
230
1.0
 70
    24
 71
     3
 72
     8
 73
     4
 74
     0
 42
0.0000000001
 43
0.0000000001
 40
0.0
 40
0.0
 40
0.0
 40
0.0
 40
1.0
 40
1.0
 40
1.0
 40
1.0
 10
-13.30734
 20
11.35534
 30
0.0
 10
-13.30734
 20
11.35534
 30
0.0
 10
-13.30734
 20
12.05534
 30
0.0
 10
-13.30734
 20
12.05534
 30
0.0
  0
SPLINE
  5
44
330
1F
100
AcDbEntity
  8
0
370
    15
100
AcDbSpline
210
0.0
220
0.0
230
1.0
 70
    24
 71
     3
 72
     8
 73
     4
 74
     0
 42
0.0000000001
 43
0.0000000001
 40
0.0
 40
0.0
 40
0.0
 40
0.0
 40
1.0
 40
1.0
 40
1.0
 40
1.0
 10
-13.60734
 20
11.35534
 30
0.0
 10
-13.60734
 20
11.35534
 30
0.0
 10
-13.30734
 20
11.35534
 30
0.0
 10
-13.30734
 20
11.35534
 30
0.0
  0
SPLINE
  5
45
330
1F
100
AcDbEntity
  8
0
370
    15
100
AcDbSpline
210
0.0
220
0.0
230
1.0
 70
    24
 71
     3
 72
     8
 73
     4
 74
     0
 42
0.0000000001
 43
0.0000000001
 40
0.0
 40
0.0
 40
0.0
 40
0.0
 40
1.0
 40
1.0
 40
1.0
 40
1.0
 10
-13.60734
 20
12.05534
 30
0.0
 10
-13.60734
 20
12.05534
 30
0.0
 10
-13.60734
 20
11.35534
 30
0.0
 10
-13.60734
 20
11.35534
 30
0.0
  0
SPLINE
  5
46
330
1F
100
AcDbEntity
  8
0
370
    15
100
AcDbSpline
210
0.0
220
0.0
230
1.0
 70
    24
 71
     3
 72
     8
 73
     4
 74
     0
 42
0.0000000001
 43
0.0000000001
 40
0.0
 40
0.0
 40
0.0
 40
0.0
 40
1.0
 40
1.0
 40
1.0
 40
1.0
 10
-13.30734
 20
11.15534
 30
0.0
 10
-13.30734
 20
11.15534
 30
0.0
 10
-13.60734
 20
11.15534
 30
0.0
 10
-13.60734
 20
11.15534
 30
0.0
  0
SPLINE
  5
47
330
1F
100
AcDbEntity
  8
0
370
    15
100
AcDbSpline
210
0.0
220
0.0
230
1.0
 70
    24
 71
     3
 72
     8
 73
     4
 74
     0
 42
0.0000000001
 43
0.0000000001
 40
0.0
 40
0.0
 40
0.0
 40
0.0
 40
1.0
 40
1.0
 40
1.0
 40
1.0
 10
-13.60734
 20
11.15534
 30
0.0
 10
-13.60734
 20
11.15534
 30
0.0
 10
-13.60734
 20
11.35534
 30
0.0
 10
-13.60734
 20
11.35534
 30
0.0
  0
SPLINE
  5
48
330
1F
100
AcDbEntity
  8
0
370
    15
100
AcDbSpline
210
0.0
220
0.0
230
1.0
 70
    24
 71
     3
 72
     8
 73
     4
 74
     0
 42
0.0000000001
 43
0.0000000001
 40
0.0
 40
0.0
 40
0.0
 40
0.0
 40
1.0
 40
1.0
 40
1.0
 40
1.0
 10
-13.30734
 20
11.35534
 30
0.0
 10
-13.30734
 20
11.35534
 30
0.0
 10
-13.30734
 20
11.15534
 30
0.0
 10
-13.30734
 20
11.15534
 30
0.0
  0
SPLINE
  5
49
330
1F
100
AcDbEntity
  8
0
370
    15
100
AcDbSpline
210
0.0
220
0.0
230
1.0
 70
    24
 71
     3
 72
     8
 73
     4
 74
     0
 42
0.0000000001
 43
0.0000000001
 40
0.0
 40
0.0
 40
0.0
 40
0.0
 40
1.0
 40
1.0
 40
1.0
 40
1.0
 10
-13.60734
 20
12.05534
 30
0.0
 10
-13.60734
 20
12.05534
 30
0.0
 10
-13.60734
 20
12.25534
 30
0.0
 10
-13.60734
 20
12.25534
 30
0.0
  0
SPLINE
  5
4A
330
1F
100
AcDbEntity
  8
0
370
    15
100
AcDbSpline
210
0.0
220
0.0
230
1.0
 70
    24
 71
     3
 72
     8
 73
     4
 74
     0
 42
0.0000000001
 43
0.0000000001
 40
0.0
 40
0.0
 40
0.0
 40
0.0
 40
1.0
 40
1.0
 40
1.0
 40
1.0
 10
-13.60734
 20
12.25534
 30
0.0
 10
-13.60734
 20
12.25534
 30
0.0
 10
-13.30734
 20
12.25534
 30
0.0
 10
-13.30734
 20
12.25534
 30
0.0
  0
SPLINE
  5
4B
330
1F
100
AcDbEntity
  8
0
370
    15
100
AcDbSpline
210
0.0
220
0.0
230
1.0
 70
    24
 71
     3
 72
     8
 73
     4
 74
     0
 42
0.0000000001
 43
0.0000000001
 40
0.0
 40
0.0
 40
0.0
 40
0.0
 40
1.0
 40
1.0
 40
1.0
 40
1.0
 10
-13.30734
 20
12.25534
 30
0.0
 10
-13.30734
 20
12.25534
 30
0.0
 10
-13.30734
 20
12.05534
 30
0.0
 10
-13.30734
 20
12.05534
 30
0.0
  0
SPLINE
  5
4C
330
1F
100
AcDbEntity
  8
0
370
    15
100
AcDbSpline
210
0.0
220
0.0
230
1.0
 70
    24
 71
     3
 72
     8
 73
     4
 74
     0
 42
0.0000000001
 43
0.0000000001
 40
0.0
 40
0.0
 40
0.0
 40
0.0
 40
1.0
 40
1.0
 40
1.0
 40
1.0
 10
-13.22997
 20
11.09662
 30
0.0
 10
-13.22997
 20
11.09662
 30
0.0
 10
-13.20509
 20
11.09662
 30
0.0
 10
-13.20509
 20
11.09662
 30
0.0
  0
SPLINE
  5
4D
330
1F
100
AcDbEntity
  8
0
370
    15
100
AcDbSpline
210
0.0
220
0.0
230
1.0
 70
     8
 71
     3
 72
     8
 73
     4
 74
     0
 42
0.0000000001
 43
0.0000000001
 40
0.0
 40
0.0
 40
0.0
 40
0.0
 40
1.0
 40
1.0
 40
1.0
 40
1.0
 10
-13.22997
 20
11.07165
 30
0.0
 10
-13.21624
 20
11.07176
 30
0.0
 10
-13.20515
 20
11.08289
 30
0.0
 10
-13.20509
 20
11.09662
 30
0.0
  0
SPLINE
  5
4E
330
1F
100
AcDbEntity
  8
0
370
    15
100
AcDbSpline
210
0.0
220
0.0
230
1.0
 70
    24
 71
     3
 72
     8
 73
     4
 74
     0
 42
0.0000000001
 43
0.0000000001
 40
0.0
 40
0.0
 40
0.0
 40
0.0
 40
1.0
 40
1.0
 40
1.0
 40
1.0
 10
-13.22997
 20
11.07165
 30
0.0
 10
-13.22997
 20
11.07165
 30
0.0
 10
-13.22997
 20
11.09662
 30
0.0
 10
-13.22997
 20
11.09662
 30
0.0
  0
SPLINE
  5
4F
330
1F
100
AcDbEntity
  8
0
370
    15
100
AcDbSpline
210
0.0
220
0.0
230
1.0
 70
    24
 71
     3
 72
     8
 73
     4
 74
     0
 42
0.0000000001
 43
0.0000000001
 40
0.0
 40
0.0
 40
0.0
 40
0.0
 40
1.0
 40
1.0
 40
1.0
 40
1.0
 10
-13.22997
 20
11.09662
 30
0.0
 10
-13.22997
 20
11.09662
 30
0.0
 10
-13.22997
 20
12.29918
 30
0.0
 10
-13.22997
 20
12.29918
 30
0.0
  0
SPLINE
  5
50
330
1F
100
AcDbEntity
  8
0
370
    15
100
AcDbSpline
210
0.0
220
0.0
230
1.0
 70
    24
 71
     3
 72
     8
 73
     4
 74
     0
 42
0.0000000001
 43
0.0000000001
 40
0.0
 40
0.0
 40
0.0
 40
0.0
 40
1.0
 40
1.0
 40
1.0
 40
1.0
 10
-13.22997
 20
12.29918
 30
0.0
 10
-13.22997
 20
12.29918
 30
0.0
 10
-13.20509
 20
12.29918
 30
0.0
 10
-13.20509
 20
12.29918
 30
0.0
  0
SPLINE
  5
51
330
1F
100
AcDbEntity
  8
0
370
    15
100
AcDbSpline
210
0.0
220
0.0
230
1.0
 70
    24
 71
     3
 72
     8
 73
     4
 74
     0
 42
0.0000000001
 43
0.0000000001
 40
0.0
 40
0.0
 40
0.0
 40
0.0
 40
1.0
 40
1.0
 40
1.0
 40
1.0
 10
-13.20509
 20
12.29918
 30
0.0
 10
-13.20509
 20
12.29918
 30
0.0
 10
-13.20509
 20
11.09662
 30
0.0
 10
-13.20509
 20
11.09662
 30
0.0
  0
SPLINE
  5
52
330
1F
100
AcDbEntity
  8
0
370
    15
100
AcDbSpline
210
0.0
220
0.0
230
1.0
 70
    24
 71
     3
 72
     8
 73
     4
 74
     0
 42
0.0000000001
 43
0.0000000001
 40
0.0
 40
0.0
 40
0.0
 40
0.0
 40
1.0
 40
1.0
 40
1.0
 40
1.0
 10
-13.22997
 20
11.07165
 30
0.0
 10
-13.22997
 20
11.07165
 30
0.0
 10
-13.68472
 20
11.07165
 30
0.0
 10
-13.68472
 20
11.07165
 30
0.0
  0
SPLINE
  5
53
330
1F
100
AcDbEntity
  8
0
370
    15
100
AcDbSpline
210
0.0
220
0.0
230
1.0
 70
    24
 71
     3
 72
     8
 73
     4
 74
     0
 42
0.0000000001
 43
0.0000000001
 40
0.0
 40
0.0
 40
0.0
 40
0.0
 40
1.0
 40
1.0
 40
1.0
 40
1.0
 10
-13.68472
 20
11.07165
 30
0.0
 10
-13.68472
 20
11.07165
 30
0.0
 10
-13.68472
 20
11.09662
 30
0.0
 10
-13.68472
 20
11.09662
 30
0.0
  0
SPLINE
  5
54
330
1F
100
AcDbEntity
  8
0
370
    15
100
AcDbSpline
210
0.0
220
0.0
230
1.0
 70
    24
 71
     3
 72
     8
 73
     4
 74
     0
 42
0.0000000001
 43
0.0000000001
 40
0.0
 40
0.0
 40
0.0
 40
0.0
 40
1.0
 40
1.0
 40
1.0
 40
1.0
 10
-13.68472
 20
11.09662
 30
0.0
 10
-13.68472
 20
11.09662
 30
0.0
 10
-13.22997
 20
11.09662
 30
0.0
 10
-13.22997
 20
11.09662
 30
0.0
  0
SPLINE
  5
55
330
1F
100
AcDbEntity
  8
0
370
    15
100
AcDbSpline
210
0.0
220
0.0
230
1.0
 70
     8
 71
     3
 72
    36
 73
    32
 74
     0
 42
0.0000000001
 43
0.0000000001
 40
0.0
 40
0.0
 40
0.0
 40
0.0
 40
0.1111111111111111
 40
0.1111111111111111
 40
0.1111111111111111
 40
0.1111111111111111
 40
0.2222222222222222
 40
0.2222222222222222
 40
0.2222222222222222
 40
0.2222222222222222
 40
0.3333333333333333
 40
0.3333333333333333
 40
0.3333333333333333
 40
0.3333333333333333
 40
0.4444444444444444
 40
0.4444444444444444
 40
0.4444444444444444
 40
0.4444444444444444
 40
0.5555555555555556
 40
0.5555555555555556
 40
0.5555555555555556
 40
0.5555555555555556
 40
0.6666666666666666
 40
0.6666666666666666
 40
0.6666666666666666
 40
0.6666666666666666
 40
0.7777777777777778
 40
0.7777777777777778
 40
0.7777777777777778
 40
0.7777777777777778
 40
1.0
 40
1.0
 40
1.0
 40
1.0
 10
-13.22997
 20
12.29918
 30
0.0
 10
-13.22997
 20
12.29918
 30
0.0
 10
-13.22896
 20
12.30395
 30
0.0
 10
-13.22896
 20
12.30395
 30
0.0
 10
-13.22896
 20
12.30395
 30
0.0
 10
-13.22896
 20
12.30395
 30
0.0
 10
-13.228
 20
12.30854
 30
0.0
 10
-13.228
 20
12.30854
 30
0.0
 10
-13.228
 20
12.30854
 30
0.0
 10
-13.228
 20
12.30854
 30
0.0
 10
-13.22711
 20
12.31277
 30
0.0
 10
-13.22711
 20
12.31277
 30
0.0
 10
-13.22711
 20
12.31277
 30
0.0
 10
-13.22711
 20
12.31277
 30
0.0
 10
-13.22633
 20
12.31648
 30
0.0
 10
-13.22633
 20
12.31648
 30
0.0
 10
-13.22633
 20
12.31648
 30
0.0
 10
-13.22633
 20
12.31648
 30
0.0
 10
-13.22569
 20
12.31952
 30
0.0
 10
-13.22569
 20
12.31952
 30
0.0
 10
-13.22569
 20
12.31952
 30
0.0
 10
-13.22569
 20
12.31952
 30
0.0
 10
-13.22521
 20
12.32178
 30
0.0
 10
-13.22521
 20
12.32178
 30
0.0
 10
-13.22521
 20
12.32178
 30
0.0
 10
-13.22521
 20
12.32178
 30
0.0
 10
-13.22492
 20
12.32317
 30
0.0
 10
-13.22492
 20
12.32317
 30
0.0
 10
-13.22492
 20
12.32317
 30
0.0
 10
-13.22492
 20
12.32317
 30
0.0
 10
-13.22482
 20
12.32364
 30
0.0
 10
-13.22482
 20
12.32364
 30
0.0
  0
SPLINE
  5
56
330
1F
100
AcDbEntity
  8
0
370
    15
100
AcDbSpline
210
0.0
220
0.0
230
1.0
 70
     8
 71
     3
 72
     8
 73
     4
 74
     0
 42
0.0000000001
 43
0.0000000001
 40
0.0
 40
0.0
 40
0.0
 40
0.0
 40
1.0
 40
1.0
 40
1.0
 40
1.0
 10
-13.20509
 20
12.29918
 30
0.0
 10
-13.20504
 20
12.31098
 30
0.0
 10
-13.21328
 20
12.32119
 30
0.0
 10
-13.22482
 20
12.32364
 30
0.0
  0
SPLINE
  5
57
330
1F
100
AcDbEntity
  8
0
370
    15
100
AcDbSpline
210
0.0
220
0.0
230
1.0
 70
    24
 71
     3
 72
     8
 73
     4
 74
     0
 42
0.0000000001
 43
0.0000000001
 40
0.0
 40
0.0
 40
0.0
 40
0.0
 40
1.0
 40
1.0
 40
1.0
 40
1.0
 10
-13.70959
 20
11.09662
 30
0.0
 10
-13.70959
 20
11.09662
 30
0.0
 10
-13.68472
 20
11.09662
 30
0.0
 10
-13.68472
 20
11.09662
 30
0.0
  0
SPLINE
  5
58
330
1F
100
AcDbEntity
  8
0
370
    15
100
AcDbSpline
210
0.0
220
0.0
230
1.0
 70
     8
 71
     3
 72
     8
 73
     4
 74
     0
 42
0.0000000001
 43
0.0000000001
 40
0.0
 40
0.0
 40
0.0
 40
0.0
 40
1.0
 40
1.0
 40
1.0
 40
1.0
 10
-13.70959
 20
11.09662
 30
0.0
 10
-13.70954
 20
11.08289
 30
0.0
 10
-13.69845
 20
11.07176
 30
0.0
 10
-13.68472
 20
11.07165
 30
0.0
  0
SPLINE
  5
59
330
1F
100
AcDbEntity
  8
0
370
    15
100
AcDbSpline
210
0.0
220
0.0
230
1.0
 70
     8
 71
     3
 72
     8
 73
     4
 74
     0
 42
0.0000000001
 43
0.0000000001
 40
0.0
 40
0.0
 40
0.0
 40
0.0
 40
1.0
 40
1.0
 40
1.0
 40
1.0
 10
-13.22997
 20
12.29918
 30
0.0
 10
-13.37991
 20
12.33074
 30
0.0
 10
-13.53478
 20
12.33073
 30
0.0
 10
-13.68472
 20
12.29915
 30
0.0
  0
SPLINE
  5
5A
330
1F
100
AcDbEntity
  8
0
370
    15
100
AcDbSpline
210
0.0
220
0.0
230
1.0
 70
     8
 71
     3
 72
    36
 73
    32
 74
     0
 42
0.0000000001
 43
0.0000000001
 40
0.0
 40
0.0
 40
0.0
 40
0.0
 40
0.1111111111111111
 40
0.1111111111111111
 40
0.1111111111111111
 40
0.1111111111111111
 40
0.2222222222222222
 40
0.2222222222222222
 40
0.2222222222222222
 40
0.2222222222222222
 40
0.3333333333333333
 40
0.3333333333333333
 40
0.3333333333333333
 40
0.3333333333333333
 40
0.4444444444444444
 40
0.4444444444444444
 40
0.4444444444444444
 40
0.4444444444444444
 40
0.5555555555555556
 40
0.5555555555555556
 40
0.5555555555555556
 40
0.5555555555555556
 40
0.6666666666666666
 40
0.6666666666666666
 40
0.6666666666666666
 40
0.6666666666666666
 40
0.7777777777777778
 40
0.7777777777777778
 40
0.7777777777777778
 40
0.7777777777777778
 40
1.0
 40
1.0
 40
1.0
 40
1.0
 10
-13.68472
 20
12.29915
 30
0.0
 10
-13.68472
 20
12.29915
 30
0.0
 10
-13.68572
 20
12.30392
 30
0.0
 10
-13.68572
 20
12.30392
 30
0.0
 10
-13.68572
 20
12.30392
 30
0.0
 10
-13.68572
 20
12.30392
 30
0.0
 10
-13.68669
 20
12.30851
 30
0.0
 10
-13.68669
 20
12.30851
 30
0.0
 10
-13.68669
 20
12.30851
 30
0.0
 10
-13.68669
 20
12.30851
 30
0.0
 10
-13.68758
 20
12.31274
 30
0.0
 10
-13.68758
 20
12.31274
 30
0.0
 10
-13.68758
 20
12.31274
 30
0.0
 10
-13.68758
 20
12.31274
 30
0.0
 10
-13.68836
 20
12.31645
 30
0.0
 10
-13.68836
 20
12.31645
 30
0.0
 10
-13.68836
 20
12.31645
 30
0.0
 10
-13.68836
 20
12.31645
 30
0.0
 10
-13.689
 20
12.31949
 30
0.0
 10
-13.689
 20
12.31949
 30
0.0
 10
-13.689
 20
12.31949
 30
0.0
 10
-13.689
 20
12.31949
 30
0.0
 10
-13.68948
 20
12.32175
 30
0.0
 10
-13.68948
 20
12.32175
 30
0.0
 10
-13.68948
 20
12.32175
 30
0.0
 10
-13.68948
 20
12.32175
 30
0.0
 10
-13.68977
 20
12.32314
 30
0.0
 10
-13.68977
 20
12.32314
 30
0.0
 10
-13.68977
 20
12.32314
 30
0.0
 10
-13.68977
 20
12.32314
 30
0.0
 10
-13.68987
 20
12.32361
 30
0.0
 10
-13.68987
 20
12.32361
 30
0.0
  0
SPLINE
  5
5B
330
1F
100
AcDbEntity
  8
0
370
    15
100
AcDbSpline
210
0.0
220
0.0
230
1.0
 70
     8
 71
     3
 72
     8
 73
     4
 74
     0
 42
0.0000000001
 43
0.0000000001
 40
0.0
 40
0.0
 40
0.0
 40
0.0
 40
1.0
 40
1.0
 40
1.0
 40
1.0
 10
-13.22482
 20
12.32364
 30
0.0
 10
-13.37816
 20
12.35592
 30
0.0
 10
-13.53654
 20
12.35591
 30
0.0
 10
-13.68987
 20
12.32361
 30
0.0
  0
SPLINE
  5
5C
330
1F
100
AcDbEntity
  8
0
370
    15
100
AcDbSpline
210
0.0
220
0.0
230
1.0
 70
    24
 71
     3
 72
     8
 73
     4
 74
     0
 42
0.0000000001
 43
0.0000000001
 40
0.0
 40
0.0
 40
0.0
 40
0.0
 40
1.0
 40
1.0
 40
1.0
 40
1.0
 10
-13.70959
 20
11.09662
 30
0.0
 10
-13.70959
 20
11.09662
 30
0.0
 10
-13.70959
 20
12.29915
 30
0.0
 10
-13.70959
 20
12.29915
 30
0.0
  0
SPLINE
  5
5D
330
1F
100
AcDbEntity
  8
0
370
    15
100
AcDbSpline
210
0.0
220
0.0
230
1.0
 70
    24
 71
     3
 72
     8
 73
     4
 74
     0
 42
0.0000000001
 43
0.0000000001
 40
0.0
 40
0.0
 40
0.0
 40
0.0
 40
1.0
 40
1.0
 40
1.0
 40
1.0
 10
-13.70959
 20
12.29915
 30
0.0
 10
-13.70959
 20
12.29915
 30
0.0
 10
-13.68472
 20
12.29915
 30
0.0
 10
-13.68472
 20
12.29915
 30
0.0
  0
SPLINE
  5
5E
330
1F
100
AcDbEntity
  8
0
370
    15
100
AcDbSpline
210
0.0
220
0.0
230
1.0
 70
    24
 71
     3
 72
     8
 73
     4
 74
     0
 42
0.0000000001
 43
0.0000000001
 40
0.0
 40
0.0
 40
0.0
 40
0.0
 40
1.0
 40
1.0
 40
1.0
 40
1.0
 10
-13.68472
 20
12.29915
 30
0.0
 10
-13.68472
 20
12.29915
 30
0.0
 10
-13.68472
 20
11.09662
 30
0.0
 10
-13.68472
 20
11.09662
 30
0.0
  0
SPLINE
  5
5F
330
1F
100
AcDbEntity
  8
0
370
    15
100
AcDbSpline
210
0.0
220
0.0
230
1.0
 70
     8
 71
     3
 72
     8
 73
     4
 74
     0
 42
0.0000000001
 43
0.0000000001
 40
0.0
 40
0.0
 40
0.0
 40
0.0
 40
1.0
 40
1.0
 40
1.0
 40
1.0
 10
-13.30984
 20
11.14784
 30
0.0
 10
-13.30432
 20
11.14784
 30
0.0
 10
-13.29984
 20
11.15232
 30
0.0
 10
-13.29984
 20
11.15784
 30
0.0
  0
SPLINE
  5
60
330
1F
100
AcDbEntity
  8
0
370
    15
100
AcDbSpline
210
0.0
220
0.0
230
1.0
 70
     8
 71
     3
 72
    12
 73
     8
 74
     0
 42
0.0000000001
 43
0.0000000001
 40
0.0
 40
0.0
 40
0.0
 40
0.0
 40
0.3333333333333333
 40
0.3333333333333333
 40
0.3333333333333333
 40
0.3333333333333333
 40
1.0
 40
1.0
 40
1.0
 40
1.0
 10
-13.60484
 20
12.26284
 30
0.0
 10
-13.6075
 20
12.26284
 30
0.0
 10
-13.61004
 20
12.26179
 30
0.0
 10
-13.61191
 20
12.25991
 30
0.0
 10
-13.61191
 20
12.25991
 30
0.0
 10
-13.61379
 20
12.25804
 30
0.0
 10
-13.61484
 20
12.25549
 30
0.0
 10
-13.61484
 20
12.25284
 30
0.0
  0
SPLINE
  5
61
330
1F
100
AcDbEntity
  8
0
370
    15
100
AcDbSpline
210
0.0
220
0.0
230
1.0
 70
    24
 71
     3
 72
     8
 73
     4
 74
     0
 42
0.0000000001
 43
0.0000000001
 40
0.0
 40
0.0
 40
0.0
 40
0.0
 40
1.0
 40
1.0
 40
1.0
 40
1.0
 10
-13.61484
 20
12.25284
 30
0.0
 10
-13.61484
 20
12.25284
 30
0.0
 10
-13.61484
 20
11.15784
 30
0.0
 10
-13.61484
 20
11.15784
 30
0.0
  0
SPLINE
  5
62
330
1F
100
AcDbEntity
  8
0
370
    15
100
AcDbSpline
210
0.0
220
0.0
230
1.0
 70
     8
 71
     3
 72
    12
 73
     8
 74
     0
 42
0.0000000001
 43
0.0000000001
 40
0.0
 40
0.0
 40
0.0
 40
0.0
 40
0.3333333333333333
 40
0.3333333333333333
 40
0.3333333333333333
 40
0.3333333333333333
 40
1.0
 40
1.0
 40
1.0
 40
1.0
 10
-13.61484
 20
11.15784
 30
0.0
 10
-13.61484
 20
11.15519
 30
0.0
 10
-13.61379
 20
11.15264
 30
0.0
 10
-13.61191
 20
11.15077
 30
0.0
 10
-13.61191
 20
11.15077
 30
0.0
 10
-13.61004
 20
11.14889
 30
0.0
 10
-13.6075
 20
11.14784
 30
0.0
 10
-13.60484
 20
11.14784
 30
0.0
  0
SPLINE
  5
63
330
1F
100
AcDbEntity
  8
0
370
    15
100
AcDbSpline
210
0.0
220
0.0
230
1.0
 70
    24
 71
     3
 72
     8
 73
     4
 74
     0
 42
0.0000000001
 43
0.0000000001
 40
0.0
 40
0.0
 40
0.0
 40
0.0
 40
1.0
 40
1.0
 40
1.0
 40
1.0
 10
-13.60484
 20
11.14784
 30
0.0
 10
-13.60484
 20
11.14784
 30
0.0
 10
-13.30984
 20
11.14784
 30
0.0
 10
-13.30984
 20
11.14784
 30
0.0
  0
SPLINE
  5
64
330
1F
100
AcDbEntity
  8
0
370
    15
100
AcDbSpline
210
0.0
220
0.0
230
1.0
 70
    24
 71
     3
 72
     8
 73
     4
 74
     0
 42
0.0000000001
 43
0.0000000001
 40
0.0
 40
0.0
 40
0.0
 40
0.0
 40
1.0
 40
1.0
 40
1.0
 40
1.0
 10
-13.29984
 20
11.15784
 30
0.0
 10
-13.29984
 20
11.15784
 30
0.0
 10
-13.29984
 20
12.25284
 30
0.0
 10
-13.29984
 20
12.25284
 30
0.0
  0
SPLINE
  5
65
330
1F
100
AcDbEntity
  8
0
370
    15
100
AcDbSpline
210
0.0
220
0.0
230
1.0
 70
    24
 71
     3
 72
     8
 73
     4
 74
     0
 42
0.0000000001
 43
0.0000000001
 40
0.0
 40
0.0
 40
0.0
 40
0.0
 40
1.0
 40
1.0
 40
1.0
 40
1.0
 10
-13.30984
 20
12.26284
 30
0.0
 10
-13.30984
 20
12.26284
 30
0.0
 10
-13.60484
 20
12.26284
 30
0.0
 10
-13.60484
 20
12.26284
 30
0.0
  0
SPLINE
  5
66
330
1F
100
AcDbEntity
  8
0
370
    15
100
AcDbSpline
210
0.0
220
0.0
230
1.0
 70
     8
 71
     3
 72
    12
 73
     8
 74
     0
 42
0.0000000001
 43
0.0000000001
 40
0.0
 40
0.0
 40
0.0
 40
0.0
 40
0.3333333333333333
 40
0.3333333333333333
 40
0.3333333333333333
 40
0.3333333333333333
 40
1.0
 40
1.0
 40
1.0
 40
1.0
 10
-13.29984
 20
12.25284
 30
0.0
 10
-13.29984
 20
12.25549
 30
0.0
 10
-13.3009
 20
12.25804
 30
0.0
 10
-13.30277
 20
12.25991
 30
0.0
 10
-13.30277
 20
12.25991
 30
0.0
 10
-13.30465
 20
12.26179
 30
0.0
 10
-13.30719
 20
12.26284
 30
0.0
 10
-13.30984
 20
12.26284
 30
0.0
  0
SPLINE
  5
67
330
1F
100
AcDbEntity
  8
0
370
    15
100
AcDbSpline
210
0.0
220
0.0
230
1.0
 70
     8
 71
     3
 72
     8
 73
     4
 74
     0
 42
0.0000000001
 43
0.0000000001
 40
0.0
 40
0.0
 40
0.0
 40
0.0
 40
1.0
 40
1.0
 40
1.0
 40
1.0
 10
-13.68987
 20
12.32361
 30
0.0
 10
-13.70141
 20
12.32116
 30
0.0
 10
-13.70964
 20
12.31095
 30
0.0
 10
-13.70959
 20
12.29915
 30
0.0
  0
SPLINE
  5
68
330
1F
100
AcDbEntity
  8
0
370
    15
100
AcDbSpline
210
0.0
220
0.0
230
1.0
 70
    24
 71
     3
 72
     8
 73
     4
 74
     0
 42
0.0000000001
 43
0.0000000001
 40
0.0
 40
0.0
 40
0.0
 40
0.0
 40
1.0
 40
1.0
 40
1.0
 40
1.0
 10
-13.20509
 20
11.09662
 30
0.0
 10
-13.20509
 20
11.09662
 30
0.0
 10
-13.16957
 20
11.07886
 30
0.0
 10
-13.16957
 20
11.07886
 30
0.0
  0
SPLINE
  5
69
330
1F
100
AcDbEntity
  8
0
370
    15
100
AcDbSpline
210
0.0
220
0.0
230
1.0
 70
     8
 71
     3
 72
    24
 73
    20
 74
     0
 42
0.0000000001
 43
0.0000000001
 40
0.0
 40
0.0
 40
0.0
 40
0.0
 40
0.1666666666666667
 40
0.1666666666666667
 40
0.1666666666666667
 40
0.1666666666666667
 40
0.3333333333333333
 40
0.3333333333333333
 40
0.3333333333333333
 40
0.3333333333333333
 40
0.5
 40
0.5
 40
0.5
 40
0.5
 40
0.6666666666666666
 40
0.6666666666666666
 40
0.6666666666666666
 40
0.6666666666666666
 40
1.0
 40
1.0
 40
1.0
 40
1.0
 10
-13.19516
 20
11.05425
 30
0.0
 10
-13.19225
 20
11.05446
 30
0.0
 10
-13.18934
 20
11.05466
 30
0.0
 10
-13.18652
 20
11.0555
 30
0.0
 10
-13.18652
 20
11.0555
 30
0.0
 10
-13.18382
 20
11.0563
 30
0.0
 10
-13.18121
 20
11.05767
 30
0.0
 10
-13.1789
 20
11.05947
 30
0.0
 10
-13.1789
 20
11.05947
 30
0.0
 10
-13.17669
 20
11.06119
 30
0.0
 10
-13.17474
 20
11.06329
 30
0.0
 10
-13.17321
 20
11.0657
 30
0.0
 10
-13.17321
 20
11.0657
 30
0.0
 10
-13.1717
 20
11.06806
 30
0.0
 10
-13.17059
 20
11.07072
 30
0.0
 10
-13.17007
 20
11.07344
 30
0.0
 10
-13.17007
 20
11.07344
 30
0.0
 10
-13.16973
 20
11.07523
 30
0.0
 10
-13.16965
 20
11.07704
 30
0.0
 10
-13.16957
 20
11.07886
 30
0.0
  0
SPLINE
  5
6A
330
1F
100
AcDbEntity
  8
0
370
    15
100
AcDbSpline
210
0.0
220
0.0
230
1.0
 70
    24
 71
     3
 72
     8
 73
     4
 74
     0
 42
0.0000000001
 43
0.0000000001
 40
0.0
 40
0.0
 40
0.0
 40
0.0
 40
1.0
 40
1.0
 40
1.0
 40
1.0
 10
-13.19516
 20
11.05425
 30
0.0
 10
-13.19516
 20
11.05425
 30
0.0
 10
-13.22997
 20
11.07165
 30
0.0
 10
-13.22997
 20
11.07165
 30
0.0
  0
SPLINE
  5
6B
330
1F
100
AcDbEntity
  8
0
370
    15
100
AcDbSpline
210
0.0
220
0.0
230
1.0
 70
    24
 71
     3
 72
     8
 73
     4
 74
     0
 42
0.0000000001
 43
0.0000000001
 40
0.0
 40
0.0
 40
0.0
 40
0.0
 40
1.0
 40
1.0
 40
1.0
 40
1.0
 10
-13.68472
 20
11.07165
 30
0.0
 10
-13.68472
 20
11.07165
 30
0.0
 10
-13.71952
 20
11.05425
 30
0.0
 10
-13.71952
 20
11.05425
 30
0.0
  0
SPLINE
  5
6C
330
1F
100
AcDbEntity
  8
0
370
    15
100
AcDbSpline
210
0.0
220
0.0
230
1.0
 70
     8
 71
     3
 72
    24
 73
    20
 74
     0
 42
0.0000000001
 43
0.0000000001
 40
0.0
 40
0.0
 40
0.0
 40
0.0
 40
0.1666666666666667
 40
0.1666666666666667
 40
0.1666666666666667
 40
0.1666666666666667
 40
0.3333333333333333
 40
0.3333333333333333
 40
0.3333333333333333
 40
0.3333333333333333
 40
0.5
 40
0.5
 40
0.5
 40
0.5
 40
0.6666666666666666
 40
0.6666666666666666
 40
0.6666666666666666
 40
0.6666666666666666
 40
1.0
 40
1.0
 40
1.0
 40
1.0
 10
-13.74512
 20
11.07886
 30
0.0
 10
-13.7449
 20
11.07605
 30
0.0
 10
-13.74467
 20
11.07325
 30
0.0
 10
-13.74382
 20
11.07058
 30
0.0
 10
-13.74382
 20
11.07058
 30
0.0
 10
-13.74298
 20
11.06795
 30
0.0
 10
-13.74153
 20
11.06545
 30
0.0
 10
-13.73975
 20
11.0633
 30
0.0
 10
-13.73975
 20
11.0633
 30
0.0
 10
-13.73792
 20
11.0611
 30
0.0
 10
-13.73575
 20
11.05926
 30
0.0
 10
-13.73337
 20
11.05783
 30
0.0
 10
-13.73337
 20
11.05783
 30
0.0
 10
-13.73087
 20
11.05633
 30
0.0
 10
-13.72813
 20
11.05528
 30
0.0
 10
-13.72537
 20
11.05477
 30
0.0
 10
-13.72537
 20
11.05477
 30
0.0
 10
-13.72343
 20
11.05442
 30
0.0
 10
-13.72148
 20
11.05433
 30
0.0
 10
-13.71952
 20
11.05425
 30
0.0
  0
SPLINE
  5
6D
330
1F
100
AcDbEntity
  8
0
370
    15
100
AcDbSpline
210
0.0
220
0.0
230
1.0
 70
    24
 71
     3
 72
     8
 73
     4
 74
     0
 42
0.0000000001
 43
0.0000000001
 40
0.0
 40
0.0
 40
0.0
 40
0.0
 40
1.0
 40
1.0
 40
1.0
 40
1.0
 10
-13.74512
 20
11.07886
 30
0.0
 10
-13.74512
 20
11.07886
 30
0.0
 10
-13.70959
 20
11.09662
 30
0.0
 10
-13.70959
 20
11.09662
 30
0.0
  0
SPLINE
  5
6E
330
1F
100
AcDbEntity
  8
0
370
    15
100
AcDbSpline
210
0.0
220
0.0
230
1.0
 70
    24
 71
     3
 72
     8
 73
     4
 74
     0
 42
0.0000000001
 43
0.0000000001
 40
0.0
 40
0.0
 40
0.0
 40
0.0
 40
1.0
 40
1.0
 40
1.0
 40
1.0
 10
-13.74512
 20
12.18979
 30
0.0
 10
-13.74512
 20
12.18979
 30
0.0
 10
-13.74512
 20
11.07886
 30
0.0
 10
-13.74512
 20
11.07886
 30
0.0
  0
SPLINE
  5
6F
330
1F
100
AcDbEntity
  8
0
370
    15
100
AcDbSpline
210
0.0
220
0.0
230
1.0
 70
    24
 71
     3
 72
     8
 73
     4
 74
     0
 42
0.0000000001
 43
0.0000000001
 40
0.0
 40
0.0
 40
0.0
 40
0.0
 40
1.0
 40
1.0
 40
1.0
 40
1.0
 10
-13.74512
 20
12.29105
 30
0.0
 10
-13.74512
 20
12.29105
 30
0.0
 10
-13.74512
 20
12.18979
 30
0.0
 10
-13.74512
 20
12.18979
 30
0.0
  0
SPLINE
  5
70
330
1F
100
AcDbEntity
  8
0
370
    15
100
AcDbSpline
210
0.0
220
0.0
230
1.0
 70
     8
 71
     3
 72
     8
 73
     4
 74
     0
 42
0.0000000001
 43
0.0000000001
 40
0.0
 40
0.0
 40
0.0
 40
0.0
 40
1.0
 40
1.0
 40
1.0
 40
1.0
 10
-13.70959
 20
12.29915
 30
0.0
 10
-13.72148
 20
12.29665
 30
0.0
 10
-13.73332
 20
12.29395
 30
0.0
 10
-13.74512
 20
12.29105
 30
0.0
  0
SPLINE
  5
71
330
1F
100
AcDbEntity
  8
0
370
    15
100
AcDbSpline
210
0.0
220
0.0
230
1.0
 70
     8
 71
     3
 72
    28
 73
    24
 74
     0
 42
0.0000000001
 43
0.0000000001
 40
0.0
 40
0.0
 40
0.0
 40
0.0
 40
0.1428571428571428
 40
0.1428571428571428
 40
0.1428571428571428
 40
0.1428571428571428
 40
0.2857142857142857
 40
0.2857142857142857
 40
0.2857142857142857
 40
0.2857142857142857
 40
0.4285714285714285
 40
0.4285714285714285
 40
0.4285714285714285
 40
0.4285714285714285
 40
0.5714285714285714
 40
0.5714285714285714
 40
0.5714285714285714
 40
0.5714285714285714
 40
0.7142857142857143
 40
0.7142857142857143
 40
0.7142857142857143
 40
0.7142857142857143
 40
1.0
 40
1.0
 40
1.0
 40
1.0
 10
-13.73776
 20
12.3116
 30
0.0
 10
-13.73913
 20
12.31027
 30
0.0
 10
-13.74051
 20
12.30893
 30
0.0
 10
-13.7418
 20
12.30652
 30
0.0
 10
-13.7418
 20
12.30652
 30
0.0
 10
-13.74244
 20
12.30531
 30
0.0
 10
-13.74306
 20
12.30384
 30
0.0
 10
-13.74369
 20
12.30165
 30
0.0
 10
-13.74369
 20
12.30165
 30
0.0
 10
-13.74401
 20
12.30055
 30
0.0
 10
-13.74433
 20
12.29928
 30
0.0
 10
-13.74459
 20
12.29763
 30
0.0
 10
-13.74459
 20
12.29763
 30
0.0
 10
-13.74472
 20
12.29681
 30
0.0
 10
-13.74484
 20
12.29589
 30
0.0
 10
-13.74494
 20
12.29478
 30
0.0
 10
-13.74494
 20
12.29478
 30
0.0
 10
-13.74499
 20
12.29424
 30
0.0
 10
-13.74503
 20
12.29366
 30
0.0
 10
-13.74506
 20
12.29305
 30
0.0
 10
-13.74506
 20
12.29305
 30
0.0
 10
-13.74509
 20
12.2924
 30
0.0
 10
-13.74511
 20
12.29173
 30
0.0
 10
-13.74512
 20
12.29105
 30
0.0
  0
SPLINE
  5
72
330
1F
100
AcDbEntity
  8
0
370
    15
100
AcDbSpline
210
0.0
220
0.0
230
1.0
 70
     8
 71
     3
 72
    12
 73
     8
 74
     0
 42
0.0000000001
 43
0.0000000001
 40
0.0
 40
0.0
 40
0.0
 40
0.0
 40
0.3333333333333333
 40
0.3333333333333333
 40
0.3333333333333333
 40
0.3333333333333333
 40
1.0
 40
1.0
 40
1.0
 40
1.0
 10
-13.73539
 20
12.31296
 30
0.0
 10
-13.73544
 20
12.31294
 30
0.0
 10
-13.73549
 20
12.31292
 30
0.0
 10
-13.73554
 20
12.31289
 30
0.0
 10
-13.73554
 20
12.31289
 30
0.0
 10
-13.73632
 20
12.31257
 30
0.0
 10
-13.73704
 20
12.31208
 30
0.0
 10
-13.73776
 20
12.3116
 30
0.0
  0
SPLINE
  5
73
330
1F
100
AcDbEntity
  8
0
370
    15
100
AcDbSpline
210
0.0
220
0.0
230
1.0
 70
    24
 71
     3
 72
     8
 73
     4
 74
     0
 42
0.0000000001
 43
0.0000000001
 40
0.0
 40
0.0
 40
0.0
 40
0.0
 40
1.0
 40
1.0
 40
1.0
 40
1.0
 10
-13.73415
 20
12.31335
 30
0.0
 10
-13.73415
 20
12.31335
 30
0.0
 10
-13.73539
 20
12.31296
 30
0.0
 10
-13.73539
 20
12.31296
 30
0.0
  0
SPLINE
  5
74
330
1F
100
AcDbEntity
  8
0
370
    15
100
AcDbSpline
210
0.0
220
0.0
230
1.0
 70
     8
 71
     3
 72
     8
 73
     4
 74
     0
 42
0.0000000001
 43
0.0000000001
 40
0.0
 40
0.0
 40
0.0
 40
0.0
 40
1.0
 40
1.0
 40
1.0
 40
1.0
 10
-13.68987
 20
12.32361
 30
0.0
 10
-13.7047
 20
12.32049
 30
0.0
 10
-13.71946
 20
12.31707
 30
0.0
 10
-13.73415
 20
12.31335
 30
0.0
  0
SPLINE
  5
75
330
1F
100
AcDbEntity
  8
0
370
    15
100
AcDbSpline
210
0.0
220
0.0
230
1.0
 70
     8
 71
     3
 72
     8
 73
     4
 74
     0
 42
0.0000000001
 43
0.0000000001
 40
0.0
 40
0.0
 40
0.0
 40
0.0
 40
1.0
 40
1.0
 40
1.0
 40
1.0
 10
-13.16956
 20
12.29108
 30
0.0
 10
-13.18136
 20
12.29398
 30
0.0
 10
-13.19321
 20
12.29668
 30
0.0
 10
-13.20509
 20
12.29918
 30
0.0
  0
SPLINE
  5
76
330
1F
100
AcDbEntity
  8
0
370
    15
100
AcDbSpline
210
0.0
220
0.0
230
1.0
 70
     8
 71
     3
 72
     8
 73
     4
 74
     0
 42
0.0000000001
 43
0.0000000001
 40
0.0
 40
0.0
 40
0.0
 40
0.0
 40
1.0
 40
1.0
 40
1.0
 40
1.0
 10
-13.18054
 20
12.31338
 30
0.0
 10
-13.19523
 20
12.3171
 30
0.0
 10
-13.20999
 20
12.32052
 30
0.0
 10
-13.22482
 20
12.32364
 30
0.0
  0
SPLINE
  5
77
330
1F
100
AcDbEntity
  8
0
370
    15
100
AcDbSpline
210
0.0
220
0.0
230
1.0
 70
    24
 71
     3
 72
     8
 73
     4
 74
     0
 42
0.0000000001
 43
0.0000000001
 40
0.0
 40
0.0
 40
0.0
 40
0.0
 40
1.0
 40
1.0
 40
1.0
 40
1.0
 10
-13.1793
 20
12.31299
 30
0.0
 10
-13.1793
 20
12.31299
 30
0.0
 10
-13.18054
 20
12.31338
 30
0.0
 10
-13.18054
 20
12.31338
 30
0.0
  0
SPLINE
  5
78
330
1F
100
AcDbEntity
  8
0
370
    15
100
AcDbSpline
210
0.0
220
0.0
230
1.0
 70
     8
 71
     3
 72
    12
 73
     8
 74
     0
 42
0.0000000001
 43
0.0000000001
 40
0.0
 40
0.0
 40
0.0
 40
0.0
 40
0.3333333333333333
 40
0.3333333333333333
 40
0.3333333333333333
 40
0.3333333333333333
 40
1.0
 40
1.0
 40
1.0
 40
1.0
 10
-13.17694
 20
12.31164
 30
0.0
 10
-13.17708
 20
12.31174
 30
0.0
 10
-13.17721
 20
12.31184
 30
0.0
 10
-13.17735
 20
12.31194
 30
0.0
 10
-13.17735
 20
12.31194
 30
0.0
 10
-13.17797
 20
12.31238
 30
0.0
 10
-13.17864
 20
12.31268
 30
0.0
 10
-13.1793
 20
12.31299
 30
0.0
  0
SPLINE
  5
79
330
1F
100
AcDbEntity
  8
0
370
    15
100
AcDbSpline
210
0.0
220
0.0
230
1.0
 70
     8
 71
     3
 72
    28
 73
    24
 74
     0
 42
0.0000000001
 43
0.0000000001
 40
0.0
 40
0.0
 40
0.0
 40
0.0
 40
0.1428571428571428
 40
0.1428571428571428
 40
0.1428571428571428
 40
0.1428571428571428
 40
0.2857142857142857
 40
0.2857142857142857
 40
0.2857142857142857
 40
0.2857142857142857
 40
0.4285714285714285
 40
0.4285714285714285
 40
0.4285714285714285
 40
0.4285714285714285
 40
0.5714285714285714
 40
0.5714285714285714
 40
0.5714285714285714
 40
0.5714285714285714
 40
0.7142857142857143
 40
0.7142857142857143
 40
0.7142857142857143
 40
0.7142857142857143
 40
1.0
 40
1.0
 40
1.0
 40
1.0
 10
-13.16957
 20
12.29109
 30
0.0
 10
-13.16958
 20
12.29176
 30
0.0
 10
-13.16959
 20
12.29244
 30
0.0
 10
-13.16962
 20
12.29308
 30
0.0
 10
-13.16962
 20
12.29308
 30
0.0
 10
-13.16965
 20
12.2937
 30
0.0
 10
-13.1697
 20
12.29428
 30
0.0
 10
-13.16975
 20
12.29482
 30
0.0
 10
-13.16975
 20
12.29482
 30
0.0
 10
-13.16985
 20
12.29593
 30
0.0
 10
-13.16996
 20
12.29685
 30
0.0
 10
-13.1701
 20
12.29767
 30
0.0
 10
-13.1701
 20
12.29767
 30
0.0
 10
-13.17036
 20
12.29933
 30
0.0
 10
-13.17068
 20
12.30061
 30
0.0
 10
-13.171
 20
12.30171
 30
0.0
 10
-13.171
 20
12.30171
 30
0.0
 10
-13.17163
 20
12.3039
 30
0.0
 10
-13.17226
 20
12.30538
 30
0.0
 10
-13.17291
 20
12.30659
 30
0.0
 10
-13.17291
 20
12.30659
 30
0.0
 10
-13.17419
 20
12.30898
 30
0.0
 10
-13.17557
 20
12.31031
 30
0.0
 10
-13.17694
 20
12.31164
 30
0.0
  0
SPLINE
  5
7A
330
1F
100
AcDbEntity
  8
0
370
    15
100
AcDbSpline
210
0.0
220
0.0
230
1.0
 70
     8
 71
     3
 72
    16
 73
    12
 74
     0
 42
0.0000000001
 43
0.0000000001
 40
0.0
 40
0.0
 40
0.0
 40
0.0
 40
0.25
 40
0.25
 40
0.25
 40
0.25
 40
0.5
 40
0.5
 40
0.5
 40
0.5
 40
1.0
 40
1.0
 40
1.0
 40
1.0
 10
-13.16957
 20
12.18984
 30
0.0
 10
-13.16957
 20
12.19191
 30
0.0
 10
-13.16957
 20
12.19398
 30
0.0
 10
-13.16957
 20
12.19605
 30
0.0
 10
-13.16957
 20
12.19605
 30
0.0
 10
-13.16957
 20
12.21238
 30
0.0
 10
-13.16956
 20
12.2287
 30
0.0
 10
-13.16957
 20
12.24503
 30
0.0
 10
-13.16957
 20
12.24503
 30
0.0
 10
-13.16957
 20
12.26038
 30
0.0
 10
-13.16957
 20
12.27573
 30
0.0
 10
-13.16957
 20
12.29108
 30
0.0
  0
SPLINE
  5
7B
330
1F
100
AcDbEntity
  8
0
370
    15
100
AcDbSpline
210
0.0
220
0.0
230
1.0
 70
    24
 71
     3
 72
     8
 73
     4
 74
     0
 42
0.0000000001
 43
0.0000000001
 40
0.0
 40
0.0
 40
0.0
 40
0.0
 40
1.0
 40
1.0
 40
1.0
 40
1.0
 10
-13.16957
 20
11.07886
 30
0.0
 10
-13.16957
 20
11.07886
 30
0.0
 10
-13.16957
 20
12.18984
 30
0.0
 10
-13.16957
 20
12.18984
 30
0.0
  0
SPLINE
  5
7C
330
1F
100
AcDbEntity
  8
0
370
    15
100
AcDbSpline
210
0.0
220
0.0
230
1.0
 70
     8
 71
     3
 72
     8
 73
     4
 74
     0
 42
0.0000000001
 43
0.0000000001
 40
0.0
 40
0.0
 40
0.0
 40
0.0
 40
1.0
 40
1.0
 40
1.0
 40
1.0
 10
-13.19516
 20
11.05425
 30
0.0
 10
-13.36995
 20
11.05431
 30
0.0
 10
-13.54474
 20
11.05431
 30
0.0
 10
-13.71952
 20
11.05425
 30
0.0
  0
SPLINE
  5
7D
330
1F
100
AcDbEntity
  8
0
370
    15
100
AcDbSpline
210
0.0
220
0.0
230
1.0
 70
    27
 71
     3
 72
     8
 73
     4
 74
     0
 42
0.0000000001
 43
0.0000000001
 40
0.0
 40
0.0
 40
0.0
 40
0.0
 40
1.0
 40
1.0
 40
1.0
 40
1.0
 10
-13.19516
 20
11.05425
 30
0.0
 10
-13.19516
 20
11.05425
 30
0.0
 10
-13.19516
 20
11.05425
 30
0.0
 10
-13.19516
 20
11.05425
 30
0.0
  0
SPLINE
  5
7E
330
1F
100
AcDbEntity
  8
0
370
    15
100
AcDbSpline
210
0.0
220
0.0
230
1.0
 70
    27
 71
     3
 72
     8
 73
     4
 74
     0
 42
0.0000000001
 43
0.0000000001
 40
0.0
 40
0.0
 40
0.0
 40
0.0
 40
1.0
 40
1.0
 40
1.0
 40
1.0
 10
-13.71952
 20
11.05425
 30
0.0
 10
-13.71952
 20
11.05425
 30
0.0
 10
-13.71952
 20
11.05425
 30
0.0
 10
-13.71952
 20
11.05425
 30
0.0
  0
SPLINE
  5
7F
330
1F
100
AcDbEntity
  8
0
370
    15
100
AcDbSpline
210
0.0
220
0.0
230
1.0
 70
     8
 71
     3
 72
     8
 73
     4
 74
     0
 42
0.0000000001
 43
0.0000000001
 40
0.0
 40
0.0
 40
0.0
 40
0.0
 40
1.0
 40
1.0
 40
1.0
 40
1.0
 10
-13.19516
 20
11.05425
 30
0.0
 10
-13.36995
 20
11.05431
 30
0.0
 10
-13.54474
 20
11.05431
 30
0.0
 10
-13.71952
 20
11.05425
 30
0.0
  0
SPLINE
  5
80
330
1F
100
AcDbEntity
  8
0
370
    15
100
AcDbSpline
210
0.0
220
0.0
230
1.0
 70
     8
 71
     3
 72
     8
 73
     4
 74
     0
 42
0.0000000001
 43
0.0000000001
 40
0.0
 40
0.0
 40
0.0
 40
0.0
 40
1.0
 40
1.0
 40
1.0
 40
1.0
 10
-13.19516
 20
11.05425
 30
0.0
 10
-13.36995
 20
11.05431
 30
0.0
 10
-13.54474
 20
11.05431
 30
0.0
 10
-13.71952
 20
11.05425
 30
0.0
  0
SPLINE
  5
81
330
1F
100
AcDbEntity
  8
0
370
    15
100
AcDbSpline
210
0.0
220
0.0
230
1.0
 70
     8
 71
     3
 72
     8
 73
     4
 74
     0
 42
0.0000000001
 43
0.0000000001
 40
0.0
 40
0.0
 40
0.0
 40
0.0
 40
1.0
 40
1.0
 40
1.0
 40
1.0
 10
-13.19516
 20
11.05425
 30
0.0
 10
-13.36995
 20
11.05431
 30
0.0
 10
-13.54474
 20
11.05431
 30
0.0
 10
-13.71952
 20
11.05425
 30
0.0
  0
SPLINE
  5
82
330
1F
100
AcDbEntity
  8
0
370
    15
100
AcDbSpline
210
0.0
220
0.0
230
1.0
 70
     8
 71
     3
 72
     8
 73
     4
 74
     0
 42
0.0000000001
 43
0.0000000001
 40
0.0
 40
0.0
 40
0.0
 40
0.0
 40
1.0
 40
1.0
 40
1.0
 40
1.0
 10
-13.19516
 20
11.05425
 30
0.0
 10
-13.36995
 20
11.05431
 30
0.0
 10
-13.54474
 20
11.05431
 30
0.0
 10
-13.71952
 20
11.05425
 30
0.0
  0
SPLINE
  5
83
330
1F
100
AcDbEntity
  8
0
370
    15
100
AcDbSpline
210
0.0
220
0.0
230
1.0
 70
     8
 71
     3
 72
     8
 73
     4
 74
     0
 42
0.0000000001
 43
0.0000000001
 40
0.0
 40
0.0
 40
0.0
 40
0.0
 40
1.0
 40
1.0
 40
1.0
 40
1.0
 10
-13.19516
 20
11.05425
 30
0.0
 10
-13.36995
 20
11.05431
 30
0.0
 10
-13.54474
 20
11.05431
 30
0.0
 10
-13.71952
 20
11.05425
 30
0.0
  0
SPLINE
  5
84
330
1F
100
AcDbEntity
  8
0
370
    15
100
AcDbSpline
210
0.0
220
0.0
230
1.0
 70
     8
 71
     3
 72
     8
 73
     4
 74
     0
 42
0.0000000001
 43
0.0000000001
 40
0.0
 40
0.0
 40
0.0
 40
0.0
 40
1.0
 40
1.0
 40
1.0
 40
1.0
 10
-13.19516
 20
11.05425
 30
0.0
 10
-13.36995
 20
11.05431
 30
0.0
 10
-13.54474
 20
11.05431
 30
0.0
 10
-13.71952
 20
11.05425
 30
0.0
  0
SPLINE
  5
85
330
1F
100
AcDbEntity
  8
0
370
    15
100
AcDbSpline
210
0.0
220
0.0
230
1.0
 70
     8
 71
     3
 72
     8
 73
     4
 74
     0
 42
0.0000000001
 43
0.0000000001
 40
0.0
 40
0.0
 40
0.0
 40
0.0
 40
1.0
 40
1.0
 40
1.0
 40
1.0
 10
-13.19516
 20
11.05425
 30
0.0
 10
-13.36995
 20
11.05431
 30
0.0
 10
-13.54474
 20
11.05431
 30
0.0
 10
-13.71952
 20
11.05425
 30
0.0
  0
SPLINE
  5
86
330
1F
100
AcDbEntity
  8
0
370
    15
100
AcDbSpline
210
0.0
220
0.0
230
1.0
 70
     8
 71
     3
 72
     8
 73
     4
 74
     0
 42
0.0000000001
 43
0.0000000001
 40
0.0
 40
0.0
 40
0.0
 40
0.0
 40
1.0
 40
1.0
 40
1.0
 40
1.0
 10
-13.19516
 20
11.05425
 30
0.0
 10
-13.36995
 20
11.05431
 30
0.0
 10
-13.54474
 20
11.05431
 30
0.0
 10
-13.71952
 20
11.05425
 30
0.0
  0
SPLINE
  5
87
330
1F
100
AcDbEntity
  8
0
370
    15
100
AcDbSpline
210
0.0
220
0.0
230
1.0
 70
     8
 71
     3
 72
     8
 73
     4
 74
     0
 42
0.0000000001
 43
0.0000000001
 40
0.0
 40
0.0
 40
0.0
 40
0.0
 40
1.0
 40
1.0
 40
1.0
 40
1.0
 10
-13.19516
 20
11.05425
 30
0.0
 10
-13.36995
 20
11.05431
 30
0.0
 10
-13.54474
 20
11.05431
 30
0.0
 10
-13.71952
 20
11.05425
 30
0.0
  0
SPLINE
  5
88
330
1F
100
AcDbEntity
  8
0
370
    15
100
AcDbSpline
210
0.0
220
0.0
230
1.0
 70
     8
 71
     3
 72
     8
 73
     4
 74
     0
 42
0.0000000001
 43
0.0000000001
 40
0.0
 40
0.0
 40
0.0
 40
0.0
 40
1.0
 40
1.0
 40
1.0
 40
1.0
 10
-13.19516
 20
11.05425
 30
0.0
 10
-13.36995
 20
11.05431
 30
0.0
 10
-13.54474
 20
11.05431
 30
0.0
 10
-13.71952
 20
11.05425
 30
0.0
  0
SPLINE
  5
89
330
1F
100
AcDbEntity
  8
0
370
    15
100
AcDbSpline
210
0.0
220
0.0
230
1.0
 70
     8
 71
     3
 72
     8
 73
     4
 74
     0
 42
0.0000000001
 43
0.0000000001
 40
0.0
 40
0.0
 40
0.0
 40
0.0
 40
1.0
 40
1.0
 40
1.0
 40
1.0
 10
-13.19516
 20
11.05425
 30
0.0
 10
-13.36995
 20
11.05431
 30
0.0
 10
-13.54474
 20
11.05431
 30
0.0
 10
-13.71952
 20
11.05425
 30
0.0
  0
SPLINE
  5
8A
330
1F
100
AcDbEntity
  8
0
370
    15
100
AcDbSpline
210
0.0
220
0.0
230
1.0
 70
     8
 71
     3
 72
     8
 73
     4
 74
     0
 42
0.0000000001
 43
0.0000000001
 40
0.0
 40
0.0
 40
0.0
 40
0.0
 40
1.0
 40
1.0
 40
1.0
 40
1.0
 10
-13.19516
 20
11.05425
 30
0.0
 10
-13.36995
 20
11.05431
 30
0.0
 10
-13.54474
 20
11.05431
 30
0.0
 10
-13.71952
 20
11.05425
 30
0.0
  0
SPLINE
  5
8B
330
1F
100
AcDbEntity
  8
0
370
    15
100
AcDbSpline
210
0.0
220
0.0
230
1.0
 70
     8
 71
     3
 72
     8
 73
     4
 74
     0
 42
0.0000000001
 43
0.0000000001
 40
0.0
 40
0.0
 40
0.0
 40
0.0
 40
1.0
 40
1.0
 40
1.0
 40
1.0
 10
-13.19516
 20
11.05425
 30
0.0
 10
-13.36995
 20
11.05431
 30
0.0
 10
-13.54474
 20
11.05431
 30
0.0
 10
-13.71952
 20
11.05425
 30
0.0
  0
SPLINE
  5
8C
330
1F
100
AcDbEntity
  8
0
370
    15
100
AcDbSpline
210
0.0
220
0.0
230
1.0
 70
     8
 71
     3
 72
     8
 73
     4
 74
     0
 42
0.0000000001
 43
0.0000000001
 40
0.0
 40
0.0
 40
0.0
 40
0.0
 40
1.0
 40
1.0
 40
1.0
 40
1.0
 10
-13.19516
 20
11.05425
 30
0.0
 10
-13.36995
 20
11.05431
 30
0.0
 10
-13.54474
 20
11.05431
 30
0.0
 10
-13.71952
 20
11.05425
 30
0.0
  0
SPLINE
  5
8D
330
1F
100
AcDbEntity
  8
0
370
    15
100
AcDbSpline
210
0.0
220
0.0
230
1.0
 70
     8
 71
     3
 72
     8
 73
     4
 74
     0
 42
0.0000000001
 43
0.0000000001
 40
0.0
 40
0.0
 40
0.0
 40
0.0
 40
1.0
 40
1.0
 40
1.0
 40
1.0
 10
-13.19516
 20
11.05425
 30
0.0
 10
-13.36995
 20
11.05431
 30
0.0
 10
-13.54474
 20
11.05431
 30
0.0
 10
-13.71952
 20
11.05425
 30
0.0
  0
SPLINE
  5
8E
330
1F
100
AcDbEntity
  8
0
370
    15
100
AcDbSpline
210
0.0
220
0.0
230
1.0
 70
     8
 71
     3
 72
     8
 73
     4
 74
     0
 42
0.0000000001
 43
0.0000000001
 40
0.0
 40
0.0
 40
0.0
 40
0.0
 40
1.0
 40
1.0
 40
1.0
 40
1.0
 10
-13.19516
 20
11.05425
 30
0.0
 10
-13.36995
 20
11.05431
 30
0.0
 10
-13.54474
 20
11.05431
 30
0.0
 10
-13.71952
 20
11.05425
 30
0.0
  0
SPLINE
  5
8F
330
1F
100
AcDbEntity
  8
0
370
    15
100
AcDbSpline
210
0.0
220
0.0
230
1.0
 70
     8
 71
     3
 72
     8
 73
     4
 74
     0
 42
0.0000000001
 43
0.0000000001
 40
0.0
 40
0.0
 40
0.0
 40
0.0
 40
1.0
 40
1.0
 40
1.0
 40
1.0
 10
-13.19516
 20
11.05425
 30
0.0
 10
-13.36995
 20
11.05431
 30
0.0
 10
-13.54474
 20
11.05431
 30
0.0
 10
-13.71952
 20
11.05425
 30
0.0
  0
SPLINE
  5
90
330
1F
100
AcDbEntity
  8
0
370
    15
100
AcDbSpline
210
0.0
220
0.0
230
1.0
 70
     8
 71
     3
 72
     8
 73
     4
 74
     0
 42
0.0000000001
 43
0.0000000001
 40
0.0
 40
0.0
 40
0.0
 40
0.0
 40
1.0
 40
1.0
 40
1.0
 40
1.0
 10
-13.19516
 20
11.05425
 30
0.0
 10
-13.36995
 20
11.05431
 30
0.0
 10
-13.54474
 20
11.05431
 30
0.0
 10
-13.71952
 20
11.05425
 30
0.0
  0
SPLINE
  5
91
330
1F
100
AcDbEntity
  8
0
370
    15
100
AcDbSpline
210
0.0
220
0.0
230
1.0
 70
     8
 71
     3
 72
     8
 73
     4
 74
     0
 42
0.0000000001
 43
0.0000000001
 40
0.0
 40
0.0
 40
0.0
 40
0.0
 40
1.0
 40
1.0
 40
1.0
 40
1.0
 10
-13.19516
 20
11.05425
 30
0.0
 10
-13.36995
 20
11.05431
 30
0.0
 10
-13.54474
 20
11.05431
 30
0.0
 10
-13.71952
 20
11.05425
 30
0.0
  0
SPLINE
  5
92
330
1F
100
AcDbEntity
  8
0
370
    15
100
AcDbSpline
210
0.0
220
0.0
230
1.0
 70
     8
 71
     3
 72
     8
 73
     4
 74
     0
 42
0.0000000001
 43
0.0000000001
 40
0.0
 40
0.0
 40
0.0
 40
0.0
 40
1.0
 40
1.0
 40
1.0
 40
1.0
 10
-13.19516
 20
11.05425
 30
0.0
 10
-13.36995
 20
11.05431
 30
0.0
 10
-13.54474
 20
11.05431
 30
0.0
 10
-13.71952
 20
11.05425
 30
0.0
  0
SPLINE
  5
93
330
1F
100
AcDbEntity
  8
0
370
    15
100
AcDbSpline
210
0.0
220
0.0
230
1.0
 70
    24
 71
     3
 72
     8
 73
     4
 74
     0
 42
0.0000000001
 43
0.0000000001
 40
0.0
 40
0.0
 40
0.0
 40
0.0
 40
1.0
 40
1.0
 40
1.0
 40
1.0
 10
-13.16957
 20
11.07886
 30
0.0
 10
-13.16957
 20
11.07886
 30
0.0
 10
-13.07103
 20
11.07886
 30
0.0
 10
-13.07103
 20
11.07886
 30
0.0
  0
SPLINE
  5
94
330
1F
100
AcDbEntity
  8
0
370
    15
100
AcDbSpline
210
0.0
220
0.0
230
1.0
 70
     8
 71
     3
 72
    24
 73
    20
 74
     0
 42
0.0000000001
 43
0.0000000001
 40
0.0
 40
0.0
 40
0.0
 40
0.0
 40
0.1666666666666667
 40
0.1666666666666667
 40
0.1666666666666667
 40
0.1666666666666667
 40
0.3333333333333333
 40
0.3333333333333333
 40
0.3333333333333333
 40
0.3333333333333333
 40
0.5
 40
0.5
 40
0.5
 40
0.5
 40
0.6666666666666666
 40
0.6666666666666666
 40
0.6666666666666666
 40
0.6666666666666666
 40
1.0
 40
1.0
 40
1.0
 40
1.0
 10
-13.07103
 20
11.07886
 30
0.0
 10
-13.07161
 20
11.06983
 30
0.0
 10
-13.07219
 20
11.06081
 30
0.0
 10
-13.07396
 20
11.05197
 30
0.0
 10
-13.07396
 20
11.05197
 30
0.0
 10
-13.07669
 20
11.03834
 30
0.0
 10
-13.08223
 20
11.02516
 30
0.0
 10
-13.08968
 20
11.0133
 30
0.0
 10
-13.08968
 20
11.0133
 30
0.0
 10
-13.09716
 20
11.00137
 30
0.0
 10
-13.10655
 20
10.99078
 30
0.0
 10
-13.11748
 20
10.98188
 30
0.0
 10
-13.11748
 20
10.98188
 30
0.0
 10
-13.12846
 20
10.97294
 30
0.0
 10
-13.14099
 20
10.96572
 30
0.0
 10
-13.15431
 20
10.96143
 30
0.0
 10
-13.15431
 20
10.96143
 30
0.0
 10
-13.16762
 20
10.95713
 30
0.0
 10
-13.18172
 20
10.95575
 30
0.0
 10
-13.19582
 20
10.95438
 30
0.0
  0
SPLINE
  5
95
330
1F
100
AcDbEntity
  8
0
370
    15
100
AcDbSpline
210
0.0
220
0.0
230
1.0
 70
     8
 71
     3
 72
     8
 73
     4
 74
     0
 42
0.0000000001
 43
0.0000000001
 40
0.0
 40
0.0
 40
0.0
 40
0.0
 40
1.0
 40
1.0
 40
1.0
 40
1.0
 10
-13.19516
 20
11.05425
 30
0.0
 10
-13.19577
 20
11.02096
 30
0.0
 10
-13.19599
 20
10.98767
 30
0.0
 10
-13.19582
 20
10.95438
 30
0.0
  0
SPLINE
  5
96
330
1F
100
AcDbEntity
  8
0
370
    15
100
AcDbSpline
210
0.0
220
0.0
230
1.0
 70
     8
 71
     3
 72
     8
 73
     4
 74
     0
 42
0.0000000001
 43
0.0000000001
 40
0.0
 40
0.0
 40
0.0
 40
0.0
 40
1.0
 40
1.0
 40
1.0
 40
1.0
 10
-13.71887
 20
10.95438
 30
0.0
 10
-13.7187
 20
10.98766
 30
0.0
 10
-13.71892
 20
11.02095
 30
0.0
 10
-13.71952
 20
11.05423
 30
0.0
  0
SPLINE
  5
97
330
1F
100
AcDbEntity
  8
0
370
    15
100
AcDbSpline
210
0.0
220
0.0
230
1.0
 70
     8
 71
     3
 72
    24
 73
    20
 74
     0
 42
0.0000000001
 43
0.0000000001
 40
0.0
 40
0.0
 40
0.0
 40
0.0
 40
0.1666666666666667
 40
0.1666666666666667
 40
0.1666666666666667
 40
0.1666666666666667
 40
0.3333333333333333
 40
0.3333333333333333
 40
0.3333333333333333
 40
0.3333333333333333
 40
0.5
 40
0.5
 40
0.5
 40
0.5
 40
0.6666666666666666
 40
0.6666666666666666
 40
0.6666666666666666
 40
0.6666666666666666
 40
1.0
 40
1.0
 40
1.0
 40
1.0
 10
-13.71887
 20
10.95438
 30
0.0
 10
-13.72829
 20
10.955
 30
0.0
 10
-13.73771
 20
10.95563
 30
0.0
 10
-13.74691
 20
10.95754
 30
0.0
 10
-13.74691
 20
10.95754
 30
0.0
 10
-13.76052
 20
10.96037
 30
0.0
 10
-13.77365
 20
10.966
 30
0.0
 10
-13.78546
 20
10.97352
 30
0.0
 10
-13.78546
 20
10.97352
 30
0.0
 10
-13.79725
 20
10.98101
 30
0.0
 10
-13.80772
 20
10.99037
 30
0.0
 10
-13.81651
 20
11.00125
 30
0.0
 10
-13.81651
 20
11.00125
 30
0.0
 10
-13.82532
 20
11.01214
 30
0.0
 10
-13.83244
 20
11.02455
 30
0.0
 10
-13.83668
 20
11.03773
 30
0.0
 10
-13.83668
 20
11.03773
 30
0.0
 10
-13.84093
 20
11.05093
 30
0.0
 10
-13.84229
 20
11.06489
 30
0.0
 10
-13.84366
 20
11.07886
 30
0.0
  0
SPLINE
  5
98
330
1F
100
AcDbEntity
  8
0
370
    15
100
AcDbSpline
210
0.0
220
0.0
230
1.0
 70
    24
 71
     3
 72
     8
 73
     4
 74
     0
 42
0.0000000001
 43
0.0000000001
 40
0.0
 40
0.0
 40
0.0
 40
0.0
 40
1.0
 40
1.0
 40
1.0
 40
1.0
 10
-13.74512
 20
11.07886
 30
0.0
 10
-13.74512
 20
11.07886
 30
0.0
 10
-13.84366
 20
11.07886
 30
0.0
 10
-13.84366
 20
11.07886
 30
0.0
  0
SPLINE
  5
99
330
1F
100
AcDbEntity
  8
0
370
    15
100
AcDbSpline
210
0.0
220
0.0
230
1.0
 70
     8
 71
     3
 72
     8
 73
     4
 74
     0
 42
0.0000000001
 43
0.0000000001
 40
0.0
 40
0.0
 40
0.0
 40
0.0
 40
1.0
 40
1.0
 40
1.0
 40
1.0
 10
-13.19582
 20
10.95438
 30
0.0
 10
-13.37017
 20
10.95443
 30
0.0
 10
-13.54452
 20
10.95443
 30
0.0
 10
-13.71887
 20
10.95438
 30
0.0
  0
SPLINE
  5
9A
330
1F
100
AcDbEntity
  8
0
370
    15
100
AcDbSpline
210
0.0
220
0.0
230
1.0
 70
    24
 71
     3
 72
     8
 73
     4
 74
     0
 42
0.0000000001
 43
0.0000000001
 40
0.0
 40
0.0
 40
0.0
 40
0.0
 40
1.0
 40
1.0
 40
1.0
 40
1.0
 10
-13.19582
 20
10.95438
 30
0.0
 10
-13.19582
 20
10.95438
 30
0.0
 10
-13.19582
 20
10.95437
 30
0.0
 10
-13.19582
 20
10.95437
 30
0.0
  0
SPLINE
  5
9B
330
1F
100
AcDbEntity
  8
0
370
    15
100
AcDbSpline
210
0.0
220
0.0
230
1.0
 70
    24
 71
     3
 72
     8
 73
     4
 74
     0
 42
0.0000000001
 43
0.0000000001
 40
0.0
 40
0.0
 40
0.0
 40
0.0
 40
1.0
 40
1.0
 40
1.0
 40
1.0
 10
-13.71887
 20
10.95438
 30
0.0
 10
-13.71887
 20
10.95438
 30
0.0
 10
-13.71887
 20
10.95437
 30
0.0
 10
-13.71887
 20
10.95437
 30
0.0
  0
SPLINE
  5
9C
330
1F
100
AcDbEntity
  8
0
370
    15
100
AcDbSpline
210
0.0
220
0.0
230
1.0
 70
     8
 71
     3
 72
     8
 73
     4
 74
     0
 42
0.0000000001
 43
0.0000000001
 40
0.0
 40
0.0
 40
0.0
 40
0.0
 40
1.0
 40
1.0
 40
1.0
 40
1.0
 10
-13.19582
 20
10.95438
 30
0.0
 10
-13.37017
 20
10.95443
 30
0.0
 10
-13.54452
 20
10.95443
 30
0.0
 10
-13.71887
 20
10.95438
 30
0.0
  0
SPLINE
  5
9D
330
1F
100
AcDbEntity
  8
0
370
    15
100
AcDbSpline
210
0.0
220
0.0
230
1.0
 70
     8
 71
     3
 72
     8
 73
     4
 74
     0
 42
0.0000000001
 43
0.0000000001
 40
0.0
 40
0.0
 40
0.0
 40
0.0
 40
1.0
 40
1.0
 40
1.0
 40
1.0
 10
-13.19582
 20
10.95437
 30
0.0
 10
-13.37017
 20
10.95443
 30
0.0
 10
-13.54452
 20
10.95443
 30
0.0
 10
-13.71887
 20
10.95437
 30
0.0
  0
SPLINE
  5
9E
330
1F
100
AcDbEntity
  8
0
370
    15
100
AcDbSpline
210
0.0
220
0.0
230
1.0
 70
     8
 71
     3
 72
     8
 73
     4
 74
     0
 42
0.0000000001
 43
0.0000000001
 40
0.0
 40
0.0
 40
0.0
 40
0.0
 40
1.0
 40
1.0
 40
1.0
 40
1.0
 10
-13.19582
 20
10.95437
 30
0.0
 10
-13.37017
 20
10.95443
 30
0.0
 10
-13.54452
 20
10.95443
 30
0.0
 10
-13.71887
 20
10.95437
 30
0.0
  0
SPLINE
  5
9F
330
1F
100
AcDbEntity
  8
0
370
    15
100
AcDbSpline
210
0.0
220
0.0
230
1.0
 70
     8
 71
     3
 72
     8
 73
     4
 74
     0
 42
0.0000000001
 43
0.0000000001
 40
0.0
 40
0.0
 40
0.0
 40
0.0
 40
1.0
 40
1.0
 40
1.0
 40
1.0
 10
-13.19582
 20
10.95437
 30
0.0
 10
-13.37017
 20
10.95443
 30
0.0
 10
-13.54452
 20
10.95443
 30
0.0
 10
-13.71887
 20
10.95437
 30
0.0
  0
SPLINE
  5
A0
330
1F
100
AcDbEntity
  8
0
370
    15
100
AcDbSpline
210
0.0
220
0.0
230
1.0
 70
     8
 71
     3
 72
     8
 73
     4
 74
     0
 42
0.0000000001
 43
0.0000000001
 40
0.0
 40
0.0
 40
0.0
 40
0.0
 40
1.0
 40
1.0
 40
1.0
 40
1.0
 10
-13.19582
 20
10.95437
 30
0.0
 10
-13.37017
 20
10.95443
 30
0.0
 10
-13.54452
 20
10.95443
 30
0.0
 10
-13.71887
 20
10.95437
 30
0.0
  0
SPLINE
  5
A1
330
1F
100
AcDbEntity
  8
0
370
    15
100
AcDbSpline
210
0.0
220
0.0
230
1.0
 70
     8
 71
     3
 72
     8
 73
     4
 74
     0
 42
0.0000000001
 43
0.0000000001
 40
0.0
 40
0.0
 40
0.0
 40
0.0
 40
1.0
 40
1.0
 40
1.0
 40
1.0
 10
-13.19582
 20
10.95437
 30
0.0
 10
-13.37017
 20
10.95443
 30
0.0
 10
-13.54452
 20
10.95443
 30
0.0
 10
-13.71887
 20
10.95437
 30
0.0
  0
SPLINE
  5
A2
330
1F
100
AcDbEntity
  8
0
370
    15
100
AcDbSpline
210
0.0
220
0.0
230
1.0
 70
     8
 71
     3
 72
     8
 73
     4
 74
     0
 42
0.0000000001
 43
0.0000000001
 40
0.0
 40
0.0
 40
0.0
 40
0.0
 40
1.0
 40
1.0
 40
1.0
 40
1.0
 10
-13.19582
 20
10.95437
 30
0.0
 10
-13.37017
 20
10.95443
 30
0.0
 10
-13.54452
 20
10.95443
 30
0.0
 10
-13.71887
 20
10.95437
 30
0.0
  0
SPLINE
  5
A3
330
1F
100
AcDbEntity
  8
0
370
    15
100
AcDbSpline
210
0.0
220
0.0
230
1.0
 70
     8
 71
     3
 72
     8
 73
     4
 74
     0
 42
0.0000000001
 43
0.0000000001
 40
0.0
 40
0.0
 40
0.0
 40
0.0
 40
1.0
 40
1.0
 40
1.0
 40
1.0
 10
-13.19582
 20
10.95437
 30
0.0
 10
-13.37017
 20
10.95443
 30
0.0
 10
-13.54452
 20
10.95443
 30
0.0
 10
-13.71887
 20
10.95437
 30
0.0
  0
SPLINE
  5
A4
330
1F
100
AcDbEntity
  8
0
370
    15
100
AcDbSpline
210
0.0
220
0.0
230
1.0
 70
     8
 71
     3
 72
     8
 73
     4
 74
     0
 42
0.0000000001
 43
0.0000000001
 40
0.0
 40
0.0
 40
0.0
 40
0.0
 40
1.0
 40
1.0
 40
1.0
 40
1.0
 10
-13.19582
 20
10.95437
 30
0.0
 10
-13.37017
 20
10.95443
 30
0.0
 10
-13.54452
 20
10.95443
 30
0.0
 10
-13.71887
 20
10.95437
 30
0.0
  0
SPLINE
  5
A5
330
1F
100
AcDbEntity
  8
0
370
    15
100
AcDbSpline
210
0.0
220
0.0
230
1.0
 70
     8
 71
     3
 72
     8
 73
     4
 74
     0
 42
0.0000000001
 43
0.0000000001
 40
0.0
 40
0.0
 40
0.0
 40
0.0
 40
1.0
 40
1.0
 40
1.0
 40
1.0
 10
-13.19582
 20
10.95437
 30
0.0
 10
-13.37017
 20
10.95443
 30
0.0
 10
-13.54452
 20
10.95443
 30
0.0
 10
-13.71887
 20
10.95437
 30
0.0
  0
SPLINE
  5
A6
330
1F
100
AcDbEntity
  8
0
370
    15
100
AcDbSpline
210
0.0
220
0.0
230
1.0
 70
     8
 71
     3
 72
     8
 73
     4
 74
     0
 42
0.0000000001
 43
0.0000000001
 40
0.0
 40
0.0
 40
0.0
 40
0.0
 40
1.0
 40
1.0
 40
1.0
 40
1.0
 10
-13.19582
 20
10.95437
 30
0.0
 10
-13.37017
 20
10.95443
 30
0.0
 10
-13.54452
 20
10.95443
 30
0.0
 10
-13.71887
 20
10.95437
 30
0.0
  0
SPLINE
  5
A7
330
1F
100
AcDbEntity
  8
0
370
    15
100
AcDbSpline
210
0.0
220
0.0
230
1.0
 70
     8
 71
     3
 72
     8
 73
     4
 74
     0
 42
0.0000000001
 43
0.0000000001
 40
0.0
 40
0.0
 40
0.0
 40
0.0
 40
1.0
 40
1.0
 40
1.0
 40
1.0
 10
-13.19582
 20
10.95437
 30
0.0
 10
-13.37017
 20
10.95443
 30
0.0
 10
-13.54452
 20
10.95443
 30
0.0
 10
-13.71887
 20
10.95437
 30
0.0
  0
SPLINE
  5
A8
330
1F
100
AcDbEntity
  8
0
370
    15
100
AcDbSpline
210
0.0
220
0.0
230
1.0
 70
     8
 71
     3
 72
     8
 73
     4
 74
     0
 42
0.0000000001
 43
0.0000000001
 40
0.0
 40
0.0
 40
0.0
 40
0.0
 40
1.0
 40
1.0
 40
1.0
 40
1.0
 10
-13.19582
 20
10.95437
 30
0.0
 10
-13.37017
 20
10.95443
 30
0.0
 10
-13.54452
 20
10.95443
 30
0.0
 10
-13.71887
 20
10.95437
 30
0.0
  0
SPLINE
  5
A9
330
1F
100
AcDbEntity
  8
0
370
    15
100
AcDbSpline
210
0.0
220
0.0
230
1.0
 70
     8
 71
     3
 72
     8
 73
     4
 74
     0
 42
0.0000000001
 43
0.0000000001
 40
0.0
 40
0.0
 40
0.0
 40
0.0
 40
1.0
 40
1.0
 40
1.0
 40
1.0
 10
-13.19582
 20
10.95437
 30
0.0
 10
-13.37017
 20
10.95443
 30
0.0
 10
-13.54452
 20
10.95443
 30
0.0
 10
-13.71887
 20
10.95437
 30
0.0
  0
SPLINE
  5
AA
330
1F
100
AcDbEntity
  8
0
370
    15
100
AcDbSpline
210
0.0
220
0.0
230
1.0
 70
     8
 71
     3
 72
     8
 73
     4
 74
     0
 42
0.0000000001
 43
0.0000000001
 40
0.0
 40
0.0
 40
0.0
 40
0.0
 40
1.0
 40
1.0
 40
1.0
 40
1.0
 10
-13.19582
 20
10.95437
 30
0.0
 10
-13.37017
 20
10.95443
 30
0.0
 10
-13.54452
 20
10.95443
 30
0.0
 10
-13.71887
 20
10.95437
 30
0.0
  0
SPLINE
  5
AB
330
1F
100
AcDbEntity
  8
0
370
    15
100
AcDbSpline
210
0.0
220
0.0
230
1.0
 70
     8
 71
     3
 72
     8
 73
     4
 74
     0
 42
0.0000000001
 43
0.0000000001
 40
0.0
 40
0.0
 40
0.0
 40
0.0
 40
1.0
 40
1.0
 40
1.0
 40
1.0
 10
-13.19582
 20
10.95437
 30
0.0
 10
-13.37017
 20
10.95443
 30
0.0
 10
-13.54452
 20
10.95443
 30
0.0
 10
-13.71887
 20
10.95437
 30
0.0
  0
SPLINE
  5
AC
330
1F
100
AcDbEntity
  8
0
370
    15
100
AcDbSpline
210
0.0
220
0.0
230
1.0
 70
     8
 71
     3
 72
     8
 73
     4
 74
     0
 42
0.0000000001
 43
0.0000000001
 40
0.0
 40
0.0
 40
0.0
 40
0.0
 40
1.0
 40
1.0
 40
1.0
 40
1.0
 10
-13.19582
 20
10.95437
 30
0.0
 10
-13.37017
 20
10.95443
 30
0.0
 10
-13.54452
 20
10.95443
 30
0.0
 10
-13.71887
 20
10.95437
 30
0.0
  0
SPLINE
  5
AD
330
1F
100
AcDbEntity
  8
0
370
    15
100
AcDbSpline
210
0.0
220
0.0
230
1.0
 70
     8
 71
     3
 72
     8
 73
     4
 74
     0
 42
0.0000000001
 43
0.0000000001
 40
0.0
 40
0.0
 40
0.0
 40
0.0
 40
1.0
 40
1.0
 40
1.0
 40
1.0
 10
-13.19582
 20
10.95437
 30
0.0
 10
-13.37017
 20
10.95443
 30
0.0
 10
-13.54452
 20
10.95443
 30
0.0
 10
-13.71887
 20
10.95437
 30
0.0
  0
SPLINE
  5
AE
330
1F
100
AcDbEntity
  8
0
370
    15
100
AcDbSpline
210
0.0
220
0.0
230
1.0
 70
     8
 71
     3
 72
     8
 73
     4
 74
     0
 42
0.0000000001
 43
0.0000000001
 40
0.0
 40
0.0
 40
0.0
 40
0.0
 40
1.0
 40
1.0
 40
1.0
 40
1.0
 10
-13.19582
 20
10.95437
 30
0.0
 10
-13.37017
 20
10.95443
 30
0.0
 10
-13.54452
 20
10.95443
 30
0.0
 10
-13.71887
 20
10.95437
 30
0.0
  0
SPLINE
  5
AF
330
1F
100
AcDbEntity
  8
0
370
    15
100
AcDbSpline
210
0.0
220
0.0
230
1.0
 70
     8
 71
     3
 72
     8
 73
     4
 74
     0
 42
0.0000000001
 43
0.0000000001
 40
0.0
 40
0.0
 40
0.0
 40
0.0
 40
1.0
 40
1.0
 40
1.0
 40
1.0
 10
-13.19582
 20
10.95437
 30
0.0
 10
-13.37017
 20
10.95443
 30
0.0
 10
-13.54452
 20
10.95443
 30
0.0
 10
-13.71887
 20
10.95437
 30
0.0
  0
SPLINE
  5
B0
330
1F
100
AcDbEntity
  8
0
370
    15
100
AcDbSpline
210
0.0
220
0.0
230
1.0
 70
    24
 71
     3
 72
     8
 73
     4
 74
     0
 42
0.0000000001
 43
0.0000000001
 40
0.0
 40
0.0
 40
0.0
 40
0.0
 40
1.0
 40
1.0
 40
1.0
 40
1.0
 10
-13.84366
 20
11.07886
 30
0.0
 10
-13.84366
 20
11.07886
 30
0.0
 10
-13.84366
 20
12.18979
 30
0.0
 10
-13.84366
 20
12.18979
 30
0.0
  0
SPLINE
  5
B1
330
1F
100
AcDbEntity
  8
0
370
    15
100
AcDbSpline
210
0.0
220
0.0
230
1.0
 70
    24
 71
     3
 72
    20
 73
    16
 74
     0
 42
0.0000000001
 43
0.0000000001
 40
0.0
 40
0.0
 40
0.0
 40
0.0
 40
0.2
 40
0.2
 40
0.2
 40
0.2
 40
0.4
 40
0.4
 40
0.4
 40
0.4
 40
0.6
 40
0.6
 40
0.6
 40
0.6
 40
1.0
 40
1.0
 40
1.0
 40
1.0
 10
-13.84366
 20
12.18979
 30
0.0
 10
-13.83148
 20
12.18979
 30
0.0
 10
-13.8193
 20
12.18979
 30
0.0
 10
-13.80799
 20
12.18979
 30
0.0
 10
-13.80799
 20
12.18979
 30
0.0
 10
-13.79669
 20
12.18979
 30
0.0
 10
-13.78625
 20
12.18979
 30
0.0
 10
-13.77717
 20
12.18979
 30
0.0
 10
-13.77717
 20
12.18979
 30
0.0
 10
-13.76808
 20
12.18979
 30
0.0
 10
-13.76036
 20
12.18979
 30
0.0
 10
-13.75524
 20
12.18979
 30
0.0
 10
-13.75524
 20
12.18979
 30
0.0
 10
-13.75013
 20
12.18979
 30
0.0
 10
-13.74762
 20
12.18979
 30
0.0
 10
-13.74512
 20
12.18979
 30
0.0
  0
SPLINE
  5
B2
330
1F
100
AcDbEntity
  8
0
370
    15
100
AcDbSpline
210
0.0
220
0.0
230
1.0
 70
    24
 71
     3
 72
     8
 73
     4
 74
     0
 42
0.0000000001
 43
0.0000000001
 40
0.0
 40
0.0
 40
0.0
 40
0.0
 40
1.0
 40
1.0
 40
1.0
 40
1.0
 10
-13.07103
 20
12.18984
 30
0.0
 10
-13.07103
 20
12.18984
 30
0.0
 10
-13.07103
 20
11.07886
 30
0.0
 10
-13.07103
 20
11.07886
 30
0.0
  0
SPLINE
  5
B3
330
1F
100
AcDbEntity
  8
0
370
    15
100
AcDbSpline
210
0.0
220
0.0
230
1.0
 70
    24
 71
     3
 72
    20
 73
    16
 74
     0
 42
0.0000000001
 43
0.0000000001
 40
0.0
 40
0.0
 40
0.0
 40
0.0
 40
0.2
 40
0.2
 40
0.2
 40
0.2
 40
0.4
 40
0.4
 40
0.4
 40
0.4
 40
0.6
 40
0.6
 40
0.6
 40
0.6
 40
1.0
 40
1.0
 40
1.0
 40
1.0
 10
-13.16957
 20
12.18984
 30
0.0
 10
-13.16706
 20
12.18984
 30
0.0
 10
-13.16456
 20
12.18984
 30
0.0
 10
-13.15944
 20
12.18984
 30
0.0
 10
-13.15944
 20
12.18984
 30
0.0
 10
-13.15433
 20
12.18984
 30
0.0
 10
-13.1466
 20
12.18984
 30
0.0
 10
-13.13752
 20
12.18984
 30
0.0
 10
-13.13752
 20
12.18984
 30
0.0
 10
-13.12844
 20
12.18984
 30
0.0
 10
-13.118
 20
12.18984
 30
0.0
 10
-13.10669
 20
12.18984
 30
0.0
 10
-13.10669
 20
12.18984
 30
0.0
 10
-13.09538
 20
12.18984
 30
0.0
 10
-13.08321
 20
12.18984
 30
0.0
 10
-13.07103
 20
12.18984
 30
0.0
  0
SPLINE
  5
B4
330
1F
100
AcDbEntity
  8
0
370
    15
100
AcDbSpline
210
0.0
220
0.0
230
1.0
 70
     8
 71
     3
 72
    12
 73
     8
 74
     0
 42
0.0000000001
 43
0.0000000001
 40
0.0
 40
0.0
 40
0.0
 40
0.0
 40
0.3333333333333333
 40
0.3333333333333333
 40
0.3333333333333333
 40
0.3333333333333333
 40
1.0
 40
1.0
 40
1.0
 40
1.0
 10
-13.17694
 20
12.31164
 30
0.0
 10
-13.16973
 20
12.30907
 30
0.0
 10
-13.16251
 20
12.30649
 30
0.0
 10
-13.15458
 20
12.3065
 30
0.0
 10
-13.15458
 20
12.3065
 30
0.0
 10
-13.14665
 20
12.30652
 30
0.0
 10
-13.138
 20
12.30913
 30
0.0
 10
-13.12936
 20
12.31174
 30
0.0
  0
SPLINE
  5
B5
330
1F
100
AcDbEntity
  8
0
370
    15
100
AcDbSpline
210
0.0
220
0.0
230
1.0
 70
     8
 71
     3
 72
    28
 73
    24
 74
     0
 42
0.0000000001
 43
0.0000000001
 40
0.0
 40
0.0
 40
0.0
 40
0.0
 40
0.1428571428571428
 40
0.1428571428571428
 40
0.1428571428571428
 40
0.1428571428571428
 40
0.2857142857142857
 40
0.2857142857142857
 40
0.2857142857142857
 40
0.2857142857142857
 40
0.4285714285714285
 40
0.4285714285714285
 40
0.4285714285714285
 40
0.4285714285714285
 40
0.5714285714285714
 40
0.5714285714285714
 40
0.5714285714285714
 40
0.5714285714285714
 40
0.7142857142857143
 40
0.7142857142857143
 40
0.7142857142857143
 40
0.7142857142857143
 40
1.0
 40
1.0
 40
1.0
 40
1.0
 10
-13.12936
 20
12.31174
 30
0.0
 10
-13.11696
 20
12.31001
 30
0.0
 10
-13.10457
 20
12.30828
 30
0.0
 10
-13.09262
 20
12.30468
 30
0.0
 10
-13.09262
 20
12.30468
 30
0.0
 10
-13.08808
 20
12.30331
 30
0.0
 10
-13.0836
 20
12.30167
 30
0.0
 10
-13.07942
 20
12.29937
 30
0.0
 10
-13.07942
 20
12.29937
 30
0.0
 10
-13.07755
 20
12.29834
 30
0.0
 10
-13.07575
 20
12.29719
 30
0.0
 10
-13.0742
 20
12.29574
 30
0.0
 10
-13.0742
 20
12.29574
 30
0.0
 10
-13.07351
 20
12.29509
 30
0.0
 10
-13.07287
 20
12.29439
 30
0.0
 10
-13.07233
 20
12.29361
 30
0.0
 10
-13.07233
 20
12.29361
 30
0.0
 10
-13.07198
 20
12.29312
 30
0.0
 10
-13.07166
 20
12.29259
 30
0.0
 10
-13.07146
 20
12.29202
 30
0.0
 10
-13.07146
 20
12.29202
 30
0.0
 10
-13.07121
 20
12.29133
 30
0.0
 10
-13.07112
 20
12.29059
 30
0.0
 10
-13.07103
 20
12.28984
 30
0.0
  0
SPLINE
  5
B6
330
1F
100
AcDbEntity
  8
0
370
    15
100
AcDbSpline
210
0.0
220
0.0
230
1.0
 70
    24
 71
     3
 72
     8
 73
     4
 74
     0
 42
0.0000000001
 43
0.0000000001
 40
0.0
 40
0.0
 40
0.0
 40
0.0
 40
1.0
 40
1.0
 40
1.0
 40
1.0
 10
-13.07103
 20
12.28984
 30
0.0
 10
-13.07103
 20
12.28984
 30
0.0
 10
-13.07103
 20
12.18984
 30
0.0
 10
-13.07103
 20
12.18984
 30
0.0
  0
SPLINE
  5
B7
330
1F
100
AcDbEntity
  8
0
370
    15
100
AcDbSpline
210
0.0
220
0.0
230
1.0
 70
    24
 71
     3
 72
     8
 73
     4
 74
     0
 42
0.0000000001
 43
0.0000000001
 40
0.0
 40
0.0
 40
0.0
 40
0.0
 40
1.0
 40
1.0
 40
1.0
 40
1.0
 10
-13.84366
 20
12.18979
 30
0.0
 10
-13.84366
 20
12.18979
 30
0.0
 10
-13.84366
 20
12.28979
 30
0.0
 10
-13.84366
 20
12.28979
 30
0.0
  0
SPLINE
  5
B8
330
1F
100
AcDbEntity
  8
0
370
    15
100
AcDbSpline
210
0.0
220
0.0
230
1.0
 70
     8
 71
     3
 72
    28
 73
    24
 74
     0
 42
0.0000000001
 43
0.0000000001
 40
0.0
 40
0.0
 40
0.0
 40
0.0
 40
0.1428571428571428
 40
0.1428571428571428
 40
0.1428571428571428
 40
0.1428571428571428
 40
0.2857142857142857
 40
0.2857142857142857
 40
0.2857142857142857
 40
0.2857142857142857
 40
0.4285714285714285
 40
0.4285714285714285
 40
0.4285714285714285
 40
0.4285714285714285
 40
0.5714285714285714
 40
0.5714285714285714
 40
0.5714285714285714
 40
0.5714285714285714
 40
0.7142857142857143
 40
0.7142857142857143
 40
0.7142857142857143
 40
0.7142857142857143
 40
1.0
 40
1.0
 40
1.0
 40
1.0
 10
-13.84366
 20
12.28979
 30
0.0
 10
-13.84357
 20
12.29053
 30
0.0
 10
-13.84348
 20
12.29128
 30
0.0
 10
-13.84323
 20
12.29197
 30
0.0
 10
-13.84323
 20
12.29197
 30
0.0
 10
-13.84302
 20
12.29253
 30
0.0
 10
-13.84271
 20
12.29306
 30
0.0
 10
-13.84236
 20
12.29356
 30
0.0
 10
-13.84236
 20
12.29356
 30
0.0
 10
-13.84181
 20
12.29434
 30
0.0
 10
-13.84117
 20
12.29504
 30
0.0
 10
-13.84049
 20
12.29568
 30
0.0
 10
-13.84049
 20
12.29568
 30
0.0
 10
-13.83894
 20
12.29713
 30
0.0
 10
-13.83714
 20
12.29829
 30
0.0
 10
-13.83528
 20
12.29931
 30
0.0
 10
-13.83528
 20
12.29931
 30
0.0
 10
-13.8311
 20
12.30161
 30
0.0
 10
-13.82663
 20
12.30325
 30
0.0
 10
-13.8221
 20
12.30462
 30
0.0
 10
-13.8221
 20
12.30462
 30
0.0
 10
-13.81017
 20
12.30822
 30
0.0
 10
-13.79779
 20
12.30996
 30
0.0
 10
-13.78542
 20
12.31169
 30
0.0
  0
SPLINE
  5
B9
330
1F
100
AcDbEntity
  8
0
370
    15
100
AcDbSpline
210
0.0
220
0.0
230
1.0
 70
     8
 71
     3
 72
    12
 73
     8
 74
     0
 42
0.0000000001
 43
0.0000000001
 40
0.0
 40
0.0
 40
0.0
 40
0.0
 40
0.3333333333333333
 40
0.3333333333333333
 40
0.3333333333333333
 40
0.3333333333333333
 40
1.0
 40
1.0
 40
1.0
 40
1.0
 10
-13.73776
 20
12.3116
 30
0.0
 10
-13.74498
 20
12.30901
 30
0.0
 10
-13.7522
 20
12.30643
 30
0.0
 10
-13.76014
 20
12.30644
 30
0.0
 10
-13.76014
 20
12.30644
 30
0.0
 10
-13.76809
 20
12.30646
 30
0.0
 10
-13.77675
 20
12.30908
 30
0.0
 10
-13.78542
 20
12.31169
 30
0.0
  0
SPLINE
  5
BA
330
1F
100
AcDbEntity
  8
0
370
    15
100
AcDbSpline
210
0.0
220
0.0
230
1.0
 70
    24
 71
     3
 72
     8
 73
     4
 74
     0
 42
0.0000000001
 43
0.0000000001
 40
0.0
 40
0.0
 40
0.0
 40
0.0
 40
1.0
 40
1.0
 40
1.0
 40
1.0
 10
-13.78542
 20
12.31169
 30
0.0
 10
-13.78542
 20
12.31169
 30
0.0
 10
-13.76715
 20
12.31338
 30
0.0
 10
-13.76715
 20
12.31338
 30
0.0
  0
SPLINE
  5
BB
330
1F
100
AcDbEntity
  8
0
370
    15
100
AcDbSpline
210
0.0
220
0.0
230
1.0
 70
     8
 71
     3
 72
     8
 73
     4
 74
     0
 42
0.0000000001
 43
0.0000000001
 40
0.0
 40
0.0
 40
0.0
 40
0.0
 40
1.0
 40
1.0
 40
1.0
 40
1.0
 10
-13.76715
 20
12.31338
 30
0.0
 10
-13.75688
 20
12.30988
 30
0.0
 10
-13.74575
 20
12.30973
 30
0.0
 10
-13.73539
 20
12.31296
 30
0.0
  0
SPLINE
  5
BC
330
1F
100
AcDbEntity
  8
0
370
    15
100
AcDbSpline
210
0.0
220
0.0
230
1.0
 70
     8
 71
     3
 72
     8
 73
     4
 74
     0
 42
0.0000000001
 43
0.0000000001
 40
0.0
 40
0.0
 40
0.0
 40
0.0
 40
1.0
 40
1.0
 40
1.0
 40
1.0
 10
-13.1793
 20
12.31299
 30
0.0
 10
-13.16894
 20
12.30976
 30
0.0
 10
-13.15782
 20
12.30991
 30
0.0
 10
-13.14754
 20
12.31342
 30
0.0
  0
SPLINE
  5
BD
330
1F
100
AcDbEntity
  8
0
370
    15
100
AcDbSpline
210
0.0
220
0.0
230
1.0
 70
    24
 71
     3
 72
     8
 73
     4
 74
     0
 42
0.0000000001
 43
0.0000000001
 40
0.0
 40
0.0
 40
0.0
 40
0.0
 40
1.0
 40
1.0
 40
1.0
 40
1.0
 10
-13.14754
 20
12.31342
 30
0.0
 10
-13.14754
 20
12.31342
 30
0.0
 10
-13.12936
 20
12.31174
 30
0.0
 10
-13.12936
 20
12.31174
 30
0.0
  0
SPLINE
  5
BE
330
1F
100
AcDbEntity
  8
0
370
    15
100
AcDbSpline
210
0.0
220
0.0
230
1.0
 70
    24
 71
     3
 72
     8
 73
     4
 74
     0
 42
0.0000000001
 43
0.0000000001
 40
0.0
 40
0.0
 40
0.0
 40
0.0
 40
1.0
 40
1.0
 40
1.0
 40
1.0
 10
-13.76715
 20
12.31338
 30
0.0
 10
-13.76715
 20
12.31338
 30
0.0
 10
-13.75841
 20
12.31563
 30
0.0
 10
-13.75841
 20
12.31563
 30
0.0
  0
SPLINE
  5
BF
330
1F
100
AcDbEntity
  8
0
370
    15
100
AcDbSpline
210
0.0
220
0.0
230
1.0
 70
     8
 71
     3
 72
     8
 73
     4
 74
     0
 42
0.0000000001
 43
0.0000000001
 40
0.0
 40
0.0
 40
0.0
 40
0.0
 40
1.0
 40
1.0
 40
1.0
 40
1.0
 10
-13.75841
 20
12.31563
 30
0.0
 10
-13.75079
 20
12.31226
 30
0.0
 10
-13.74227
 20
12.31146
 30
0.0
 10
-13.73415
 20
12.31335
 30
0.0
  0
SPLINE
  5
C0
330
1F
100
AcDbEntity
  8
0
370
    15
100
AcDbSpline
210
0.0
220
0.0
230
1.0
 70
     8
 71
     3
 72
     8
 73
     4
 74
     0
 42
0.0000000001
 43
0.0000000001
 40
0.0
 40
0.0
 40
0.0
 40
0.0
 40
1.0
 40
1.0
 40
1.0
 40
1.0
 10
-13.18054
 20
12.31338
 30
0.0
 10
-13.17241
 20
12.3115
 30
0.0
 10
-13.1639
 20
12.31229
 30
0.0
 10
-13.15627
 20
12.31566
 30
0.0
  0
SPLINE
  5
C1
330
1F
100
AcDbEntity
  8
0
370
    15
100
AcDbSpline
210
0.0
220
0.0
230
1.0
 70
    24
 71
     3
 72
     8
 73
     4
 74
     0
 42
0.0000000001
 43
0.0000000001
 40
0.0
 40
0.0
 40
0.0
 40
0.0
 40
1.0
 40
1.0
 40
1.0
 40
1.0
 10
-13.15627
 20
12.31566
 30
0.0
 10
-13.15627
 20
12.31566
 30
0.0
 10
-13.14754
 20
12.31342
 30
0.0
 10
-13.14754
 20
12.31342
 30
0.0
  0
SPLINE
  5
C2
330
1F
100
AcDbEntity
  8
0
370
    15
100
AcDbSpline
210
0.0
220
0.0
230
1.0
 70
     8
 71
     3
 72
    16
 73
    12
 74
     0
 42
0.0000000001
 43
0.0000000001
 40
0.0
 40
0.0
 40
0.0
 40
0.0
 40
0.25
 40
0.25
 40
0.25
 40
0.25
 40
0.5
 40
0.5
 40
0.5
 40
0.5
 40
1.0
 40
1.0
 40
1.0
 40
1.0
 10
-13.45723
 20
12.34784
 30
0.0
 10
-13.45678
 20
12.34784
 30
0.0
 10
-13.45633
 20
12.34784
 30
0.0
 10
-13.45587
 20
12.34784
 30
0.0
 10
-13.45587
 20
12.34784
 30
0.0
 10
-13.40474
 20
12.3478
 30
0.0
 10
-13.35573
 20
12.34554
 30
0.0
 10
-13.30636
 20
12.33985
 30
0.0
 10
-13.30636
 20
12.33985
 30
0.0
 10
-13.25657
 20
12.33411
 30
0.0
 10
-13.20642
 20
12.32488
 30
0.0
 10
-13.15627
 20
12.31566
 30
0.0
  0
SPLINE
  5
C3
330
1F
100
AcDbEntity
  8
0
370
    15
100
AcDbSpline
210
0.0
220
0.0
230
1.0
 70
     8
 71
     3
 72
     8
 73
     4
 74
     0
 42
0.0000000001
 43
0.0000000001
 40
0.0
 40
0.0
 40
0.0
 40
0.0
 40
1.0
 40
1.0
 40
1.0
 40
1.0
 10
-14.8569
 20
12.31328
 30
0.0
 10
-14.85721
 20
12.30537
 30
0.0
 10
-14.85722
 20
12.29746
 30
0.0
 10
-14.85695
 20
12.28955
 30
0.0
  0
SPLINE
  5
C4
330
1F
100
AcDbEntity
  8
0
370
    15
100
AcDbSpline
210
0.0
220
0.0
230
1.0
 70
     8
 71
     3
 72
    20
 73
    16
 74
     0
 42
0.0000000001
 43
0.0000000001
 40
0.0
 40
0.0
 40
0.0
 40
0.0
 40
0.2
 40
0.2
 40
0.2
 40
0.2
 40
0.4
 40
0.4
 40
0.4
 40
0.4
 40
0.6
 40
0.6
 40
0.6
 40
0.6
 40
1.0
 40
1.0
 40
1.0
 40
1.0
 10
-14.8569
 20
12.31328
 30
0.0
 10
-14.76996
 20
12.31329
 30
0.0
 10
-14.68303
 20
12.3133
 30
0.0
 10
-14.59609
 20
12.31324
 30
0.0
 10
-14.59609
 20
12.31324
 30
0.0
 10
-14.53208
 20
12.3132
 30
0.0
 10
-14.46807
 20
12.31313
 30
0.0
 10
-14.40405
 20
12.3131
 30
0.0
 10
-14.40405
 20
12.3131
 30
0.0
 10
-14.25596
 20
12.31304
 30
0.0
 10
-14.10785
 20
12.31324
 30
0.0
 10
-13.95972
 20
12.31332
 30
0.0
 10
-13.95972
 20
12.31332
 30
0.0
 10
-13.89554
 20
12.31336
 30
0.0
 10
-13.83134
 20
12.31337
 30
0.0
 10
-13.76715
 20
12.31338
 30
0.0
  0
SPLINE
  5
C5
330
1F
100
AcDbEntity
  8
0
370
    15
100
AcDbSpline
210
0.0
220
0.0
230
1.0
 70
     8
 71
     3
 72
    20
 73
    16
 74
     0
 42
0.0000000001
 43
0.0000000001
 40
0.0
 40
0.0
 40
0.0
 40
0.0
 40
0.2
 40
0.2
 40
0.2
 40
0.2
 40
0.4
 40
0.4
 40
0.4
 40
0.4
 40
0.6
 40
0.6
 40
0.6
 40
0.6
 40
1.0
 40
1.0
 40
1.0
 40
1.0
 10
-13.84366
 20
12.28979
 30
0.0
 10
-13.88241
 20
12.28977
 30
0.0
 10
-13.92117
 20
12.28976
 30
0.0
 10
-13.95992
 20
12.28974
 30
0.0
 10
-13.95992
 20
12.28974
 30
0.0
 10
-14.10811
 20
12.28965
 30
0.0
 10
-14.25629
 20
12.28943
 30
0.0
 10
-14.40445
 20
12.28946
 30
0.0
 10
-14.40445
 20
12.28946
 30
0.0
 10
-14.4685
 20
12.28947
 30
0.0
 10
-14.53255
 20
12.28953
 30
0.0
 10
-14.5966
 20
12.28956
 30
0.0
 10
-14.5966
 20
12.28956
 30
0.0
 10
-14.68339
 20
12.2896
 30
0.0
 10
-14.77017
 20
12.28957
 30
0.0
 10
-14.85695
 20
12.28955
 30
0.0
  0
SPLINE
  5
C6
330
1F
100
AcDbEntity
  8
0
370
    15
100
AcDbSpline
210
0.0
220
0.0
230
1.0
 70
     8
 71
     3
 72
    24
 73
    20
 74
     0
 42
0.0000000001
 43
0.0000000001
 40
0.0
 40
0.0
 40
0.0
 40
0.0
 40
0.1666666666666667
 40
0.1666666666666667
 40
0.1666666666666667
 40
0.1666666666666667
 40
0.3333333333333333
 40
0.3333333333333333
 40
0.3333333333333333
 40
0.3333333333333333
 40
0.5
 40
0.5
 40
0.5
 40
0.5
 40
0.6666666666666666
 40
0.6666666666666666
 40
0.6666666666666666
 40
0.6666666666666666
 40
1.0
 40
1.0
 40
1.0
 40
1.0
 10
-11.82452
 20
12.05692
 30
0.0
 10
-11.8274
 20
12.08359
 30
0.0
 10
-11.83027
 20
12.11026
 30
0.0
 10
-11.83886
 20
12.13525
 30
0.0
 10
-11.83886
 20
12.13525
 30
0.0
 10
-11.84732
 20
12.15983
 30
0.0
 10
-11.86131
 20
12.18277
 30
0.0
 10
-11.87819
 20
12.20297
 30
0.0
 10
-11.87819
 20
12.20297
 30
0.0
 10
-11.89554
 20
12.22372
 30
0.0
 10
-11.91595
 20
12.24157
 30
0.0
 10
-11.93892
 20
12.2557
 30
0.0
 10
-11.93892
 20
12.2557
 30
0.0
 10
-11.9621
 20
12.26996
 30
0.0
 10
-11.9879
 20
12.28043
 30
0.0
 10
-12.01452
 20
12.28519
 30
0.0
 10
-12.01452
 20
12.28519
 30
0.0
 10
-12.02877
 20
12.28774
 30
0.0
 10
-12.04325
 20
12.28866
 30
0.0
 10
-12.05773
 20
12.28957
 30
0.0
  0
SPLINE
  5
C7
330
1F
100
AcDbEntity
  8
0
370
    15
100
AcDbSpline
210
0.0
220
0.0
230
1.0
 70
     8
 71
     3
 72
    16
 73
    12
 74
     0
 42
0.0000000001
 43
0.0000000001
 40
0.0
 40
0.0
 40
0.0
 40
0.0
 40
0.25
 40
0.25
 40
0.25
 40
0.25
 40
0.5
 40
0.5
 40
0.5
 40
0.5
 40
1.0
 40
1.0
 40
1.0
 40
1.0
 10
-11.82452
 20
10.20727
 30
0.0
 10
-11.82452
 20
10.20727
 30
0.0
 10
-11.82453
 20
11.35764
 30
0.0
 10
-11.82453
 20
11.35764
 30
0.0
 10
-11.82453
 20
11.35764
 30
0.0
 10
-11.82453
 20
11.35764
 30
0.0
 10
-11.82457
 20
11.57658
 30
0.0
 10
-11.82457
 20
11.57658
 30
0.0
 10
-11.82457
 20
11.57658
 30
0.0
 10
-11.82457
 20
11.57658
 30
0.0
 10
-11.82452
 20
12.05692
 30
0.0
 10
-11.82452
 20
12.05692
 30
0.0
  0
SPLINE
  5
C8
330
1F
100
AcDbEntity
  8
0
370
    15
100
AcDbSpline
210
0.0
220
0.0
230
1.0
 70
    24
 71
     3
 72
     8
 73
     4
 74
     0
 42
0.0000000001
 43
0.0000000001
 40
0.0
 40
0.0
 40
0.0
 40
0.0
 40
1.0
 40
1.0
 40
1.0
 40
1.0
 10
-11.82452
 20
10.20727
 30
0.0
 10
-11.82452
 20
10.20727
 30
0.0
 10
-15.09017
 20
10.20727
 30
0.0
 10
-15.09017
 20
10.20727
 30
0.0
  0
SPLINE
  5
C9
330
1F
100
AcDbEntity
  8
0
370
    15
100
AcDbSpline
210
0.0
220
0.0
230
1.0
 70
     8
 71
     3
 72
    20
 73
    16
 74
     0
 42
0.0000000001
 43
0.0000000001
 40
0.0
 40
0.0
 40
0.0
 40
0.0
 40
0.2
 40
0.2
 40
0.2
 40
0.2
 40
0.4
 40
0.4
 40
0.4
 40
0.4
 40
0.6
 40
0.6
 40
0.6
 40
0.6
 40
1.0
 40
1.0
 40
1.0
 40
1.0
 10
-15.09017
 20
12.05696
 30
0.0
 10
-15.09016
 20
12.04493
 30
0.0
 10
-15.09016
 20
12.03291
 30
0.0
 10
-15.09015
 20
12.02089
 30
0.0
 10
-15.09015
 20
12.02089
 30
0.0
 10
-15.0901
 20
11.87279
 30
0.0
 10
-15.0901
 20
11.72468
 30
0.0
 10
-15.09012
 20
11.57658
 30
0.0
 10
-15.09012
 20
11.57658
 30
0.0
 10
-15.09013
 20
11.42848
 30
0.0
 10
-15.09016
 20
11.28037
 30
0.0
 10
-15.09018
 20
11.13227
 30
0.0
 10
-15.09018
 20
11.13227
 30
0.0
 10
-15.09021
 20
10.82394
 30
0.0
 10
-15.09019
 20
10.5156
 30
0.0
 10
-15.09017
 20
10.20727
 30
0.0
  0
SPLINE
  5
CA
330
1F
100
AcDbEntity
  8
0
370
    15
100
AcDbSpline
210
0.0
220
0.0
230
1.0
 70
     8
 71
     3
 72
    24
 73
    20
 74
     0
 42
0.0000000001
 43
0.0000000001
 40
0.0
 40
0.0
 40
0.0
 40
0.0
 40
0.1666666666666667
 40
0.1666666666666667
 40
0.1666666666666667
 40
0.1666666666666667
 40
0.3333333333333333
 40
0.3333333333333333
 40
0.3333333333333333
 40
0.3333333333333333
 40
0.5
 40
0.5
 40
0.5
 40
0.5
 40
0.6666666666666666
 40
0.6666666666666666
 40
0.6666666666666666
 40
0.6666666666666666
 40
1.0
 40
1.0
 40
1.0
 40
1.0
 10
-14.85695
 20
12.28955
 30
0.0
 10
-14.88371
 20
12.28669
 30
0.0
 10
-14.91047
 20
12.28383
 30
0.0
 10
-14.93558
 20
12.27524
 30
0.0
 10
-14.93558
 20
12.27524
 30
0.0
 10
-14.96074
 20
12.26663
 30
0.0
 10
-14.98423
 20
12.25227
 30
0.0
 10
-15.00477
 20
12.23485
 30
0.0
 10
-15.00477
 20
12.23485
 30
0.0
 10
-15.02514
 20
12.21757
 30
0.0
 10
-15.04261
 20
12.1973
 30
0.0
 10
-15.05658
 20
12.17456
 30
0.0
 10
-15.05658
 20
12.17456
 30
0.0
 10
-15.07094
 20
12.15121
 30
0.0
 10
-15.08162
 20
12.12526
 30
0.0
 10
-15.08624
 20
12.09844
 30
0.0
 10
-15.08624
 20
12.09844
 30
0.0
 10
-15.0886
 20
12.08476
 30
0.0
 10
-15.08938
 20
12.07086
 30
0.0
 10
-15.09017
 20
12.05696
 30
0.0
  0
SPLINE
  5
CB
330
1F
100
AcDbEntity
  8
0
370
    15
100
AcDbSpline
210
0.0
220
0.0
230
1.0
 70
     8
 71
     3
 72
    20
 73
    16
 74
     0
 42
0.0000000001
 43
0.0000000001
 40
0.0
 40
0.0
 40
0.0
 40
0.0
 40
0.2
 40
0.2
 40
0.2
 40
0.2
 40
0.4
 40
0.4
 40
0.4
 40
0.4
 40
0.6
 40
0.6
 40
0.6
 40
0.6
 40
1.0
 40
1.0
 40
1.0
 40
1.0
 10
-12.05773
 20
12.28957
 30
0.0
 10
-12.15038
 20
12.28975
 30
0.0
 10
-12.24304
 20
12.28992
 30
0.0
 10
-12.3357
 20
12.28993
 30
0.0
 10
-12.3357
 20
12.28993
 30
0.0
 10
-12.40765
 20
12.28994
 30
0.0
 10
-12.4796
 20
12.28985
 30
0.0
 10
-12.55156
 20
12.28981
 30
0.0
 10
-12.55156
 20
12.28981
 30
0.0
 10
-12.69973
 20
12.28972
 30
0.0
 10
-12.84791
 20
12.28981
 30
0.0
 10
-12.9961
 20
12.28983
 30
0.0
 10
-12.9961
 20
12.28983
 30
0.0
 10
-13.02107
 20
12.28984
 30
0.0
 10
-13.04605
 20
12.28984
 30
0.0
 10
-13.07103
 20
12.28984
 30
0.0
  0
SPLINE
  5
CC
330
1F
100
AcDbEntity
  8
0
370
    15
100
AcDbSpline
210
0.0
220
0.0
230
1.0
 70
     8
 71
     3
 72
     8
 73
     4
 74
     0
 42
0.0000000001
 43
0.0000000001
 40
0.0
 40
0.0
 40
0.0
 40
0.0
 40
1.0
 40
1.0
 40
1.0
 40
1.0
 10
-12.05773
 20
12.28957
 30
0.0
 10
-12.05746
 20
12.29748
 30
0.0
 10
-12.05747
 20
12.3054
 30
0.0
 10
-12.05778
 20
12.3133
 30
0.0
  0
SPLINE
  5
CD
330
1F
100
AcDbEntity
  8
0
370
    15
100
AcDbSpline
210
0.0
220
0.0
230
1.0
 70
     8
 71
     3
 72
    20
 73
    16
 74
     0
 42
0.0000000001
 43
0.0000000001
 40
0.0
 40
0.0
 40
0.0
 40
0.0
 40
0.2
 40
0.2
 40
0.2
 40
0.2
 40
0.4
 40
0.4
 40
0.4
 40
0.4
 40
0.6
 40
0.6
 40
0.6
 40
0.6
 40
1.0
 40
1.0
 40
1.0
 40
1.0
 10
-13.14754
 20
12.31342
 30
0.0
 10
-13.09712
 20
12.31342
 30
0.0
 10
-13.0467
 20
12.31342
 30
0.0
 10
-12.99629
 20
12.31342
 30
0.0
 10
-12.99629
 20
12.31342
 30
0.0
 10
-12.84816
 20
12.3134
 30
0.0
 10
-12.70005
 20
12.31334
 30
0.0
 10
-12.55195
 20
12.31345
 30
0.0
 10
-12.55195
 20
12.31345
 30
0.0
 10
-12.48002
 20
12.31351
 30
0.0
 10
-12.4081
 20
12.31361
 30
0.0
 10
-12.33618
 20
12.31361
 30
0.0
 10
-12.33618
 20
12.31361
 30
0.0
 10
-12.24337
 20
12.31362
 30
0.0
 10
-12.15058
 20
12.31346
 30
0.0
 10
-12.05778
 20
12.3133
 30
0.0
  0
SPLINE
  5
CE
330
1F
100
AcDbEntity
  8
0
370
    15
100
AcDbSpline
210
0.0
220
0.0
230
1.0
 70
     8
 71
     3
 72
     8
 73
     4
 74
     0
 42
0.0000000001
 43
0.0000000001
 40
0.0
 40
0.0
 40
0.0
 40
0.0
 40
1.0
 40
1.0
 40
1.0
 40
1.0
 10
-15.11295
 20
12.05742
 30
0.0
 10
-15.10535
 20
12.05726
 30
0.0
 10
-15.09776
 20
12.0571
 30
0.0
 10
-15.09017
 20
12.05696
 30
0.0
  0
SPLINE
  5
CF
330
1F
100
AcDbEntity
  8
0
370
    15
100
AcDbSpline
210
0.0
220
0.0
230
1.0
 70
     8
 71
     3
 72
    24
 73
    20
 74
     0
 42
0.0000000001
 43
0.0000000001
 40
0.0
 40
0.0
 40
0.0
 40
0.0
 40
0.1666666666666667
 40
0.1666666666666667
 40
0.1666666666666667
 40
0.1666666666666667
 40
0.3333333333333333
 40
0.3333333333333333
 40
0.3333333333333333
 40
0.3333333333333333
 40
0.5
 40
0.5
 40
0.5
 40
0.5
 40
0.6666666666666666
 40
0.6666666666666666
 40
0.6666666666666666
 40
0.6666666666666666
 40
1.0
 40
1.0
 40
1.0
 40
1.0
 10
-15.11295
 20
12.05742
 30
0.0
 10
-15.1121
 20
12.07264
 30
0.0
 10
-15.11126
 20
12.08787
 30
0.0
 10
-15.10873
 20
12.10286
 30
0.0
 10
-15.10873
 20
12.10286
 30
0.0
 10
-15.10374
 20
12.13249
 30
0.0
 10
-15.09216
 20
12.16122
 30
0.0
 10
-15.07641
 20
12.18707
 30
0.0
 10
-15.07641
 20
12.18707
 30
0.0
 10
-15.06115
 20
12.21212
 30
0.0
 10
-15.04196
 20
12.23447
 30
0.0
 10
-15.01956
 20
12.25344
 30
0.0
 10
-15.01956
 20
12.25344
 30
0.0
 10
-14.99693
 20
12.27261
 30
0.0
 10
-14.97101
 20
12.28833
 30
0.0
 10
-14.94327
 20
12.29773
 30
0.0
 10
-14.94327
 20
12.29773
 30
0.0
 10
-14.91568
 20
12.30708
 30
0.0
 10
-14.88629
 20
12.31018
 30
0.0
 10
-14.8569
 20
12.31328
 30
0.0
  0
SPLINE
  5
D0
330
1F
100
AcDbEntity
  8
0
370
    15
100
AcDbSpline
210
0.0
220
0.0
230
1.0
 70
     8
 71
     3
 72
    24
 73
    20
 74
     0
 42
0.0000000001
 43
0.0000000001
 40
0.0
 40
0.0
 40
0.0
 40
0.0
 40
0.1666666666666667
 40
0.1666666666666667
 40
0.1666666666666667
 40
0.1666666666666667
 40
0.3333333333333333
 40
0.3333333333333333
 40
0.3333333333333333
 40
0.3333333333333333
 40
0.5
 40
0.5
 40
0.5
 40
0.5
 40
0.6666666666666666
 40
0.6666666666666666
 40
0.6666666666666666
 40
0.6666666666666666
 40
1.0
 40
1.0
 40
1.0
 40
1.0
 10
-12.05778
 20
12.3133
 30
0.0
 10
-12.04197
 20
12.31232
 30
0.0
 10
-12.02615
 20
12.31133
 30
0.0
 10
-12.01058
 20
12.30859
 30
0.0
 10
-12.01058
 20
12.30859
 30
0.0
 10
-11.98119
 20
12.30341
 30
0.0
 10
-11.95268
 20
12.292
 30
0.0
 10
-11.92706
 20
12.27632
 30
0.0
 10
-11.92706
 20
12.27632
 30
0.0
 10
-11.90177
 20
12.26085
 30
0.0
 10
-11.8793
 20
12.24121
 30
0.0
 10
-11.86027
 20
12.21834
 30
0.0
 10
-11.86027
 20
12.21834
 30
0.0
 10
-11.84158
 20
12.19588
 30
0.0
 10
-11.82621
 20
12.17029
 30
0.0
 10
-11.81701
 20
12.14293
 30
0.0
 10
-11.81701
 20
12.14293
 30
0.0
 10
-11.80781
 20
12.11559
 30
0.0
 10
-11.80478
 20
12.08649
 30
0.0
 10
-11.80174
 20
12.05739
 30
0.0
  0
SPLINE
  5
D1
330
1F
100
AcDbEntity
  8
0
370
    15
100
AcDbSpline
210
0.0
220
0.0
230
1.0
 70
     8
 71
     3
 72
     8
 73
     4
 74
     0
 42
0.0000000001
 43
0.0000000001
 40
0.0
 40
0.0
 40
0.0
 40
0.0
 40
1.0
 40
1.0
 40
1.0
 40
1.0
 10
-11.82452
 20
12.05692
 30
0.0
 10
-11.81693
 20
12.05707
 30
0.0
 10
-11.80934
 20
12.05722
 30
0.0
 10
-11.80174
 20
12.05739
 30
0.0
  0
SPLINE
  5
D2
330
1F
100
AcDbEntity
  8
0
370
    15
100
AcDbSpline
210
0.0
220
0.0
230
1.0
 70
     8
 71
     3
 72
    20
 73
    16
 74
     0
 42
0.0000000001
 43
0.0000000001
 40
0.0
 40
0.0
 40
0.0
 40
0.0
 40
0.2
 40
0.2
 40
0.2
 40
0.2
 40
0.4
 40
0.4
 40
0.4
 40
0.4
 40
0.6
 40
0.6
 40
0.6
 40
0.6
 40
1.0
 40
1.0
 40
1.0
 40
1.0
 10
-15.11295
 20
10.20727
 30
0.0
 10
-15.11305
 20
10.37204
 30
0.0
 10
-15.11316
 20
10.53681
 30
0.0
 10
-15.11296
 20
10.70158
 30
0.0
 10
-15.11296
 20
10.70158
 30
0.0
 10
-15.1127
 20
10.92755
 30
0.0
 10
-15.11187
 20
11.15353
 30
0.0
 10
-15.11293
 20
11.3795
 30
0.0
 10
-15.11293
 20
11.3795
 30
0.0
 10
-15.11347
 20
11.49249
 30
0.0
 10
-15.11447
 20
11.60548
 30
0.0
 10
-15.11455
 20
11.71848
 30
0.0
 10
-15.11455
 20
11.71848
 30
0.0
 10
-15.11463
 20
11.83146
 30
0.0
 10
-15.11379
 20
11.94444
 30
0.0
 10
-15.11295
 20
12.05742
 30
0.0
  0
SPLINE
  5
D3
330
1F
100
AcDbEntity
  8
0
370
    15
100
AcDbSpline
210
0.0
220
0.0
230
1.0
 70
     8
 71
     3
 72
    20
 73
    16
 74
     0
 42
0.0000000001
 43
0.0000000001
 40
0.0
 40
0.0
 40
0.0
 40
0.0
 40
0.2
 40
0.2
 40
0.2
 40
0.2
 40
0.4
 40
0.4
 40
0.4
 40
0.4
 40
0.6
 40
0.6
 40
0.6
 40
0.6
 40
1.0
 40
1.0
 40
1.0
 40
1.0
 10
-11.80174
 20
12.05739
 30
0.0
 10
-11.80175
 20
12.04519
 30
0.0
 10
-11.80175
 20
12.033
 30
0.0
 10
-11.80175
 20
12.02081
 30
0.0
 10
-11.80175
 20
12.02081
 30
0.0
 10
-11.80176
 20
11.87273
 30
0.0
 10
-11.80179
 20
11.72466
 30
0.0
 10
-11.80179
 20
11.57659
 30
0.0
 10
-11.80179
 20
11.57659
 30
0.0
 10
-11.80178
 20
11.42848
 30
0.0
 10
-11.80175
 20
11.28038
 30
0.0
 10
-11.80172
 20
11.13227
 30
0.0
 10
-11.80172
 20
11.13227
 30
0.0
 10
-11.80168
 20
10.82394
 30
0.0
 10
-11.80171
 20
10.5156
 30
0.0
 10
-11.80173
 20
10.20727
 30
0.0
  0
SPLINE
  5
D4
330
1F
100
AcDbEntity
  8
0
370
    15
100
AcDbSpline
210
0.0
220
0.0
230
1.0
 70
    24
 71
     3
 72
     8
 73
     4
 74
     0
 42
0.0000000001
 43
0.0000000001
 40
0.0
 40
0.0
 40
0.0
 40
0.0
 40
1.0
 40
1.0
 40
1.0
 40
1.0
 10
-15.11295
 20
10.20727
 30
0.0
 10
-15.11295
 20
10.20727
 30
0.0
 10
-15.14166
 20
10.20727
 30
0.0
 10
-15.14166
 20
10.20727
 30
0.0
  0
SPLINE
  5
D5
330
1F
100
AcDbEntity
  8
0
370
    15
100
AcDbSpline
210
0.0
220
0.0
230
1.0
 70
    24
 71
     3
 72
     8
 73
     4
 74
     0
 42
0.0000000001
 43
0.0000000001
 40
0.0
 40
0.0
 40
0.0
 40
0.0
 40
1.0
 40
1.0
 40
1.0
 40
1.0
 10
-11.80173
 20
10.20727
 30
0.0
 10
-11.80173
 20
10.20727
 30
0.0
 10
-11.77303
 20
10.20727
 30
0.0
 10
-11.77303
 20
10.20727
 30
0.0
  0
SPLINE
  5
D6
330
1F
100
AcDbEntity
  8
0
370
    15
100
AcDbSpline
210
0.0
220
0.0
230
1.0
 70
    24
 71
     3
 72
    36
 73
    32
 74
     0
 42
0.0000000001
 43
0.0000000001
 40
0.0
 40
0.0
 40
0.0
 40
0.0
 40
0.1111111111111111
 40
0.1111111111111111
 40
0.1111111111111111
 40
0.1111111111111111
 40
0.2222222222222222
 40
0.2222222222222222
 40
0.2222222222222222
 40
0.2222222222222222
 40
0.3333333333333333
 40
0.3333333333333333
 40
0.3333333333333333
 40
0.3333333333333333
 40
0.4444444444444444
 40
0.4444444444444444
 40
0.4444444444444444
 40
0.4444444444444444
 40
0.5555555555555556
 40
0.5555555555555556
 40
0.5555555555555556
 40
0.5555555555555556
 40
0.6666666666666666
 40
0.6666666666666666
 40
0.6666666666666666
 40
0.6666666666666666
 40
0.7777777777777778
 40
0.7777777777777778
 40
0.7777777777777778
 40
0.7777777777777778
 40
1.0
 40
1.0
 40
1.0
 40
1.0
 10
-11.80173
 20
10.20727
 30
0.0
 10
-11.80173
 20
10.20727
 30
0.0
 10
-11.80317
 20
10.20727
 30
0.0
 10
-11.80317
 20
10.20727
 30
0.0
 10
-11.80317
 20
10.20727
 30
0.0
 10
-11.80317
 20
10.20727
 30
0.0
 10
-11.80513
 20
10.20727
 30
0.0
 10
-11.80513
 20
10.20727
 30
0.0
 10
-11.80513
 20
10.20727
 30
0.0
 10
-11.80513
 20
10.20727
 30
0.0
 10
-11.80755
 20
10.20727
 30
0.0
 10
-11.80755
 20
10.20727
 30
0.0
 10
-11.80755
 20
10.20727
 30
0.0
 10
-11.80755
 20
10.20727
 30
0.0
 10
-11.8104
 20
10.20727
 30
0.0
 10
-11.8104
 20
10.20727
 30
0.0
 10
-11.8104
 20
10.20727
 30
0.0
 10
-11.8104
 20
10.20727
 30
0.0
 10
-11.81359
 20
10.20727
 30
0.0
 10
-11.81359
 20
10.20727
 30
0.0
 10
-11.81359
 20
10.20727
 30
0.0
 10
-11.81359
 20
10.20727
 30
0.0
 10
-11.81707
 20
10.20727
 30
0.0
 10
-11.81707
 20
10.20727
 30
0.0
 10
-11.81707
 20
10.20727
 30
0.0
 10
-11.81707
 20
10.20727
 30
0.0
 10
-11.82074
 20
10.20727
 30
0.0
 10
-11.82074
 20
10.20727
 30
0.0
 10
-11.82074
 20
10.20727
 30
0.0
 10
-11.82074
 20
10.20727
 30
0.0
 10
-11.82452
 20
10.20727
 30
0.0
 10
-11.82452
 20
10.20727
 30
0.0
  0
SPLINE
  5
D7
330
1F
100
AcDbEntity
  8
0
370
    15
100
AcDbSpline
210
0.0
220
0.0
230
1.0
 70
    24
 71
     3
 72
     8
 73
     4
 74
     0
 42
0.0000000001
 43
0.0000000001
 40
0.0
 40
0.0
 40
0.0
 40
0.0
 40
1.0
 40
1.0
 40
1.0
 40
1.0
 10
-15.09017
 20
10.20727
 30
0.0
 10
-15.09017
 20
10.20727
 30
0.0
 10
-15.11295
 20
10.20727
 30
0.0
 10
-15.11295
 20
10.20727
 30
0.0
  0
SPLINE
  5
D8
330
1F
100
AcDbEntity
  8
0
370
    15
100
AcDbSpline
210
0.0
220
0.0
230
1.0
 70
    24
 71
     3
 72
     8
 73
     4
 74
     0
 42
0.0000000001
 43
0.0000000001
 40
0.0
 40
0.0
 40
0.0
 40
0.0
 40
1.0
 40
1.0
 40
1.0
 40
1.0
 10
-11.93235
 20
10.20727
 30
0.0
 10
-11.93235
 20
10.20727
 30
0.0
 10
-11.93234
 20
10.20628
 30
0.0
 10
-11.93234
 20
10.20628
 30
0.0
  0
SPLINE
  5
D9
330
1F
100
AcDbEntity
  8
0
370
    15
100
AcDbSpline
210
0.0
220
0.0
230
1.0
 70
    24
 71
     3
 72
     8
 73
     4
 74
     0
 42
0.0000000001
 43
0.0000000001
 40
0.0
 40
0.0
 40
0.0
 40
0.0
 40
1.0
 40
1.0
 40
1.0
 40
1.0
 10
-11.93234
 20
10.20628
 30
0.0
 10
-11.93234
 20
10.20628
 30
0.0
 10
-11.98234
 20
10.20628
 30
0.0
 10
-11.98234
 20
10.20628
 30
0.0
  0
SPLINE
  5
DA
330
1F
100
AcDbEntity
  8
0
370
    15
100
AcDbSpline
210
0.0
220
0.0
230
1.0
 70
    24
 71
     3
 72
     8
 73
     4
 74
     0
 42
0.0000000001
 43
0.0000000001
 40
0.0
 40
0.0
 40
0.0
 40
0.0
 40
1.0
 40
1.0
 40
1.0
 40
1.0
 10
-14.98234
 20
10.20628
 30
0.0
 10
-14.98234
 20
10.20628
 30
0.0
 10
-14.98233
 20
10.20727
 30
0.0
 10
-14.98233
 20
10.20727
 30
0.0
  0
SPLINE
  5
DB
330
1F
100
AcDbEntity
  8
0
370
    15
100
AcDbSpline
210
0.0
220
0.0
230
1.0
 70
    24
 71
     3
 72
     8
 73
     4
 74
     0
 42
0.0000000001
 43
0.0000000001
 40
0.0
 40
0.0
 40
0.0
 40
0.0
 40
1.0
 40
1.0
 40
1.0
 40
1.0
 10
-14.93234
 20
10.20628
 30
0.0
 10
-14.93234
 20
10.20628
 30
0.0
 10
-14.98234
 20
10.20628
 30
0.0
 10
-14.98234
 20
10.20628
 30
0.0
  0
SPLINE
  5
DC
330
1F
100
AcDbEntity
  8
0
370
    15
100
AcDbSpline
210
0.0
220
0.0
230
1.0
 70
    24
 71
     3
 72
     8
 73
     4
 74
     0
 42
0.0000000001
 43
0.0000000001
 40
0.0
 40
0.0
 40
0.0
 40
0.0
 40
1.0
 40
1.0
 40
1.0
 40
1.0
 10
-14.93234
 20
10.20628
 30
0.0
 10
-14.93234
 20
10.20628
 30
0.0
 10
-11.98234
 20
10.20628
 30
0.0
 10
-11.98234
 20
10.20628
 30
0.0
  0
SPLINE
  5
DD
330
1F
100
AcDbEntity
  8
0
 62
     8
370
    15
100
AcDbSpline
210
0.0
220
0.0
230
1.0
 70
     8
 71
     3
 72
    12
 73
     8
 74
     0
 42
0.0000000001
 43
0.0000000001
 40
0.0
 40
0.0
 40
0.0
 40
0.0
 40
0.3333333333333333
 40
0.3333333333333333
 40
0.3333333333333333
 40
0.3333333333333333
 40
1.0
 40
1.0
 40
1.0
 40
1.0
 10
-13.75841
 20
12.31563
 30
0.0
 10
-13.70882
 20
12.32503
 30
0.0
 10
-13.65923
 20
12.33442
 30
0.0
 10
-13.60946
 20
12.33971
 30
0.0
 10
-13.60946
 20
12.33971
 30
0.0
 10
-13.56221
 20
12.34473
 30
0.0
 10
-13.5148
 20
12.34605
 30
0.0
 10
-13.46738
 20
12.34737
 30
0.0
  0
SPLINE
  5
DE
330
1F
100
AcDbEntity
  8
0
 62
     8
370
    15
100
AcDbSpline
210
0.0
220
0.0
230
1.0
 70
    24
 71
     3
 72
     8
 73
     4
 74
     0
 42
0.0000000001
 43
0.0000000001
 40
0.0
 40
0.0
 40
0.0
 40
0.0
 40
1.0
 40
1.0
 40
1.0
 40
1.0
 10
-13.61484
 20
11.15784
 30
0.0
 10
-13.61484
 20
11.15784
 30
0.0
 10
-13.60734
 20
11.15784
 30
0.0
 10
-13.60734
 20
11.15784
 30
0.0
  0
SPLINE
  5
DF
330
1F
100
AcDbEntity
  8
0
 62
     8
370
    15
100
AcDbSpline
210
0.0
220
0.0
230
1.0
 70
    24
 71
     3
 72
     8
 73
     4
 74
     0
 42
0.0000000001
 43
0.0000000001
 40
0.0
 40
0.0
 40
0.0
 40
0.0
 40
1.0
 40
1.0
 40
1.0
 40
1.0
 10
-13.60484
 20
11.14784
 30
0.0
 10
-13.60484
 20
11.14784
 30
0.0
 10
-13.60484
 20
11.15534
 30
0.0
 10
-13.60484
 20
11.15534
 30
0.0
  0
SPLINE
  5
E0
330
1F
100
AcDbEntity
  8
0
 62
     8
370
    15
100
AcDbSpline
210
0.0
220
0.0
230
1.0
 70
    24
 71
     3
 72
     8
 73
     4
 74
     0
 42
0.0000000001
 43
0.0000000001
 40
0.0
 40
0.0
 40
0.0
 40
0.0
 40
1.0
 40
1.0
 40
1.0
 40
1.0
 10
-13.60484
 20
12.26284
 30
0.0
 10
-13.60484
 20
12.26284
 30
0.0
 10
-13.60484
 20
12.25534
 30
0.0
 10
-13.60484
 20
12.25534
 30
0.0
  0
SPLINE
  5
E1
330
1F
100
AcDbEntity
  8
0
 62
     8
370
    15
100
AcDbSpline
210
0.0
220
0.0
230
1.0
 70
    24
 71
     3
 72
     8
 73
     4
 74
     0
 42
0.0000000001
 43
0.0000000001
 40
0.0
 40
0.0
 40
0.0
 40
0.0
 40
1.0
 40
1.0
 40
1.0
 40
1.0
 10
-13.61484
 20
12.25284
 30
0.0
 10
-13.61484
 20
12.25284
 30
0.0
 10
-13.60734
 20
12.25284
 30
0.0
 10
-13.60734
 20
12.25284
 30
0.0
  0
SPLINE
  5
E2
330
1F
100
AcDbEntity
  8
0
 62
     8
370
    15
100
AcDbSpline
210
0.0
220
0.0
230
1.0
 70
    24
 71
     3
 72
     8
 73
     4
 74
     0
 42
0.0000000001
 43
0.0000000001
 40
0.0
 40
0.0
 40
0.0
 40
0.0
 40
1.0
 40
1.0
 40
1.0
 40
1.0
 10
-13.30984
 20
12.25534
 30
0.0
 10
-13.30984
 20
12.25534
 30
0.0
 10
-13.30984
 20
12.26284
 30
0.0
 10
-13.30984
 20
12.26284
 30
0.0
  0
SPLINE
  5
E3
330
1F
100
AcDbEntity
  8
0
 62
     8
370
    15
100
AcDbSpline
210
0.0
220
0.0
230
1.0
 70
    24
 71
     3
 72
     8
 73
     4
 74
     0
 42
0.0000000001
 43
0.0000000001
 40
0.0
 40
0.0
 40
0.0
 40
0.0
 40
1.0
 40
1.0
 40
1.0
 40
1.0
 10
-13.30734
 20
12.25284
 30
0.0
 10
-13.30734
 20
12.25284
 30
0.0
 10
-13.29984
 20
12.25284
 30
0.0
 10
-13.29984
 20
12.25284
 30
0.0
  0
SPLINE
  5
E4
330
1F
100
AcDbEntity
  8
0
 62
     8
370
    15
100
AcDbSpline
210
0.0
220
0.0
230
1.0
 70
    24
 71
     3
 72
     8
 73
     4
 74
     0
 42
0.0000000001
 43
0.0000000001
 40
0.0
 40
0.0
 40
0.0
 40
0.0
 40
1.0
 40
1.0
 40
1.0
 40
1.0
 10
-13.30984
 20
11.15534
 30
0.0
 10
-13.30984
 20
11.15534
 30
0.0
 10
-13.30984
 20
11.14784
 30
0.0
 10
-13.30984
 20
11.14784
 30
0.0
  0
SPLINE
  5
E5
330
1F
100
AcDbEntity
  8
0
 62
     8
370
    15
100
AcDbSpline
210
0.0
220
0.0
230
1.0
 70
    24
 71
     3
 72
     8
 73
     4
 74
     0
 42
0.0000000001
 43
0.0000000001
 40
0.0
 40
0.0
 40
0.0
 40
0.0
 40
1.0
 40
1.0
 40
1.0
 40
1.0
 10
-13.30734
 20
11.15784
 30
0.0
 10
-13.30734
 20
11.15784
 30
0.0
 10
-13.29984
 20
11.15784
 30
0.0
 10
-13.29984
 20
11.15784
 30
0.0
  0
SPLINE
  5
E6
330
1F
100
AcDbEntity
  8
0
 62
     8
370
    15
100
AcDbSpline
210
0.0
220
0.0
230
1.0
 70
    24
 71
     3
 72
     8
 73
     4
 74
     0
 42
0.0000000001
 43
0.0000000001
 40
0.0
 40
0.0
 40
0.0
 40
0.0
 40
1.0
 40
1.0
 40
1.0
 40
1.0
 10
-11.98234
 20
10.20628
 30
0.0
 10
-11.98234
 20
10.20628
 30
0.0
 10
-11.98235
 20
10.20727
 30
0.0
 10
-11.98235
 20
10.20727
 30
0.0
  0
SPLINE
  5
E7
330
1F
100
AcDbEntity
  8
0
 62
     8
370
    15
100
AcDbSpline
210
0.0
220
0.0
230
1.0
 70
    24
 71
     3
 72
     8
 73
     4
 74
     0
 42
0.0000000001
 43
0.0000000001
 40
0.0
 40
0.0
 40
0.0
 40
0.0
 40
1.0
 40
1.0
 40
1.0
 40
1.0
 10
-14.93234
 20
10.20727
 30
0.0
 10
-14.93234
 20
10.20727
 30
0.0
 10
-14.93234
 20
10.20628
 30
0.0
 10
-14.93234
 20
10.20628
 30
0.0
  0
SPLINE
  5
E8
330
1F
100
AcDbEntity
  8
0
100
AcDbSpline
210
0.0
220
0.0
230
1.0
 70
    27
 71
     3
 72
    12
 73
     8
 74
     0
 42
0.0000000001
 43
0.0000000001
 40
0.0
 40
0.0
 40
0.0
 40
0.0
 40
0.3333333333333333
 40
0.3333333333333333
 40
0.3333333333333333
 40
0.3333333333333333
 40
1.0
 40
1.0
 40
1.0
 40
1.0
 10
-10.75839
 20
12.34784
 30
0.0
 10
-10.75839
 20
12.34784
 30
0.0
 10
-10.70759
 20
12.01764
 30
0.0
 10
-10.70759
 20
12.01764
 30
0.0
 10
-10.70759
 20
12.01764
 30
0.0
 10
-10.70759
 20
12.01764
 30
0.0
 10
-10.75839
 20
12.34784
 30
0.0
 10
-10.75839
 20
12.34784
 30
0.0
  0
SPLINE
  5
E9
330
1F
100
AcDbEntity
  8
0
100
AcDbSpline
210
0.0
220
0.0
230
1.0
 70
     8
 71
     3
 72
    12
 73
     8
 74
     0
 42
0.0000000001
 43
0.0000000001
 40
0.0
 40
0.0
 40
0.0
 40
0.0
 40
0.3333333333333333
 40
0.3333333333333333
 40
0.3333333333333333
 40
0.3333333333333333
 40
1.0
 40
1.0
 40
1.0
 40
1.0
 10
-10.70759
 20
12.01764
 30
0.0
 10
-10.70759
 20
12.01764
 30
0.0
 10
-10.80919
 20
12.01764
 30
0.0
 10
-10.80919
 20
12.01764
 30
0.0
 10
-10.80919
 20
12.01764
 30
0.0
 10
-10.80919
 20
12.01764
 30
0.0
 10
-10.75839
 20
12.34784
 30
0.0
 10
-10.75839
 20
12.34784
 30
0.0
  0
SPLINE
  5
EA
330
1F
100
AcDbEntity
  8
0
370
     9
100
AcDbSpline
210
0.0
220
0.0
230
1.0
 70
    24
 71
     3
 72
     8
 73
     4
 74
     0
 42
0.0000000001
 43
0.0000000001
 40
0.0
 40
0.0
 40
0.0
 40
0.0
 40
1.0
 40
1.0
 40
1.0
 40
1.0
 10
-10.75839
 20
12.34784
 30
0.0
 10
-10.75839
 20
12.34784
 30
0.0
 10
-10.70759
 20
12.01764
 30
0.0
 10
-10.70759
 20
12.01764
 30
0.0
  0
SPLINE
  5
EB
330
1F
100
AcDbEntity
  8
0
370
     9
100
AcDbSpline
210
0.0
220
0.0
230
1.0
 70
     8
 71
     3
 72
    12
 73
     8
 74
     0
 42
0.0000000001
 43
0.0000000001
 40
0.0
 40
0.0
 40
0.0
 40
0.0
 40
0.3333333333333333
 40
0.3333333333333333
 40
0.3333333333333333
 40
0.3333333333333333
 40
1.0
 40
1.0
 40
1.0
 40
1.0
 10
-10.70759
 20
12.01764
 30
0.0
 10
-10.70759
 20
12.01764
 30
0.0
 10
-10.80919
 20
12.01764
 30
0.0
 10
-10.80919
 20
12.01764
 30
0.0
 10
-10.80919
 20
12.01764
 30
0.0
 10
-10.80919
 20
12.01764
 30
0.0
 10
-10.75839
 20
12.34784
 30
0.0
 10
-10.75839
 20
12.34784
 30
0.0
  0
SPLINE
  5
EC
330
1F
100
AcDbEntity
  8
0
100
AcDbSpline
210
0.0
220
0.0
230
1.0
 70
    27
 71
     3
 72
    12
 73
     8
 74
     0
 42
0.0000000001
 43
0.0000000001
 40
0.0
 40
0.0
 40
0.0
 40
0.0
 40
0.3333333333333333
 40
0.3333333333333333
 40
0.3333333333333333
 40
0.3333333333333333
 40
1.0
 40
1.0
 40
1.0
 40
1.0
 10
-10.75839
 20
10.20727
 30
0.0
 10
-10.75839
 20
10.20727
 30
0.0
 10
-10.80919
 20
10.53747
 30
0.0
 10
-10.80919
 20
10.53747
 30
0.0
 10
-10.80919
 20
10.53747
 30
0.0
 10
-10.80919
 20
10.53747
 30
0.0
 10
-10.75839
 20
10.20727
 30
0.0
 10
-10.75839
 20
10.20727
 30
0.0
  0
SPLINE
  5
ED
330
1F
100
AcDbEntity
  8
0
100
AcDbSpline
210
0.0
220
0.0
230
1.0
 70
     8
 71
     3
 72
    12
 73
     8
 74
     0
 42
0.0000000001
 43
0.0000000001
 40
0.0
 40
0.0
 40
0.0
 40
0.0
 40
0.3333333333333333
 40
0.3333333333333333
 40
0.3333333333333333
 40
0.3333333333333333
 40
1.0
 40
1.0
 40
1.0
 40
1.0
 10
-10.80919
 20
10.53747
 30
0.0
 10
-10.80919
 20
10.53747
 30
0.0
 10
-10.70759
 20
10.53747
 30
0.0
 10
-10.70759
 20
10.53747
 30
0.0
 10
-10.70759
 20
10.53747
 30
0.0
 10
-10.70759
 20
10.53747
 30
0.0
 10
-10.75839
 20
10.20727
 30
0.0
 10
-10.75839
 20
10.20727
 30
0.0
  0
SPLINE
  5
EE
330
1F
100
AcDbEntity
  8
0
370
     9
100
AcDbSpline
210
0.0
220
0.0
230
1.0
 70
    24
 71
     3
 72
     8
 73
     4
 74
     0
 42
0.0000000001
 43
0.0000000001
 40
0.0
 40
0.0
 40
0.0
 40
0.0
 40
1.0
 40
1.0
 40
1.0
 40
1.0
 10
-10.75839
 20
10.20727
 30
0.0
 10
-10.75839
 20
10.20727
 30
0.0
 10
-10.80919
 20
10.53747
 30
0.0
 10
-10.80919
 20
10.53747
 30
0.0
  0
SPLINE
  5
EF
330
1F
100
AcDbEntity
  8
0
370
     9
100
AcDbSpline
210
0.0
220
0.0
230
1.0
 70
     8
 71
     3
 72
    12
 73
     8
 74
     0
 42
0.0000000001
 43
0.0000000001
 40
0.0
 40
0.0
 40
0.0
 40
0.0
 40
0.3333333333333333
 40
0.3333333333333333
 40
0.3333333333333333
 40
0.3333333333333333
 40
1.0
 40
1.0
 40
1.0
 40
1.0
 10
-10.80919
 20
10.53747
 30
0.0
 10
-10.80919
 20
10.53747
 30
0.0
 10
-10.70759
 20
10.53747
 30
0.0
 10
-10.70759
 20
10.53747
 30
0.0
 10
-10.70759
 20
10.53747
 30
0.0
 10
-10.70759
 20
10.53747
 30
0.0
 10
-10.75839
 20
10.20727
 30
0.0
 10
-10.75839
 20
10.20727
 30
0.0
  0
SPLINE
  5
F0
330
1F
100
AcDbEntity
  8
0
370
     9
100
AcDbSpline
210
0.0
220
0.0
230
1.0
 70
    24
 71
     3
 72
     8
 73
     4
 74
     0
 42
0.0000000001
 43
0.0000000001
 40
0.0
 40
0.0
 40
0.0
 40
0.0
 40
1.0
 40
1.0
 40
1.0
 40
1.0
 10
-13.35727
 20
12.34784
 30
0.0
 10
-13.35727
 20
12.34784
 30
0.0
 10
-10.65839
 20
12.34784
 30
0.0
 10
-10.65839
 20
12.34784
 30
0.0
  0
SPLINE
  5
F1
330
1F
100
AcDbEntity
  8
0
370
     9
100
AcDbSpline
210
0.0
220
0.0
230
1.0
 70
    24
 71
     3
 72
     8
 73
     4
 74
     0
 42
0.0000000001
 43
0.0000000001
 40
0.0
 40
0.0
 40
0.0
 40
0.0
 40
1.0
 40
1.0
 40
1.0
 40
1.0
 10
-11.70173
 20
10.20727
 30
0.0
 10
-11.70173
 20
10.20727
 30
0.0
 10
-10.65839
 20
10.20727
 30
0.0
 10
-10.65839
 20
10.20727
 30
0.0
  0
SPLINE
  5
F2
330
1F
100
AcDbEntity
  8
0
370
     9
100
AcDbSpline
210
0.0
220
0.0
230
1.0
 70
    24
 71
     3
 72
     8
 73
     4
 74
     0
 42
0.0000000001
 43
0.0000000001
 40
0.0
 40
0.0
 40
0.0
 40
0.0
 40
1.0
 40
1.0
 40
1.0
 40
1.0
 10
-10.75839
 20
12.34784
 30
0.0
 10
-10.75839
 20
12.34784
 30
0.0
 10
-10.75839
 20
10.20727
 30
0.0
 10
-10.75839
 20
10.20727
 30
0.0
  0
SPLINE
  5
F3
330
1F
100
AcDbEntity
  8
0
100
AcDbSpline
210
0.0
220
0.0
230
1.0
 70
    11
 71
     3
 72
    48
 73
    44
 74
     0
 42
0.0000000001
 43
0.0000000001
 40
0.0
 40
0.0
 40
0.0
 40
0.0
 40
0.0833333333333333
 40
0.0833333333333333
 40
0.0833333333333333
 40
0.0833333333333333
 40
0.1666666666666667
 40
0.1666666666666667
 40
0.1666666666666667
 40
0.1666666666666667
 40
0.25
 40
0.25
 40
0.25
 40
0.25
 40
0.3333333333333333
 40
0.3333333333333333
 40
0.3333333333333333
 40
0.3333333333333333
 40
0.4166666666666667
 40
0.4166666666666667
 40
0.4166666666666667
 40
0.4166666666666667
 40
0.5
 40
0.5
 40
0.5
 40
0.5
 40
0.5833333333333334
 40
0.5833333333333334
 40
0.5833333333333334
 40
0.5833333333333334
 40
0.6666666666666666
 40
0.6666666666666666
 40
0.6666666666666666
 40
0.6666666666666666
 40
0.75
 40
0.75
 40
0.75
 40
0.75
 40
0.8333333333333334
 40
0.8333333333333334
 40
0.8333333333333334
 40
0.8333333333333334
 40
1.0
 40
1.0
 40
1.0
 40
1.0
 10
-10.89269
 20
11.01472
 30
0.0
 10
-10.89269
 20
11.01472
 30
0.0
 10
-10.95266
 20
11.01472
 30
0.0
 10
-10.95266
 20
11.01472
 30
0.0
 10
-10.95266
 20
11.01472
 30
0.0
 10
-10.95266
 20
11.01472
 30
0.0
 10
-10.95266
 20
10.90604
 30
0.0
 10
-10.95266
 20
10.90604
 30
0.0
 10
-10.95266
 20
10.90604
 30
0.0
 10
-10.95266
 20
10.90604
 30
0.0
 10
-10.98089
 20
10.90604
 30
0.0
 10
-10.98089
 20
10.90604
 30
0.0
 10
-10.98089
 20
10.90604
 30
0.0
 10
-10.98089
 20
10.90604
 30
0.0
 10
-11.14323
 20
11.02038
 30
0.0
 10
-11.14323
 20
11.02038
 30
0.0
 10
-11.14323
 20
11.02038
 30
0.0
 10
-11.14323
 20
11.02038
 30
0.0
 10
-11.14323
 20
11.04552
 30
0.0
 10
-11.14323
 20
11.04552
 30
0.0
 10
-11.14323
 20
11.04552
 30
0.0
 10
-11.14323
 20
11.04552
 30
0.0
 10
-10.98089
 20
11.04552
 30
0.0
 10
-10.98089
 20
11.04552
 30
0.0
 10
-10.98089
 20
11.04552
 30
0.0
 10
-10.98089
 20
11.04552
 30
0.0
 10
-10.98089
 20
11.07935
 30
0.0
 10
-10.98089
 20
11.07935
 30
0.0
 10
-10.98089
 20
11.07935
 30
0.0
 10
-10.98089
 20
11.07935
 30
0.0
 10
-10.95266
 20
11.07935
 30
0.0
 10
-10.95266
 20
11.07935
 30
0.0
 10
-10.95266
 20
11.07935
 30
0.0
 10
-10.95266
 20
11.07935
 30
0.0
 10
-10.95266
 20
11.04552
 30
0.0
 10
-10.95266
 20
11.04552
 30
0.0
 10
-10.95266
 20
11.04552
 30
0.0
 10
-10.95266
 20
11.04552
 30
0.0
 10
-10.89269
 20
11.04552
 30
0.0
 10
-10.89269
 20
11.04552
 30
0.0
 10
-10.89269
 20
11.04552
 30
0.0
 10
-10.89269
 20
11.04552
 30
0.0
 10
-10.89269
 20
11.01472
 30
0.0
 10
-10.89269
 20
11.01472
 30
0.0
  0
SPLINE
  5
F4
330
1F
100
AcDbEntity
  8
0
100
AcDbSpline
210
0.0
220
0.0
230
1.0
 70
    11
 71
     3
 72
    16
 73
    12
 74
     0
 42
0.0000000001
 43
0.0000000001
 40
0.0
 40
0.0
 40
0.0
 40
0.0
 40
0.25
 40
0.25
 40
0.25
 40
0.25
 40
0.5
 40
0.5
 40
0.5
 40
0.5
 40
1.0
 40
1.0
 40
1.0
 40
1.0
 10
-10.98089
 20
11.01472
 30
0.0
 10
-10.98089
 20
11.01472
 30
0.0
 10
-11.09382
 20
11.01472
 30
0.0
 10
-11.09382
 20
11.01472
 30
0.0
 10
-11.09382
 20
11.01472
 30
0.0
 10
-11.09382
 20
11.01472
 30
0.0
 10
-10.98089
 20
10.93632
 30
0.0
 10
-10.98089
 20
10.93632
 30
0.0
 10
-10.98089
 20
10.93632
 30
0.0
 10
-10.98089
 20
10.93632
 30
0.0
 10
-10.98089
 20
11.01472
 30
0.0
 10
-10.98089
 20
11.01472
 30
0.0
  0
SPLINE
  5
F5
330
1F
100
AcDbEntity
  8
0
100
AcDbSpline
210
0.0
220
0.0
230
1.0
 70
    11
 71
     3
 72
   124
 73
   120
 74
     0
 42
0.0000000001
 43
0.0000000001
 40
0.0
 40
0.0
 40
0.0
 40
0.0
 40
0.032258064516129
 40
0.032258064516129
 40
0.032258064516129
 40
0.032258064516129
 40
0.0645161290322581
 40
0.0645161290322581
 40
0.0645161290322581
 40
0.0645161290322581
 40
0.0967741935483871
 40
0.0967741935483871
 40
0.0967741935483871
 40
0.0967741935483871
 40
0.1290322580645161
 40
0.1290322580645161
 40
0.1290322580645161
 40
0.1290322580645161
 40
0.1612903225806452
 40
0.1612903225806452
 40
0.1612903225806452
 40
0.1612903225806452
 40
0.1935483870967742
 40
0.1935483870967742
 40
0.1935483870967742
 40
0.1935483870967742
 40
0.2258064516129032
 40
0.2258064516129032
 40
0.2258064516129032
 40
0.2258064516129032
 40
0.2580645161290323
 40
0.2580645161290323
 40
0.2580645161290323
 40
0.2580645161290323
 40
0.2903225806451613
 40
0.2903225806451613
 40
0.2903225806451613
 40
0.2903225806451613
 40
0.3225806451612903
 40
0.3225806451612903
 40
0.3225806451612903
 40
0.3225806451612903
 40
0.3548387096774194
 40
0.3548387096774194
 40
0.3548387096774194
 40
0.3548387096774194
 40
0.3870967741935484
 40
0.3870967741935484
 40
0.3870967741935484
 40
0.3870967741935484
 40
0.4193548387096774
 40
0.4193548387096774
 40
0.4193548387096774
 40
0.4193548387096774
 40
0.4516129032258064
 40
0.4516129032258064
 40
0.4516129032258064
 40
0.4516129032258064
 40
0.4838709677419355
 40
0.4838709677419355
 40
0.4838709677419355
 40
0.4838709677419355
 40
0.5161290322580645
 40
0.5161290322580645
 40
0.5161290322580645
 40
0.5161290322580645
 40
0.5483870967741935
 40
0.5483870967741935
 40
0.5483870967741935
 40
0.5483870967741935
 40
0.5806451612903226
 40
0.5806451612903226
 40
0.5806451612903226
 40
0.5806451612903226
 40
0.6129032258064516
 40
0.6129032258064516
 40
0.6129032258064516
 40
0.6129032258064516
 40
0.6451612903225806
 40
0.6451612903225806
 40
0.6451612903225806
 40
0.6451612903225806
 40
0.6774193548387096
 40
0.6774193548387096
 40
0.6774193548387096
 40
0.6774193548387096
 40
0.7096774193548387
 40
0.7096774193548387
 40
0.7096774193548387
 40
0.7096774193548387
 40
0.7419354838709677
 40
0.7419354838709677
 40
0.7419354838709677
 40
0.7419354838709677
 40
0.7741935483870968
 40
0.7741935483870968
 40
0.7741935483870968
 40
0.7741935483870968
 40
0.8064516129032258
 40
0.8064516129032258
 40
0.8064516129032258
 40
0.8064516129032258
 40
0.8387096774193549
 40
0.8387096774193549
 40
0.8387096774193549
 40
0.8387096774193549
 40
0.8709677419354839
 40
0.8709677419354839
 40
0.8709677419354839
 40
0.8709677419354839
 40
0.9032258064516129
 40
0.9032258064516129
 40
0.9032258064516129
 40
0.9032258064516129
 40
0.9354838709677419
 40
0.9354838709677419
 40
0.9354838709677419
 40
0.9354838709677419
 40
1.0
 40
1.0
 40
1.0
 40
1.0
 10
-10.95884
 20
11.11097
 30
0.0
 10
-10.95884
 20
11.11097
 30
0.0
 10
-10.96292
 20
11.14171
 30
0.0
 10
-10.96292
 20
11.14171
 30
0.0
 10
-10.96292
 20
11.14171
 30
0.0
 10
-10.94548
 20
11.14527
 30
0.0
 10
-10.93294
 20
11.15128
 30
0.0
 10
-10.92524
 20
11.15974
 30
0.0
 10
-10.92524
 20
11.15974
 30
0.0
 10
-10.91754
 20
11.16825
 30
0.0
 10
-10.91369
 20
11.17858
 30
0.0
 10
-10.91369
 20
11.19077
 30
0.0
 10
-10.91369
 20
11.19077
 30
0.0
 10
-10.91369
 20
11.20524
 30
0.0
 10
-10.91871
 20
11.21749
 30
0.0
 10
-10.92874
 20
11.22746
 30
0.0
 10
-10.92874
 20
11.22746
 30
0.0
 10
-10.93877
 20
11.23738
 30
0.0
 10
-10.9512
 20
11.24239
 30
0.0
 10
-10.96601
 20
11.24239
 30
0.0
 10
-10.96601
 20
11.24239
 30
0.0
 10
-10.98013
 20
11.24239
 30
0.0
 10
-10.9918
 20
11.23779
 30
0.0
 10
-11.00096
 20
11.22857
 30
0.0
 10
-11.00096
 20
11.22857
 30
0.0
 10
-11.01011
 20
11.21929
 30
0.0
 10
-11.01472
 20
11.20757
 30
0.0
 10
-11.01472
 20
11.19334
 30
0.0
 10
-11.01472
 20
11.19334
 30
0.0
 10
-11.01472
 20
11.1875
 30
0.0
 10
-11.01356
 20
11.18027
 30
0.0
 10
-11.01128
 20
11.17164
 30
0.0
 10
-11.01128
 20
11.17164
 30
0.0
 10
-11.01128
 20
11.17164
 30
0.0
 10
-11.03829
 20
11.17508
 30
0.0
 10
-11.03829
 20
11.17508
 30
0.0
 10
-11.03829
 20
11.17508
 30
0.0
 10
-11.03806
 20
11.17712
 30
0.0
 10
-11.03794
 20
11.17875
 30
0.0
 10
-11.03794
 20
11.18004
 30
0.0
 10
-11.03794
 20
11.18004
 30
0.0
 10
-11.03794
 20
11.1931
 30
0.0
 10
-11.04138
 20
11.20489
 30
0.0
 10
-11.04821
 20
11.21539
 30
0.0
 10
-11.04821
 20
11.21539
 30
0.0
 10
-11.05503
 20
11.22589
 30
0.0
 10
-11.06559
 20
11.23114
 30
0.0
 10
-11.07982
 20
11.23114
 30
0.0
 10
-11.07982
 20
11.23114
 30
0.0
 10
-11.09108
 20
11.23114
 30
0.0
 10
-11.10047
 20
11.22729
 30
0.0
 10
-11.10782
 20
11.21964
 30
0.0
 10
-11.10782
 20
11.21964
 30
0.0
 10
-11.11523
 20
11.212
 30
0.0
 10
-11.11896
 20
11.20214
 30
0.0
 10
-11.11896
 20
11.19007
 30
0.0
 10
-11.11896
 20
11.19007
 30
0.0
 10
-11.11896
 20
11.17811
 30
0.0
 10
-11.11517
 20
11.16814
 30
0.0
 10
-11.10771
 20
11.1602
 30
0.0
 10
-11.10771
 20
11.1602
 30
0.0
 10
-11.10018
 20
11.15221
 30
0.0
 10
-11.08886
 20
11.14708
 30
0.0
 10
-11.07381
 20
11.1448
 30
0.0
 10
-11.07381
 20
11.1448
 30
0.0
 10
-11.07381
 20
11.1448
 30
0.0
 10
-11.0793
 20
11.11406
 30
0.0
 10
-11.0793
 20
11.11406
 30
0.0
 10
-11.0793
 20
11.11406
 30
0.0
 10
-11.09995
 20
11.11779
 30
0.0
 10
-11.11593
 20
11.12637
 30
0.0
 10
-11.12725
 20
11.13967
 30
0.0
 10
-11.12725
 20
11.13967
 30
0.0
 10
-11.13856
 20
11.15303
 30
0.0
 10
-11.14422
 20
11.16959
 30
0.0
 10
-11.14422
 20
11.18943
 30
0.0
 10
-11.14422
 20
11.18943
 30
0.0
 10
-11.14422
 20
11.20308
 30
0.0
 10
-11.14131
 20
11.21568
 30
0.0
 10
-11.13547
 20
11.22717
 30
0.0
 10
-11.13547
 20
11.22717
 30
0.0
 10
-11.12958
 20
11.23866
 30
0.0
 10
-11.12159
 20
11.24747
 30
0.0
 10
-11.11144
 20
11.25359
 30
0.0
 10
-11.11144
 20
11.25359
 30
0.0
 10
-11.10129
 20
11.25966
 30
0.0
 10
-11.09056
 20
11.26275
 30
0.0
 10
-11.07912
 20
11.26275
 30
0.0
 10
-11.07912
 20
11.26275
 30
0.0
 10
-11.06833
 20
11.26275
 30
0.0
 10
-11.05847
 20
11.25984
 30
0.0
 10
-11.04955
 20
11.254
 30
0.0
 10
-11.04955
 20
11.254
 30
0.0
 10
-11.04068
 20
11.24817
 30
0.0
 10
-11.03362
 20
11.23959
 30
0.0
 10
-11.02837
 20
11.22822
 30
0.0
 10
-11.02837
 20
11.22822
 30
0.0
 10
-11.02499
 20
11.24304
 30
0.0
 10
-11.01787
 20
11.25453
 30
0.0
 10
-11.00708
 20
11.26275
 30
0.0
 10
-11.00708
 20
11.26275
 30
0.0
 10
-10.99635
 20
11.27092
 30
0.0
 10
-10.98287
 20
11.275
 30
0.0
 10
-10.96671
 20
11.275
 30
0.0
 10
-10.96671
 20
11.275
 30
0.0
 10
-10.94484
 20
11.275
 30
0.0
 10
-10.92629
 20
11.26707
 30
0.0
 10
-10.91106
 20
11.25109
 30
0.0
 10
-10.91106
 20
11.25109
 30
0.0
 10
-10.89584
 20
11.23516
 30
0.0
 10
-10.88826
 20
11.21498
 30
0.0
 10
-10.88826
 20
11.19059
 30
0.0
 10
-10.88826
 20
11.19059
 30
0.0
 10
-10.88826
 20
11.1686
 30
0.0
 10
-10.89479
 20
11.15034
 30
0.0
 10
-10.90791
 20
11.13582
 30
0.0
 10
-10.90791
 20
11.13582
 30
0.0
 10
-10.92098
 20
11.12129
 30
0.0
 10
-10.93796
 20
11.11301
 30
0.0
 10
-10.95884
 20
11.11097
 30
0.0
  0
SPLINE
  5
F6
330
1F
100
AcDbEntity
  8
0
370
    15
100
AcDbSpline
210
0.0
220
0.0
230
1.0
 70
    24
 71
     3
 72
     8
 73
     4
 74
     0
 42
0.0000000001
 43
0.0000000001
 40
0.0
 40
0.0
 40
0.0
 40
0.0
 40
1.0
 40
1.0
 40
1.0
 40
1.0
 10
-1.1405
 20
12.34399
 30
0.0
 10
-1.1405
 20
12.34399
 30
0.0
 10
-1.14662
 20
12.34364
 30
0.0
 10
-1.14662
 20
12.34364
 30
0.0
  0
SPLINE
  5
F7
330
1F
100
AcDbEntity
  8
0
370
    15
100
AcDbSpline
210
0.0
220
0.0
230
1.0
 70
     8
 71
     3
 72
    12
 73
     8
 74
     0
 42
0.0000000001
 43
0.0000000001
 40
0.0
 40
0.0
 40
0.0
 40
0.0
 40
0.3333333333333333
 40
0.3333333333333333
 40
0.3333333333333333
 40
0.3333333333333333
 40
1.0
 40
1.0
 40
1.0
 40
1.0
 10
-1.23106
 20
12.33881
 30
0.0
 10
-1.24899
 20
12.33656
 30
0.0
 10
-1.26693
 20
12.33431
 30
0.0
 10
-1.28465
 20
12.33072
 30
0.0
 10
-1.28465
 20
12.33072
 30
0.0
 10
-1.31227
 20
12.32512
 30
0.0
 10
-1.33938
 20
12.31625
 30
0.0
 10
-1.3665
 20
12.30739
 30
0.0
  0
SPLINE
  5
F8
330
1F
100
AcDbEntity
  8
0
370
    15
100
AcDbSpline
210
0.0
220
0.0
230
1.0
 70
     8
 71
     3
 72
    32
 73
    28
 74
     0
 42
0.0000000001
 43
0.0000000001
 40
0.0
 40
0.0
 40
0.0
 40
0.0
 40
0.125
 40
0.125
 40
0.125
 40
0.125
 40
0.25
 40
0.25
 40
0.25
 40
0.25
 40
0.375
 40
0.375
 40
0.375
 40
0.375
 40
0.5
 40
0.5
 40
0.5
 40
0.5
 40
0.625
 40
0.625
 40
0.625
 40
0.625
 40
0.75
 40
0.75
 40
0.75
 40
0.75
 40
1.0
 40
1.0
 40
1.0
 40
1.0
 10
-1.2585
 20
12.33785
 30
0.0
 10
-1.24414
 20
12.34017
 30
0.0
 10
-1.22978
 20
12.3425
 30
0.0
 10
-1.21587
 20
12.34401
 30
0.0
 10
-1.21587
 20
12.34401
 30
0.0
 10
-1.20389
 20
12.34532
 30
0.0
 10
-1.19224
 20
12.34602
 30
0.0
 10
-1.18108
 20
12.34632
 30
0.0
 10
-1.18108
 20
12.34632
 30
0.0
 10
-1.17171
 20
12.34658
 30
0.0
 10
-1.16269
 20
12.34655
 30
0.0
 10
-1.15419
 20
12.34625
 30
0.0
 10
-1.15419
 20
12.34625
 30
0.0
 10
-1.14732
 20
12.34601
 30
0.0
 10
-1.14078
 20
12.34559
 30
0.0
 10
-1.13486
 20
12.34509
 30
0.0
 10
-1.13486
 20
12.34509
 30
0.0
 10
-1.13034
 20
12.3447
 30
0.0
 10
-1.12617
 20
12.34427
 30
0.0
 10
-1.12257
 20
12.3438
 30
0.0
 10
-1.12257
 20
12.3438
 30
0.0
 10
-1.12088
 20
12.34358
 30
0.0
 10
-1.11931
 20
12.34335
 30
0.0
 10
-1.11822
 20
12.34308
 30
0.0
 10
-1.11822
 20
12.34308
 30
0.0
 10
-1.1174
 20
12.34288
 30
0.0
 10
-1.11685
 20
12.34266
 30
0.0
 10
-1.11629
 20
12.34245
 30
0.0
  0
SPLINE
  5
F9
330
1F
100
AcDbEntity
  8
0
370
    15
100
AcDbSpline
210
0.0
220
0.0
230
1.0
 70
     8
 71
     3
 72
    32
 73
    28
 74
     0
 42
0.0000000001
 43
0.0000000001
 40
0.0
 40
0.0
 40
0.0
 40
0.0
 40
0.125
 40
0.125
 40
0.125
 40
0.125
 40
0.25
 40
0.25
 40
0.25
 40
0.25
 40
0.375
 40
0.375
 40
0.375
 40
0.375
 40
0.5
 40
0.5
 40
0.5
 40
0.5
 40
0.625
 40
0.625
 40
0.625
 40
0.625
 40
0.75
 40
0.75
 40
0.75
 40
0.75
 40
1.0
 40
1.0
 40
1.0
 40
1.0
 10
-1.11686
 20
12.34235
 30
0.0
 10
-1.11654
 20
12.34224
 30
0.0
 10
-1.11621
 20
12.34212
 30
0.0
 10
-1.11801
 20
12.34217
 30
0.0
 10
-1.11801
 20
12.34217
 30
0.0
 10
-1.11921
 20
12.34219
 30
0.0
 10
-1.12134
 20
12.34229
 30
0.0
 10
-1.12404
 20
12.34242
 30
0.0
 10
-1.12404
 20
12.34242
 30
0.0
 10
-1.12691
 20
12.34255
 30
0.0
 10
-1.13043
 20
12.34271
 30
0.0
 10
-1.13433
 20
12.34285
 30
0.0
 10
-1.13433
 20
12.34285
 30
0.0
 10
-1.1438
 20
12.34319
 30
0.0
 10
-1.15555
 20
12.34344
 30
0.0
 10
-1.16768
 20
12.3433
 30
0.0
 10
-1.16768
 20
12.3433
 30
0.0
 10
-1.18392
 20
12.34311
 30
0.0
 10
-1.20086
 20
12.34223
 30
0.0
 10
-1.21796
 20
12.34066
 30
0.0
 10
-1.21796
 20
12.34066
 30
0.0
 10
-1.24012
 20
12.33862
 30
0.0
 10
-1.26256
 20
12.33543
 30
0.0
 10
-1.28467
 20
12.33058
 30
0.0
 10
-1.28467
 20
12.33058
 30
0.0
 10
-1.3123
 20
12.32452
 30
0.0
 10
-1.3394
 20
12.31588
 30
0.0
 10
-1.3665
 20
12.30725
 30
0.0
  0
SPLINE
  5
FA
330
1F
100
AcDbEntity
  8
0
370
    15
100
AcDbSpline
210
0.0
220
0.0
230
1.0
 70
    24
 71
     3
 72
     8
 73
     4
 74
     0
 42
0.0000000001
 43
0.0000000001
 40
0.0
 40
0.0
 40
0.0
 40
0.0
 40
1.0
 40
1.0
 40
1.0
 40
1.0
 10
-0.93245
 20
10.20727
 30
0.0
 10
-0.93245
 20
10.20727
 30
0.0
 10
-0.93245
 20
10.95442
 30
0.0
 10
-0.93245
 20
10.95442
 30
0.0
  0
SPLINE
  5
FB
330
1F
100
AcDbEntity
  8
0
370
    15
100
AcDbSpline
210
0.0
220
0.0
230
1.0
 70
    24
 71
     3
 72
     8
 73
     4
 74
     0
 42
0.0000000001
 43
0.0000000001
 40
0.0
 40
0.0
 40
0.0
 40
0.0
 40
1.0
 40
1.0
 40
1.0
 40
1.0
 10
-0.4915
 20
12.34784
 30
0.0
 10
-0.4915
 20
12.34784
 30
0.0
 10
-1.14943
 20
12.34784
 30
0.0
 10
-1.14943
 20
12.34784
 30
0.0
  0
SPLINE
  5
FC
330
1F
100
AcDbEntity
  8
0
370
    15
100
AcDbSpline
210
0.0
220
0.0
230
1.0
 70
     8
 71
     3
 72
     8
 73
     4
 74
     0
 42
0.0000000001
 43
0.0000000001
 40
0.0
 40
0.0
 40
0.0
 40
0.0
 40
1.0
 40
1.0
 40
1.0
 40
1.0
 10
-0.83745
 20
11.05429
 30
0.0
 10
-0.89074
 20
11.05163
 30
0.0
 10
-0.93256
 20
11.00758
 30
0.0
 10
-0.93245
 20
10.95422
 30
0.0
  0
SPLINE
  5
FD
330
1F
100
AcDbEntity
  8
0
370
    15
100
AcDbSpline
210
0.0
220
0.0
230
1.0
 70
     8
 71
     3
 72
    12
 73
     8
 74
     0
 42
0.0000000001
 43
0.0000000001
 40
0.0
 40
0.0
 40
0.0
 40
0.0
 40
0.3333333333333333
 40
0.3333333333333333
 40
0.3333333333333333
 40
0.3333333333333333
 40
1.0
 40
1.0
 40
1.0
 40
1.0
 10
-0.4665
 20
12.32284
 30
0.0
 10
-0.4665
 20
12.32947
 30
0.0
 10
-0.46913
 20
12.33583
 30
0.0
 10
-0.47382
 20
12.34052
 30
0.0
 10
-0.47382
 20
12.34052
 30
0.0
 10
-0.47851
 20
12.34521
 30
0.0
 10
-0.48487
 20
12.34784
 30
0.0
 10
-0.4915
 20
12.34784
 30
0.0
  0
SPLINE
  5
FE
330
1F
100
AcDbEntity
  8
0
370
    15
100
AcDbSpline
210
0.0
220
0.0
230
1.0
 70
    24
 71
     3
 72
     8
 73
     4
 74
     0
 42
0.0000000001
 43
0.0000000001
 40
0.0
 40
0.0
 40
0.0
 40
0.0
 40
1.0
 40
1.0
 40
1.0
 40
1.0
 10
14.7585
 20
12.25534
 30
0.0
 10
14.7585
 20
12.25534
 30
0.0
 10
-0.4665
 20
12.25534
 30
0.0
 10
-0.4665
 20
12.25534
 30
0.0
  0
SPLINE
  5
FF
330
1F
100
AcDbEntity
  8
0
370
    15
100
AcDbSpline
210
0.0
220
0.0
230
1.0
 70
     8
 71
     3
 72
    12
 73
     8
 74
     0
 42
0.0000000001
 43
0.0000000001
 40
0.0
 40
0.0
 40
0.0
 40
0.0
 40
0.3333333333333333
 40
0.3333333333333333
 40
0.3333333333333333
 40
0.3333333333333333
 40
1.0
 40
1.0
 40
1.0
 40
1.0
 10
14.9585
 20
12.05534
 30
0.0
 10
14.9585
 20
12.10838
 30
0.0
 10
14.93743
 20
12.15925
 30
0.0
 10
14.89992
 20
12.19676
 30
0.0
 10
14.89992
 20
12.19676
 30
0.0
 10
14.86242
 20
12.23427
 30
0.0
 10
14.81155
 20
12.25534
 30
0.0
 10
14.7585
 20
12.25534
 30
0.0
  0
SPLINE
  5
100
330
1F
100
AcDbEntity
  8
0
370
    15
100
AcDbSpline
210
0.0
220
0.0
230
1.0
 70
    24
 71
     3
 72
     8
 73
     4
 74
     0
 42
0.0000000001
 43
0.0000000001
 40
0.0
 40
0.0
 40
0.0
 40
0.0
 40
1.0
 40
1.0
 40
1.0
 40
1.0
 10
14.9585
 20
12.05534
 30
0.0
 10
14.9585
 20
12.05534
 30
0.0
 10
14.9585
 20
11.35534
 30
0.0
 10
14.9585
 20
11.35534
 30
0.0
  0
SPLINE
  5
101
330
1F
100
AcDbEntity
  8
0
370
    15
100
AcDbSpline
210
0.0
220
0.0
230
1.0
 70
     8
 71
     3
 72
     8
 73
     4
 74
     0
 42
0.0000000001
 43
0.0000000001
 40
0.0
 40
0.0
 40
0.0
 40
0.0
 40
1.0
 40
1.0
 40
1.0
 40
1.0
 10
14.7585
 20
11.15534
 30
0.0
 10
14.86896
 20
11.15534
 30
0.0
 10
14.9585
 20
11.24488
 30
0.0
 10
14.9585
 20
11.35534
 30
0.0
  0
SPLINE
  5
102
330
1F
100
AcDbEntity
  8
0
370
    15
100
AcDbSpline
210
0.0
220
0.0
230
1.0
 70
    24
 71
     3
 72
     8
 73
     4
 74
     0
 42
0.0000000001
 43
0.0000000001
 40
0.0
 40
0.0
 40
0.0
 40
0.0
 40
1.0
 40
1.0
 40
1.0
 40
1.0
 10
14.7585
 20
11.15534
 30
0.0
 10
14.7585
 20
11.15534
 30
0.0
 10
-0.4665
 20
11.15534
 30
0.0
 10
-0.4665
 20
11.15534
 30
0.0
  0
SPLINE
  5
103
330
1F
100
AcDbEntity
  8
0
370
    15
100
AcDbSpline
210
0.0
220
0.0
230
1.0
 70
     8
 71
     3
 72
    12
 73
     8
 74
     0
 42
0.0000000001
 43
0.0000000001
 40
0.0
 40
0.0
 40
0.0
 40
0.0
 40
0.3333333333333333
 40
0.3333333333333333
 40
0.3333333333333333
 40
0.3333333333333333
 40
1.0
 40
1.0
 40
1.0
 40
1.0
 10
-0.95672
 20
12.31563
 30
0.0
 10
-0.98816
 20
12.32504
 30
0.0
 10
-1.01959
 20
12.33446
 30
0.0
 10
-1.05145
 20
12.33971
 30
0.0
 10
-1.05145
 20
12.33971
 30
0.0
 10
-1.08094
 20
12.34457
 30
0.0
 10
-1.1108
 20
12.34587
 30
0.0
 10
-1.14066
 20
12.34717
 30
0.0
  0
SPLINE
  5
104
330
1F
100
AcDbEntity
  8
0
370
    15
100
AcDbSpline
210
0.0
220
0.0
230
1.0
 70
    24
 71
     3
 72
     8
 73
     4
 74
     0
 42
0.0000000001
 43
0.0000000001
 40
0.0
 40
0.0
 40
0.0
 40
0.0
 40
1.0
 40
1.0
 40
1.0
 40
1.0
 10
-0.95033
 20
12.31338
 30
0.0
 10
-0.95033
 20
12.31338
 30
0.0
 10
-0.95672
 20
12.31563
 30
0.0
 10
-0.95672
 20
12.31563
 30
0.0
  0
SPLINE
  5
105
330
1F
100
AcDbEntity
  8
0
370
    15
100
AcDbSpline
210
0.0
220
0.0
230
1.0
 70
     8
 71
     3
 72
    20
 73
    16
 74
     0
 42
0.0000000001
 43
0.0000000001
 40
0.0
 40
0.0
 40
0.0
 40
0.0
 40
0.2
 40
0.2
 40
0.2
 40
0.2
 40
0.4
 40
0.4
 40
0.4
 40
0.4
 40
0.6
 40
0.6
 40
0.6
 40
0.6
 40
1.0
 40
1.0
 40
1.0
 40
1.0
 10
-0.97412
 20
12.31328
 30
0.0
 10
-0.97117
 20
12.31329
 30
0.0
 10
-0.96822
 20
12.3133
 30
0.0
 10
-0.96565
 20
12.31324
 30
0.0
 10
-0.96565
 20
12.31324
 30
0.0
 10
-0.96376
 20
12.3132
 30
0.0
 10
-0.96208
 20
12.31313
 30
0.0
 10
-0.96053
 20
12.3131
 30
0.0
 10
-0.96053
 20
12.3131
 30
0.0
 10
-0.95696
 20
12.31304
 30
0.0
 10
-0.95414
 20
12.31324
 30
0.0
 10
-0.95232
 20
12.31332
 30
0.0
 10
-0.95232
 20
12.31332
 30
0.0
 10
-0.95153
 20
12.31336
 30
0.0
 10
-0.95093
 20
12.31337
 30
0.0
 10
-0.95033
 20
12.31338
 30
0.0
  0
SPLINE
  5
106
330
1F
100
AcDbEntity
  8
0
370
    15
100
AcDbSpline
210
0.0
220
0.0
230
1.0
 70
     8
 71
     3
 72
    24
 73
    20
 74
     0
 42
0.0000000001
 43
0.0000000001
 40
0.0
 40
0.0
 40
0.0
 40
0.0
 40
0.1666666666666667
 40
0.1666666666666667
 40
0.1666666666666667
 40
0.1666666666666667
 40
0.3333333333333333
 40
0.3333333333333333
 40
0.3333333333333333
 40
0.3333333333333333
 40
0.5
 40
0.5
 40
0.5
 40
0.5
 40
0.6666666666666666
 40
0.6666666666666666
 40
0.6666666666666666
 40
0.6666666666666666
 40
1.0
 40
1.0
 40
1.0
 40
1.0
 10
-0.98313
 20
12.05742
 30
0.0
 10
-0.9832
 20
12.07264
 30
0.0
 10
-0.98327
 20
12.08787
 30
0.0
 10
-0.98335
 20
12.10286
 30
0.0
 10
-0.98335
 20
12.10286
 30
0.0
 10
-0.9835
 20
12.13249
 30
0.0
 10
-0.98371
 20
12.16122
 30
0.0
 10
-0.98352
 20
12.18707
 30
0.0
 10
-0.98352
 20
12.18707
 30
0.0
 10
-0.98333
 20
12.21212
 30
0.0
 10
-0.98278
 20
12.23447
 30
0.0
 10
-0.9818
 20
12.25344
 30
0.0
 10
-0.9818
 20
12.25344
 30
0.0
 10
-0.98082
 20
12.27261
 30
0.0
 10
-0.97941
 20
12.28833
 30
0.0
 10
-0.97805
 20
12.29773
 30
0.0
 10
-0.97805
 20
12.29773
 30
0.0
 10
-0.9767
 20
12.30708
 30
0.0
 10
-0.97541
 20
12.31018
 30
0.0
 10
-0.97412
 20
12.31328
 30
0.0
  0
SPLINE
  5
107
330
1F
100
AcDbEntity
  8
0
370
    15
100
AcDbSpline
210
0.0
220
0.0
230
1.0
 70
     8
 71
     3
 72
    20
 73
    16
 74
     0
 42
0.0000000001
 43
0.0000000001
 40
0.0
 40
0.0
 40
0.0
 40
0.0
 40
0.2
 40
0.2
 40
0.2
 40
0.2
 40
0.4
 40
0.4
 40
0.4
 40
0.4
 40
0.6
 40
0.6
 40
0.6
 40
0.6
 40
1.0
 40
1.0
 40
1.0
 40
1.0
 10
-0.98313
 20
10.20727
 30
0.0
 10
-0.98313
 20
10.37204
 30
0.0
 10
-0.98312
 20
10.53681
 30
0.0
 10
-0.98313
 20
10.70158
 30
0.0
 10
-0.98313
 20
10.70158
 30
0.0
 10
-0.98315
 20
10.92755
 30
0.0
 10
-0.98319
 20
11.15353
 30
0.0
 10
-0.98313
 20
11.3795
 30
0.0
 10
-0.98313
 20
11.3795
 30
0.0
 10
-0.9831
 20
11.49249
 30
0.0
 10
-0.98304
 20
11.60548
 30
0.0
 10
-0.98304
 20
11.71848
 30
0.0
 10
-0.98304
 20
11.71848
 30
0.0
 10
-0.98303
 20
11.83146
 30
0.0
 10
-0.98308
 20
11.94444
 30
0.0
 10
-0.98313
 20
12.05742
 30
0.0
  0
SPLINE
  5
108
330
1F
100
AcDbEntity
  8
0
370
    15
100
AcDbSpline
210
0.0
220
0.0
230
1.0
 70
    24
 71
     3
 72
     8
 73
     4
 74
     0
 42
0.0000000001
 43
0.0000000001
 40
0.0
 40
0.0
 40
0.0
 40
0.0
 40
1.0
 40
1.0
 40
1.0
 40
1.0
 10
-1.3665
 20
10.20727
 30
0.0
 10
-1.3665
 20
10.20727
 30
0.0
 10
-0.98313
 20
10.20727
 30
0.0
 10
-0.98313
 20
10.20727
 30
0.0
  0
SPLINE
  5
109
330
1F
100
AcDbEntity
  8
0
370
    15
100
AcDbSpline
210
0.0
220
0.0
230
1.0
 70
    24
 71
     3
 72
     8
 73
     4
 74
     0
 42
0.0000000001
 43
0.0000000001
 40
0.0
 40
0.0
 40
0.0
 40
0.0
 40
1.0
 40
1.0
 40
1.0
 40
1.0
 10
-1.3665
 20
12.05727
 30
0.0
 10
-1.3665
 20
12.05727
 30
0.0
 10
-1.3665
 20
10.20727
 30
0.0
 10
-1.3665
 20
10.20727
 30
0.0
  0
SPLINE
  5
10A
330
1F
100
AcDbEntity
  8
0
370
    15
100
AcDbSpline
210
0.0
220
0.0
230
1.0
 70
    24
 71
     3
 72
    24
 73
    20
 74
     0
 42
0.0000000001
 43
0.0000000001
 40
0.0
 40
0.0
 40
0.0
 40
0.0
 40
0.1666666666666667
 40
0.1666666666666667
 40
0.1666666666666667
 40
0.1666666666666667
 40
0.3333333333333333
 40
0.3333333333333333
 40
0.3333333333333333
 40
0.3333333333333333
 40
0.5
 40
0.5
 40
0.5
 40
0.5
 40
0.6666666666666666
 40
0.6666666666666666
 40
0.6666666666666666
 40
0.6666666666666666
 40
1.0
 40
1.0
 40
1.0
 40
1.0
 10
-1.3665
 20
12.05727
 30
0.0
 10
-1.3665
 20
12.08621
 30
0.0
 10
-1.3665
 20
12.11514
 30
0.0
 10
-1.3665
 20
12.1423
 30
0.0
 10
-1.3665
 20
12.1423
 30
0.0
 10
-1.3665
 20
12.16955
 30
0.0
 10
-1.3665
 20
12.195
 30
0.0
 10
-1.3665
 20
12.21725
 30
0.0
 10
-1.3665
 20
12.21725
 30
0.0
 10
-1.3665
 20
12.23905
 30
0.0
 10
-1.3665
 20
12.25778
 30
0.0
 10
-1.3665
 20
12.27244
 30
0.0
 10
-1.3665
 20
12.27244
 30
0.0
 10
-1.3665
 20
12.2871
 30
0.0
 10
-1.3665
 20
12.29769
 30
0.0
 10
-1.3665
 20
12.30261
 30
0.0
 10
-1.3665
 20
12.30261
 30
0.0
 10
-1.3665
 20
12.3054
 30
0.0
 10
-1.3665
 20
12.30636
 30
0.0
 10
-1.3665
 20
12.30733
 30
0.0
  0
SPLINE
  5
10B
330
1F
100
AcDbEntity
  8
0
370
    15
100
AcDbSpline
210
0.0
220
0.0
230
1.0
 70
     8
 71
     3
 72
    12
 73
     8
 74
     0
 42
0.0000000001
 43
0.0000000001
 40
0.0
 40
0.0
 40
0.0
 40
0.0
 40
0.3333333333333333
 40
0.3333333333333333
 40
0.3333333333333333
 40
0.3333333333333333
 40
1.0
 40
1.0
 40
1.0
 40
1.0
 10
-1.14943
 20
12.34784
 30
0.0
 10
-1.14917
 20
12.34784
 30
0.0
 10
-1.1489
 20
12.34784
 30
0.0
 10
-1.14863
 20
12.34784
 30
0.0
 10
-1.14863
 20
12.34784
 30
0.0
 10
-1.14702
 20
12.34782
 30
0.0
 10
-1.14527
 20
12.34762
 30
0.0
 10
-1.14352
 20
12.34742
 30
0.0
  0
SPLINE
  5
10C
330
1F
100
AcDbEntity
  8
0
370
    15
100
AcDbSpline
210
0.0
220
0.0
230
1.0
 70
    24
 71
     3
 72
    20
 73
    16
 74
     0
 42
0.0000000001
 43
0.0000000001
 40
0.0
 40
0.0
 40
0.0
 40
0.0
 40
0.2
 40
0.2
 40
0.2
 40
0.2
 40
0.4
 40
0.4
 40
0.4
 40
0.4
 40
0.6
 40
0.6
 40
0.6
 40
0.6
 40
1.0
 40
1.0
 40
1.0
 40
1.0
 10
-0.96579
 20
12.05696
 30
0.0
 10
-0.96579
 20
12.04493
 30
0.0
 10
-0.96579
 20
12.03291
 30
0.0
 10
-0.96579
 20
12.02089
 30
0.0
 10
-0.96579
 20
12.02089
 30
0.0
 10
-0.96579
 20
11.87279
 30
0.0
 10
-0.96579
 20
11.72468
 30
0.0
 10
-0.96579
 20
11.57658
 30
0.0
 10
-0.96579
 20
11.57658
 30
0.0
 10
-0.96579
 20
11.42848
 30
0.0
 10
-0.96579
 20
11.28037
 30
0.0
 10
-0.96579
 20
11.13227
 30
0.0
 10
-0.96579
 20
11.13227
 30
0.0
 10
-0.96579
 20
10.82394
 30
0.0
 10
-0.96579
 20
10.5156
 30
0.0
 10
-0.96579
 20
10.20727
 30
0.0
  0
SPLINE
  5
10D
330
1F
100
AcDbEntity
  8
0
370
    15
100
AcDbSpline
210
0.0
220
0.0
230
1.0
 70
     8
 71
     3
 72
     8
 73
     4
 74
     0
 42
0.0000000001
 43
0.0000000001
 40
0.0
 40
0.0
 40
0.0
 40
0.0
 40
1.0
 40
1.0
 40
1.0
 40
1.0
 10
-0.96579
 20
12.05696
 30
0.0
 10
-0.97156
 20
12.05734
 30
0.0
 10
-0.97735
 20
12.0575
 30
0.0
 10
-0.98313
 20
12.05742
 30
0.0
  0
SPLINE
  5
10E
330
1F
100
AcDbEntity
  8
0
370
    15
100
AcDbSpline
210
0.0
220
0.0
230
1.0
 70
    24
 71
     3
 72
     8
 73
     4
 74
     0
 42
0.0000000001
 43
0.0000000001
 40
0.0
 40
0.0
 40
0.0
 40
0.0
 40
1.0
 40
1.0
 40
1.0
 40
1.0
 10
-0.96579
 20
10.20727
 30
0.0
 10
-0.96579
 20
10.20727
 30
0.0
 10
-0.98313
 20
10.20727
 30
0.0
 10
-0.98313
 20
10.20727
 30
0.0
  0
SPLINE
  5
10F
330
1F
100
AcDbEntity
  8
0
370
    15
100
AcDbSpline
210
0.0
220
0.0
230
1.0
 70
     8
 71
     3
 72
    24
 73
    20
 74
     0
 42
0.0000000001
 43
0.0000000001
 40
0.0
 40
0.0
 40
0.0
 40
0.0
 40
0.1666666666666667
 40
0.1666666666666667
 40
0.1666666666666667
 40
0.1666666666666667
 40
0.3333333333333333
 40
0.3333333333333333
 40
0.3333333333333333
 40
0.3333333333333333
 40
0.5
 40
0.5
 40
0.5
 40
0.5
 40
0.6666666666666666
 40
0.6666666666666666
 40
0.6666666666666666
 40
0.6666666666666666
 40
1.0
 40
1.0
 40
1.0
 40
1.0
 10
-0.95695
 20
12.28955
 30
0.0
 10
-0.9579
 20
12.28669
 30
0.0
 10
-0.95885
 20
12.28383
 30
0.0
 10
-0.95978
 20
12.27524
 30
0.0
 10
-0.95978
 20
12.27524
 30
0.0
 10
-0.9607
 20
12.26663
 30
0.0
 10
-0.9616
 20
12.25227
 30
0.0
 10
-0.96239
 20
12.23485
 30
0.0
 10
-0.96239
 20
12.23485
 30
0.0
 10
-0.96318
 20
12.21757
 30
0.0
 10
-0.96387
 20
12.1973
 30
0.0
 10
-0.96443
 20
12.17456
 30
0.0
 10
-0.96443
 20
12.17456
 30
0.0
 10
-0.96501
 20
12.15121
 30
0.0
 10
-0.96544
 20
12.12526
 30
0.0
 10
-0.96563
 20
12.09844
 30
0.0
 10
-0.96563
 20
12.09844
 30
0.0
 10
-0.96573
 20
12.08476
 30
0.0
 10
-0.96576
 20
12.07086
 30
0.0
 10
-0.96579
 20
12.05696
 30
0.0
  0
SPLINE
  5
110
330
1F
100
AcDbEntity
  8
0
370
    15
100
AcDbSpline
210
0.0
220
0.0
230
1.0
 70
     8
 71
     3
 72
     8
 73
     4
 74
     0
 42
0.0000000001
 43
0.0000000001
 40
0.0
 40
0.0
 40
0.0
 40
0.0
 40
1.0
 40
1.0
 40
1.0
 40
1.0
 10
-0.95695
 20
12.28955
 30
0.0
 10
-0.95695
 20
12.30033
 30
0.0
 10
-0.96387
 20
12.3099
 30
0.0
 10
-0.97412
 20
12.31328
 30
0.0
  0
SPLINE
  5
111
330
1F
100
AcDbEntity
  8
0
370
    15
100
AcDbSpline
210
0.0
220
0.0
230
1.0
 70
     8
 71
     3
 72
    20
 73
    16
 74
     0
 42
0.0000000001
 43
0.0000000001
 40
0.0
 40
0.0
 40
0.0
 40
0.0
 40
0.2
 40
0.2
 40
0.2
 40
0.2
 40
0.4
 40
0.4
 40
0.4
 40
0.4
 40
0.6
 40
0.6
 40
0.6
 40
0.6
 40
1.0
 40
1.0
 40
1.0
 40
1.0
 10
-0.93432
 20
12.28979
 30
0.0
 10
-0.93473
 20
12.28977
 30
0.0
 10
-0.93514
 20
12.28976
 30
0.0
 10
-0.93561
 20
12.28974
 30
0.0
 10
-0.93561
 20
12.28974
 30
0.0
 10
-0.93742
 20
12.28965
 30
0.0
 10
-0.94017
 20
12.28943
 30
0.0
 10
-0.94367
 20
12.28946
 30
0.0
 10
-0.94367
 20
12.28946
 30
0.0
 10
-0.94518
 20
12.28947
 30
0.0
 10
-0.94683
 20
12.28953
 30
0.0
 10
-0.94868
 20
12.28956
 30
0.0
 10
-0.94868
 20
12.28956
 30
0.0
 10
-0.95119
 20
12.2896
 30
0.0
 10
-0.95407
 20
12.28957
 30
0.0
 10
-0.95695
 20
12.28955
 30
0.0
  0
SPLINE
  5
112
330
1F
100
AcDbEntity
  8
0
370
    15
100
AcDbSpline
210
0.0
220
0.0
230
1.0
 70
    24
 71
     3
 72
     8
 73
     4
 74
     0
 42
0.0000000001
 43
0.0000000001
 40
0.0
 40
0.0
 40
0.0
 40
0.0
 40
1.0
 40
1.0
 40
1.0
 40
1.0
 10
-0.93432
 20
12.18979
 30
0.0
 10
-0.93432
 20
12.18979
 30
0.0
 10
-0.93432
 20
12.28979
 30
0.0
 10
-0.93432
 20
12.28979
 30
0.0
  0
SPLINE
  5
113
330
1F
100
AcDbEntity
  8
0
370
    15
100
AcDbSpline
210
0.0
220
0.0
230
1.0
 70
    24
 71
     3
 72
     8
 73
     4
 74
     0
 42
0.0000000001
 43
0.0000000001
 40
0.0
 40
0.0
 40
0.0
 40
0.0
 40
1.0
 40
1.0
 40
1.0
 40
1.0
 10
-0.93432
 20
11.07886
 30
0.0
 10
-0.93432
 20
11.07886
 30
0.0
 10
-0.93432
 20
12.18979
 30
0.0
 10
-0.93432
 20
12.18979
 30
0.0
  0
SPLINE
  5
114
330
1F
100
AcDbEntity
  8
0
370
    15
100
AcDbSpline
210
0.0
220
0.0
230
1.0
 70
     8
 71
     3
 72
    24
 73
    20
 74
     0
 42
0.0000000001
 43
0.0000000001
 40
0.0
 40
0.0
 40
0.0
 40
0.0
 40
0.1666666666666667
 40
0.1666666666666667
 40
0.1666666666666667
 40
0.1666666666666667
 40
0.3333333333333333
 40
0.3333333333333333
 40
0.3333333333333333
 40
0.3333333333333333
 40
0.5
 40
0.5
 40
0.5
 40
0.5
 40
0.6666666666666666
 40
0.6666666666666666
 40
0.6666666666666666
 40
0.6666666666666666
 40
1.0
 40
1.0
 40
1.0
 40
1.0
 10
-0.93331
 20
10.95438
 30
0.0
 10
-0.93337
 20
10.955
 30
0.0
 10
-0.93343
 20
10.95563
 30
0.0
 10
-0.9335
 20
10.95754
 30
0.0
 10
-0.9335
 20
10.95754
 30
0.0
 10
-0.9336
 20
10.96037
 30
0.0
 10
-0.9337
 20
10.966
 30
0.0
 10
-0.9338
 20
10.97352
 30
0.0
 10
-0.9338
 20
10.97352
 30
0.0
 10
-0.93389
 20
10.98101
 30
0.0
 10
-0.93399
 20
10.99037
 30
0.0
 10
-0.93406
 20
11.00125
 30
0.0
 10
-0.93406
 20
11.00125
 30
0.0
 10
-0.93414
 20
11.01214
 30
0.0
 10
-0.93421
 20
11.02455
 30
0.0
 10
-0.93425
 20
11.03773
 30
0.0
 10
-0.93425
 20
11.03773
 30
0.0
 10
-0.93429
 20
11.05093
 30
0.0
 10
-0.9343
 20
11.06489
 30
0.0
 10
-0.93432
 20
11.07886
 30
0.0
  0
SPLINE
  5
115
330
1F
100
AcDbEntity
  8
0
370
    15
100
AcDbSpline
210
0.0
220
0.0
230
1.0
 70
    24
 71
     3
 72
     8
 73
     4
 74
     0
 42
0.0000000001
 43
0.0000000001
 40
0.0
 40
0.0
 40
0.0
 40
0.0
 40
1.0
 40
1.0
 40
1.0
 40
1.0
 10
-0.93245
 20
10.20727
 30
0.0
 10
-0.93245
 20
10.20727
 30
0.0
 10
-0.96579
 20
10.20727
 30
0.0
 10
-0.96579
 20
10.20727
 30
0.0
  0
SPLINE
  5
116
330
1F
100
AcDbEntity
  8
0
370
    15
100
AcDbSpline
210
0.0
220
0.0
230
1.0
 70
    24
 71
     3
 72
     8
 73
     4
 74
     0
 42
0.0000000001
 43
0.0000000001
 40
0.0
 40
0.0
 40
0.0
 40
0.0
 40
1.0
 40
1.0
 40
1.0
 40
1.0
 10
-1.3665
 20
11.90727
 30
0.0
 10
-1.3665
 20
11.90727
 30
0.0
 10
-1.4665
 20
11.90727
 30
0.0
 10
-1.4665
 20
11.90727
 30
0.0
  0
SPLINE
  5
117
330
1F
100
AcDbEntity
  8
0
370
    15
100
AcDbSpline
210
0.0
220
0.0
230
1.0
 70
    24
 71
     3
 72
     8
 73
     4
 74
     0
 42
0.0000000001
 43
0.0000000001
 40
0.0
 40
0.0
 40
0.0
 40
0.0
 40
1.0
 40
1.0
 40
1.0
 40
1.0
 10
-1.4665
 20
10.20727
 30
0.0
 10
-1.4665
 20
10.20727
 30
0.0
 10
-1.4665
 20
11.90727
 30
0.0
 10
-1.4665
 20
11.90727
 30
0.0
  0
SPLINE
  5
118
330
1F
100
AcDbEntity
  8
0
370
    15
100
AcDbSpline
210
0.0
220
0.0
230
1.0
 70
    24
 71
     3
 72
     8
 73
     4
 74
     0
 42
0.0000000001
 43
0.0000000001
 40
0.0
 40
0.0
 40
0.0
 40
0.0
 40
1.0
 40
1.0
 40
1.0
 40
1.0
 10
-1.3665
 20
10.20727
 30
0.0
 10
-1.3665
 20
10.20727
 30
0.0
 10
-1.4665
 20
10.20727
 30
0.0
 10
-1.4665
 20
10.20727
 30
0.0
  0
SPLINE
  5
119
330
1F
100
AcDbEntity
  8
0
370
    15
100
AcDbSpline
210
0.0
220
0.0
230
1.0
 70
    24
 71
     3
 72
     8
 73
     4
 74
     0
 42
0.0000000001
 43
0.0000000001
 40
0.0
 40
0.0
 40
0.0
 40
0.0
 40
1.0
 40
1.0
 40
1.0
 40
1.0
 10
-1.4665
 20
12.05727
 30
0.0
 10
-1.4665
 20
12.05727
 30
0.0
 10
-1.3665
 20
12.05727
 30
0.0
 10
-1.3665
 20
12.05727
 30
0.0
  0
SPLINE
  5
11A
330
1F
100
AcDbEntity
  8
0
370
    15
100
AcDbSpline
210
0.0
220
0.0
230
1.0
 70
    24
 71
     3
 72
     8
 73
     4
 74
     0
 42
0.0000000001
 43
0.0000000001
 40
0.0
 40
0.0
 40
0.0
 40
0.0
 40
1.0
 40
1.0
 40
1.0
 40
1.0
 10
-1.4665
 20
11.90727
 30
0.0
 10
-1.4665
 20
11.90727
 30
0.0
 10
-1.4665
 20
12.05727
 30
0.0
 10
-1.4665
 20
12.05727
 30
0.0
  0
SPLINE
  5
11B
330
1F
100
AcDbEntity
  8
0
370
    15
100
AcDbSpline
210
0.0
220
0.0
230
1.0
 70
    24
 71
     3
 72
     8
 73
     4
 74
     0
 42
0.0000000001
 43
0.0000000001
 40
0.0
 40
0.0
 40
0.0
 40
0.0
 40
1.0
 40
1.0
 40
1.0
 40
1.0
 10
-0.94672
 20
12.31169
 30
0.0
 10
-0.94672
 20
12.31169
 30
0.0
 10
-0.95033
 20
12.31338
 30
0.0
 10
-0.95033
 20
12.31338
 30
0.0
  0
SPLINE
  5
11C
330
1F
100
AcDbEntity
  8
0
370
    15
100
AcDbSpline
210
0.0
220
0.0
230
1.0
 70
     8
 71
     3
 72
    28
 73
    24
 74
     0
 42
0.0000000001
 43
0.0000000001
 40
0.0
 40
0.0
 40
0.0
 40
0.0
 40
0.1428571428571428
 40
0.1428571428571428
 40
0.1428571428571428
 40
0.1428571428571428
 40
0.2857142857142857
 40
0.2857142857142857
 40
0.2857142857142857
 40
0.2857142857142857
 40
0.4285714285714285
 40
0.4285714285714285
 40
0.4285714285714285
 40
0.4285714285714285
 40
0.5714285714285714
 40
0.5714285714285714
 40
0.5714285714285714
 40
0.5714285714285714
 40
0.7142857142857143
 40
0.7142857142857143
 40
0.7142857142857143
 40
0.7142857142857143
 40
1.0
 40
1.0
 40
1.0
 40
1.0
 10
-0.93432
 20
12.28979
 30
0.0
 10
-0.93434
 20
12.29053
 30
0.0
 10
-0.93435
 20
12.29128
 30
0.0
 10
-0.93441
 20
12.29197
 30
0.0
 10
-0.93441
 20
12.29197
 30
0.0
 10
-0.93445
 20
12.29253
 30
0.0
 10
-0.93452
 20
12.29306
 30
0.0
 10
-0.93459
 20
12.29356
 30
0.0
 10
-0.93459
 20
12.29356
 30
0.0
 10
-0.93471
 20
12.29434
 30
0.0
 10
-0.93484
 20
12.29504
 30
0.0
 10
-0.93499
 20
12.29568
 30
0.0
 10
-0.93499
 20
12.29568
 30
0.0
 10
-0.93532
 20
12.29713
 30
0.0
 10
-0.93571
 20
12.29829
 30
0.0
 10
-0.93612
 20
12.29931
 30
0.0
 10
-0.93612
 20
12.29931
 30
0.0
 10
-0.93703
 20
12.30161
 30
0.0
 10
-0.938
 20
12.30325
 30
0.0
 10
-0.93898
 20
12.30462
 30
0.0
 10
-0.93898
 20
12.30462
 30
0.0
 10
-0.94156
 20
12.30822
 30
0.0
 10
-0.94414
 20
12.30996
 30
0.0
 10
-0.94672
 20
12.31169
 30
0.0
  0
SPLINE
  5
11D
330
1F
100
AcDbEntity
  8
0
370
    15
100
AcDbSpline
210
0.0
220
0.0
230
1.0
 70
     8
 71
     3
 72
    24
 73
    20
 74
     0
 42
0.0000000001
 43
0.0000000001
 40
0.0
 40
0.0
 40
0.0
 40
0.0
 40
0.1666666666666667
 40
0.1666666666666667
 40
0.1666666666666667
 40
0.1666666666666667
 40
0.3333333333333333
 40
0.3333333333333333
 40
0.3333333333333333
 40
0.3333333333333333
 40
0.5
 40
0.5
 40
0.5
 40
0.5
 40
0.6666666666666666
 40
0.6666666666666666
 40
0.6666666666666666
 40
0.6666666666666666
 40
1.0
 40
1.0
 40
1.0
 40
1.0
 10
-0.84427
 20
11.07886
 30
0.0
 10
-0.8447
 20
11.07605
 30
0.0
 10
-0.84513
 20
11.07325
 30
0.0
 10
-0.84528
 20
11.07058
 30
0.0
 10
-0.84528
 20
11.07058
 30
0.0
 10
-0.84542
 20
11.06795
 30
0.0
 10
-0.84528
 20
11.06545
 30
0.0
 10
-0.84494
 20
11.0633
 30
0.0
 10
-0.84494
 20
11.0633
 30
0.0
 10
-0.84459
 20
11.0611
 30
0.0
 10
-0.84403
 20
11.05926
 30
0.0
 10
-0.84331
 20
11.05783
 30
0.0
 10
-0.84331
 20
11.05783
 30
0.0
 10
-0.84255
 20
11.05633
 30
0.0
 10
-0.84163
 20
11.05528
 30
0.0
 10
-0.84059
 20
11.05477
 30
0.0
 10
-0.84059
 20
11.05477
 30
0.0
 10
-0.83986
 20
11.05442
 30
0.0
 10
-0.83908
 20
11.05433
 30
0.0
 10
-0.8383
 20
11.05425
 30
0.0
  0
SPLINE
  5
11E
330
1F
100
AcDbEntity
  8
0
370
    15
100
AcDbSpline
210
0.0
220
0.0
230
1.0
 70
     8
 71
     3
 72
     8
 73
     4
 74
     0
 42
0.0000000001
 43
0.0000000001
 40
0.0
 40
0.0
 40
0.0
 40
0.0
 40
1.0
 40
1.0
 40
1.0
 40
1.0
 10
-0.8383
 20
11.05425
 30
0.0
 10
-0.86699
 20
11.05282
 30
0.0
 10
-0.89368
 20
11.03911
 30
0.0
 10
-0.91156
 20
11.01664
 30
0.0
  0
SPLINE
  5
11F
330
1F
100
AcDbEntity
  8
0
370
    15
100
AcDbSpline
210
0.0
220
0.0
230
1.0
 70
    24
 71
     3
 72
     8
 73
     4
 74
     0
 42
0.0000000001
 43
0.0000000001
 40
0.0
 40
0.0
 40
0.0
 40
0.0
 40
1.0
 40
1.0
 40
1.0
 40
1.0
 10
-0.84427
 20
11.07886
 30
0.0
 10
-0.84427
 20
11.07886
 30
0.0
 10
-0.93432
 20
11.07886
 30
0.0
 10
-0.93432
 20
11.07886
 30
0.0
  0
SPLINE
  5
120
330
1F
100
AcDbEntity
  8
0
370
    15
100
AcDbSpline
210
0.0
220
0.0
230
1.0
 70
    24
 71
     3
 72
     8
 73
     4
 74
     0
 42
0.0000000001
 43
0.0000000001
 40
0.0
 40
0.0
 40
0.0
 40
0.0
 40
1.0
 40
1.0
 40
1.0
 40
1.0
 10
-0.84427
 20
12.18979
 30
0.0
 10
-0.84427
 20
12.18979
 30
0.0
 10
-0.84427
 20
11.07886
 30
0.0
 10
-0.84427
 20
11.07886
 30
0.0
  0
SPLINE
  5
121
330
1F
100
AcDbEntity
  8
0
370
    15
100
AcDbSpline
210
0.0
220
0.0
230
1.0
 70
    24
 71
     3
 72
    20
 73
    16
 74
     0
 42
0.0000000001
 43
0.0000000001
 40
0.0
 40
0.0
 40
0.0
 40
0.0
 40
0.2
 40
0.2
 40
0.2
 40
0.2
 40
0.4
 40
0.4
 40
0.4
 40
0.4
 40
0.6
 40
0.6
 40
0.6
 40
0.6
 40
1.0
 40
1.0
 40
1.0
 40
1.0
 10
-0.93432
 20
12.18979
 30
0.0
 10
-0.9329
 20
12.18979
 30
0.0
 10
-0.93149
 20
12.18979
 30
0.0
 10
-0.92737
 20
12.18979
 30
0.0
 10
-0.92737
 20
12.18979
 30
0.0
 10
-0.92326
 20
12.18979
 30
0.0
 10
-0.91644
 20
12.18979
 30
0.0
 10
-0.90814
 20
12.18979
 30
0.0
 10
-0.90814
 20
12.18979
 30
0.0
 10
-0.89984
 20
12.18979
 30
0.0
 10
-0.89006
 20
12.18979
 30
0.0
 10
-0.87917
 20
12.18979
 30
0.0
 10
-0.87917
 20
12.18979
 30
0.0
 10
-0.86827
 20
12.18979
 30
0.0
 10
-0.85627
 20
12.18979
 30
0.0
 10
-0.84427
 20
12.18979
 30
0.0
  0
SPLINE
  5
122
330
1F
100
AcDbEntity
  8
0
370
    15
100
AcDbSpline
210
0.0
220
0.0
230
1.0
 70
    24
 71
     3
 72
     8
 73
     4
 74
     0
 42
0.0000000001
 43
0.0000000001
 40
0.0
 40
0.0
 40
0.0
 40
0.0
 40
1.0
 40
1.0
 40
1.0
 40
1.0
 10
-0.84425
 20
12.29105
 30
0.0
 10
-0.84425
 20
12.29105
 30
0.0
 10
-0.84427
 20
12.18979
 30
0.0
 10
-0.84427
 20
12.18979
 30
0.0
  0
SPLINE
  5
123
330
1F
100
AcDbEntity
  8
0
370
    15
100
AcDbSpline
210
0.0
220
0.0
230
1.0
 70
     8
 71
     3
 72
    12
 73
     8
 74
     0
 42
0.0000000001
 43
0.0000000001
 40
0.0
 40
0.0
 40
0.0
 40
0.0
 40
0.3333333333333333
 40
0.3333333333333333
 40
0.3333333333333333
 40
0.3333333333333333
 40
1.0
 40
1.0
 40
1.0
 40
1.0
 10
-0.901
 20
12.3116
 30
0.0
 10
-0.90938
 20
12.30901
 30
0.0
 10
-0.91776
 20
12.30643
 30
0.0
 10
-0.92537
 20
12.30644
 30
0.0
 10
-0.92537
 20
12.30644
 30
0.0
 10
-0.93299
 20
12.30646
 30
0.0
 10
-0.93985
 20
12.30908
 30
0.0
 10
-0.94672
 20
12.31169
 30
0.0
  0
SPLINE
  5
124
330
1F
100
AcDbEntity
  8
0
370
    15
100
AcDbSpline
210
0.0
220
0.0
230
1.0
 70
     8
 71
     3
 72
    28
 73
    24
 74
     0
 42
0.0000000001
 43
0.0000000001
 40
0.0
 40
0.0
 40
0.0
 40
0.0
 40
0.1428571428571428
 40
0.1428571428571428
 40
0.1428571428571428
 40
0.1428571428571428
 40
0.2857142857142857
 40
0.2857142857142857
 40
0.2857142857142857
 40
0.2857142857142857
 40
0.4285714285714285
 40
0.4285714285714285
 40
0.4285714285714285
 40
0.4285714285714285
 40
0.5714285714285714
 40
0.5714285714285714
 40
0.5714285714285714
 40
0.5714285714285714
 40
0.7142857142857143
 40
0.7142857142857143
 40
0.7142857142857143
 40
0.7142857142857143
 40
1.0
 40
1.0
 40
1.0
 40
1.0
 10
-0.901
 20
12.3116
 30
0.0
 10
-0.89059
 20
12.31027
 30
0.0
 10
-0.88018
 20
12.30893
 30
0.0
 10
-0.86994
 20
12.30652
 30
0.0
 10
-0.86994
 20
12.30652
 30
0.0
 10
-0.86481
 20
12.30531
 30
0.0
 10
-0.85972
 20
12.30384
 30
0.0
 10
-0.85492
 20
12.30165
 30
0.0
 10
-0.85492
 20
12.30165
 30
0.0
 10
-0.85251
 20
12.30055
 30
0.0
 10
-0.85017
 20
12.29928
 30
0.0
 10
-0.84808
 20
12.29763
 30
0.0
 10
-0.84808
 20
12.29763
 30
0.0
 10
-0.84704
 20
12.29681
 30
0.0
 10
-0.84606
 20
12.29589
 30
0.0
 10
-0.84533
 20
12.29478
 30
0.0
 10
-0.84533
 20
12.29478
 30
0.0
 10
-0.84497
 20
12.29424
 30
0.0
 10
-0.84468
 20
12.29366
 30
0.0
 10
-0.84451
 20
12.29305
 30
0.0
 10
-0.84451
 20
12.29305
 30
0.0
 10
-0.84433
 20
12.2924
 30
0.0
 10
-0.84429
 20
12.29173
 30
0.0
 10
-0.84425
 20
12.29105
 30
0.0
  0
SPLINE
  5
125
330
1F
100
AcDbEntity
  8
0
370
    15
100
AcDbSpline
210
0.0
220
0.0
230
1.0
 70
     8
 71
     3
 72
     8
 73
     4
 74
     0
 42
0.0000000001
 43
0.0000000001
 40
0.0
 40
0.0
 40
0.0
 40
0.0
 40
1.0
 40
1.0
 40
1.0
 40
1.0
 10
-0.95033
 20
12.31338
 30
0.0
 10
-0.93981
 20
12.30986
 30
0.0
 10
-0.92845
 20
12.30971
 30
0.0
 10
-0.91784
 20
12.31296
 30
0.0
  0
SPLINE
  5
126
330
1F
100
AcDbEntity
  8
0
370
    15
100
AcDbSpline
210
0.0
220
0.0
230
1.0
 70
     8
 71
     3
 72
    12
 73
     8
 74
     0
 42
0.0000000001
 43
0.0000000001
 40
0.0
 40
0.0
 40
0.0
 40
0.0
 40
0.3333333333333333
 40
0.3333333333333333
 40
0.3333333333333333
 40
0.3333333333333333
 40
1.0
 40
1.0
 40
1.0
 40
1.0
 10
-0.91784
 20
12.31296
 30
0.0
 10
-0.91749
 20
12.31294
 30
0.0
 10
-0.91714
 20
12.31292
 30
0.0
 10
-0.91679
 20
12.31289
 30
0.0
 10
-0.91679
 20
12.31289
 30
0.0
 10
-0.91153
 20
12.31257
 30
0.0
 10
-0.90627
 20
12.31208
 30
0.0
 10
-0.901
 20
12.3116
 30
0.0
  0
SPLINE
  5
127
330
1F
100
AcDbEntity
  8
0
370
    15
100
AcDbSpline
210
0.0
220
0.0
230
1.0
 70
    24
 71
     3
 72
     8
 73
     4
 74
     0
 42
0.0000000001
 43
0.0000000001
 40
0.0
 40
0.0
 40
0.0
 40
0.0
 40
1.0
 40
1.0
 40
1.0
 40
1.0
 10
-0.9245
 20
12.31335
 30
0.0
 10
-0.9245
 20
12.31335
 30
0.0
 10
-0.91784
 20
12.31296
 30
0.0
 10
-0.91784
 20
12.31296
 30
0.0
  0
SPLINE
  5
128
330
1F
100
AcDbEntity
  8
0
370
    15
100
AcDbSpline
210
0.0
220
0.0
230
1.0
 70
     8
 71
     3
 72
     8
 73
     4
 74
     0
 42
0.0000000001
 43
0.0000000001
 40
0.0
 40
0.0
 40
0.0
 40
0.0
 40
1.0
 40
1.0
 40
1.0
 40
1.0
 10
-0.95672
 20
12.31563
 30
0.0
 10
-0.94635
 20
12.31218
 30
0.0
 10
-0.93526
 20
12.31139
 30
0.0
 10
-0.9245
 20
12.31335
 30
0.0
  0
SPLINE
  5
129
330
1F
100
AcDbEntity
  8
0
370
    15
100
AcDbSpline
210
0.0
220
0.0
230
1.0
 70
     8
 71
     3
 72
    16
 73
    12
 74
     0
 42
0.0000000001
 43
0.0000000001
 40
0.0
 40
0.0
 40
0.0
 40
0.0
 40
0.25
 40
0.25
 40
0.25
 40
0.25
 40
0.5
 40
0.5
 40
0.5
 40
0.5
 40
1.0
 40
1.0
 40
1.0
 40
1.0
 10
-1.14943
 20
12.34784
 30
0.0
 10
-1.14913
 20
12.34784
 30
0.0
 10
-1.14884
 20
12.34784
 30
0.0
 10
-1.14854
 20
12.34784
 30
0.0
 10
-1.14854
 20
12.34784
 30
0.0
 10
-1.11318
 20
12.3478
 30
0.0
 10
-1.07392
 20
12.34538
 30
0.0
 10
-1.03611
 20
12.33929
 30
0.0
 10
-1.03611
 20
12.33929
 30
0.0
 10
-0.99792
 20
12.33314
 30
0.0
 10
-0.96121
 20
12.32324
 30
0.0
 10
-0.9245
 20
12.31335
 30
0.0
  0
SPLINE
  5
12A
330
1F
100
AcDbEntity
  8
0
370
    15
100
AcDbSpline
210
0.0
220
0.0
230
1.0
 70
     8
 71
     3
 72
     8
 73
     4
 74
     0
 42
0.0000000001
 43
0.0000000001
 40
0.0
 40
0.0
 40
0.0
 40
0.0
 40
1.0
 40
1.0
 40
1.0
 40
1.0
 10
-0.48901
 20
12.29915
 30
0.0
 10
-0.4888
 20
12.30738
 30
0.0
 10
-0.48963
 20
12.3156
 30
0.0
 10
-0.4915
 20
12.32361
 30
0.0
  0
SPLINE
  5
12B
330
1F
100
AcDbEntity
  8
0
370
    15
100
AcDbSpline
210
0.0
220
0.0
230
1.0
 70
     8
 71
     3
 72
     8
 73
     4
 74
     0
 42
0.0000000001
 43
0.0000000001
 40
0.0
 40
0.0
 40
0.0
 40
0.0
 40
1.0
 40
1.0
 40
1.0
 40
1.0
 10
-0.48901
 20
12.29915
 30
0.0
 10
-0.60787
 20
12.29665
 30
0.0
 10
-0.72631
 20
12.29395
 30
0.0
 10
-0.84428
 20
12.29105
 30
0.0
  0
SPLINE
  5
12C
330
1F
100
AcDbEntity
  8
0
370
    15
100
AcDbSpline
210
0.0
220
0.0
230
1.0
 70
    27
 71
     3
 72
     8
 73
     4
 74
     0
 42
0.0000000001
 43
0.0000000001
 40
0.0
 40
0.0
 40
0.0
 40
0.0
 40
1.0
 40
1.0
 40
1.0
 40
1.0
 10
-0.48901
 20
12.29915
 30
0.0
 10
-0.48901
 20
12.29915
 30
0.0
 10
-0.48901
 20
12.29915
 30
0.0
 10
-0.48901
 20
12.29915
 30
0.0
  0
SPLINE
  5
12D
330
1F
100
AcDbEntity
  8
0
370
    15
100
AcDbSpline
210
0.0
220
0.0
230
1.0
 70
    27
 71
     3
 72
     8
 73
     4
 74
     0
 42
0.0000000001
 43
0.0000000001
 40
0.0
 40
0.0
 40
0.0
 40
0.0
 40
1.0
 40
1.0
 40
1.0
 40
1.0
 10
-0.84428
 20
12.29105
 30
0.0
 10
-0.84428
 20
12.29105
 30
0.0
 10
-0.84428
 20
12.29105
 30
0.0
 10
-0.84428
 20
12.29105
 30
0.0
  0
SPLINE
  5
12E
330
1F
100
AcDbEntity
  8
0
370
    15
100
AcDbSpline
210
0.0
220
0.0
230
1.0
 70
     8
 71
     3
 72
     8
 73
     4
 74
     0
 42
0.0000000001
 43
0.0000000001
 40
0.0
 40
0.0
 40
0.0
 40
0.0
 40
1.0
 40
1.0
 40
1.0
 40
1.0
 10
-0.48901
 20
12.29915
 30
0.0
 10
-0.60787
 20
12.29665
 30
0.0
 10
-0.72631
 20
12.29395
 30
0.0
 10
-0.84428
 20
12.29105
 30
0.0
  0
SPLINE
  5
12F
330
1F
100
AcDbEntity
  8
0
370
    15
100
AcDbSpline
210
0.0
220
0.0
230
1.0
 70
     8
 71
     3
 72
     8
 73
     4
 74
     0
 42
0.0000000001
 43
0.0000000001
 40
0.0
 40
0.0
 40
0.0
 40
0.0
 40
1.0
 40
1.0
 40
1.0
 40
1.0
 10
-0.48901
 20
12.29915
 30
0.0
 10
-0.60787
 20
12.29665
 30
0.0
 10
-0.72631
 20
12.29395
 30
0.0
 10
-0.84428
 20
12.29105
 30
0.0
  0
SPLINE
  5
130
330
1F
100
AcDbEntity
  8
0
370
    15
100
AcDbSpline
210
0.0
220
0.0
230
1.0
 70
     8
 71
     3
 72
     8
 73
     4
 74
     0
 42
0.0000000001
 43
0.0000000001
 40
0.0
 40
0.0
 40
0.0
 40
0.0
 40
1.0
 40
1.0
 40
1.0
 40
1.0
 10
-0.48901
 20
12.29915
 30
0.0
 10
-0.60787
 20
12.29665
 30
0.0
 10
-0.72631
 20
12.29395
 30
0.0
 10
-0.84428
 20
12.29105
 30
0.0
  0
SPLINE
  5
131
330
1F
100
AcDbEntity
  8
0
370
    15
100
AcDbSpline
210
0.0
220
0.0
230
1.0
 70
     8
 71
     3
 72
     8
 73
     4
 74
     0
 42
0.0000000001
 43
0.0000000001
 40
0.0
 40
0.0
 40
0.0
 40
0.0
 40
1.0
 40
1.0
 40
1.0
 40
1.0
 10
-0.48901
 20
12.29915
 30
0.0
 10
-0.60787
 20
12.29664
 30
0.0
 10
-0.72631
 20
12.29395
 30
0.0
 10
-0.84428
 20
12.29105
 30
0.0
  0
SPLINE
  5
132
330
1F
100
AcDbEntity
  8
0
370
    15
100
AcDbSpline
210
0.0
220
0.0
230
1.0
 70
     8
 71
     3
 72
     8
 73
     4
 74
     0
 42
0.0000000001
 43
0.0000000001
 40
0.0
 40
0.0
 40
0.0
 40
0.0
 40
1.0
 40
1.0
 40
1.0
 40
1.0
 10
-0.48901
 20
12.29915
 30
0.0
 10
-0.60787
 20
12.29664
 30
0.0
 10
-0.72631
 20
12.29395
 30
0.0
 10
-0.84428
 20
12.29105
 30
0.0
  0
SPLINE
  5
133
330
1F
100
AcDbEntity
  8
0
370
    15
100
AcDbSpline
210
0.0
220
0.0
230
1.0
 70
     8
 71
     3
 72
     8
 73
     4
 74
     0
 42
0.0000000001
 43
0.0000000001
 40
0.0
 40
0.0
 40
0.0
 40
0.0
 40
1.0
 40
1.0
 40
1.0
 40
1.0
 10
-0.48901
 20
12.29915
 30
0.0
 10
-0.60787
 20
12.29664
 30
0.0
 10
-0.72631
 20
12.29395
 30
0.0
 10
-0.84428
 20
12.29105
 30
0.0
  0
SPLINE
  5
134
330
1F
100
AcDbEntity
  8
0
370
    15
100
AcDbSpline
210
0.0
220
0.0
230
1.0
 70
     8
 71
     3
 72
     8
 73
     4
 74
     0
 42
0.0000000001
 43
0.0000000001
 40
0.0
 40
0.0
 40
0.0
 40
0.0
 40
1.0
 40
1.0
 40
1.0
 40
1.0
 10
-0.48901
 20
12.29915
 30
0.0
 10
-0.60787
 20
12.29664
 30
0.0
 10
-0.72631
 20
12.29395
 30
0.0
 10
-0.84428
 20
12.29105
 30
0.0
  0
SPLINE
  5
135
330
1F
100
AcDbEntity
  8
0
370
    15
100
AcDbSpline
210
0.0
220
0.0
230
1.0
 70
     8
 71
     3
 72
     8
 73
     4
 74
     0
 42
0.0000000001
 43
0.0000000001
 40
0.0
 40
0.0
 40
0.0
 40
0.0
 40
1.0
 40
1.0
 40
1.0
 40
1.0
 10
-0.48901
 20
12.29915
 30
0.0
 10
-0.60787
 20
12.29664
 30
0.0
 10
-0.72631
 20
12.29395
 30
0.0
 10
-0.84428
 20
12.29105
 30
0.0
  0
SPLINE
  5
136
330
1F
100
AcDbEntity
  8
0
370
    15
100
AcDbSpline
210
0.0
220
0.0
230
1.0
 70
     8
 71
     3
 72
     8
 73
     4
 74
     0
 42
0.0000000001
 43
0.0000000001
 40
0.0
 40
0.0
 40
0.0
 40
0.0
 40
1.0
 40
1.0
 40
1.0
 40
1.0
 10
-0.48901
 20
12.29915
 30
0.0
 10
-0.60787
 20
12.29664
 30
0.0
 10
-0.72631
 20
12.29394
 30
0.0
 10
-0.84428
 20
12.29105
 30
0.0
  0
SPLINE
  5
137
330
1F
100
AcDbEntity
  8
0
370
    15
100
AcDbSpline
210
0.0
220
0.0
230
1.0
 70
     8
 71
     3
 72
     8
 73
     4
 74
     0
 42
0.0000000001
 43
0.0000000001
 40
0.0
 40
0.0
 40
0.0
 40
0.0
 40
1.0
 40
1.0
 40
1.0
 40
1.0
 10
-0.48901
 20
12.29915
 30
0.0
 10
-0.60787
 20
12.29664
 30
0.0
 10
-0.72631
 20
12.29394
 30
0.0
 10
-0.84428
 20
12.29105
 30
0.0
  0
SPLINE
  5
138
330
1F
100
AcDbEntity
  8
0
370
    15
100
AcDbSpline
210
0.0
220
0.0
230
1.0
 70
     8
 71
     3
 72
     8
 73
     4
 74
     0
 42
0.0000000001
 43
0.0000000001
 40
0.0
 40
0.0
 40
0.0
 40
0.0
 40
1.0
 40
1.0
 40
1.0
 40
1.0
 10
-0.48901
 20
12.29915
 30
0.0
 10
-0.60787
 20
12.29664
 30
0.0
 10
-0.72631
 20
12.29394
 30
0.0
 10
-0.84428
 20
12.29105
 30
0.0
  0
SPLINE
  5
139
330
1F
100
AcDbEntity
  8
0
370
    15
100
AcDbSpline
210
0.0
220
0.0
230
1.0
 70
     8
 71
     3
 72
     8
 73
     4
 74
     0
 42
0.0000000001
 43
0.0000000001
 40
0.0
 40
0.0
 40
0.0
 40
0.0
 40
1.0
 40
1.0
 40
1.0
 40
1.0
 10
-0.48901
 20
12.29915
 30
0.0
 10
-0.60787
 20
12.29664
 30
0.0
 10
-0.72631
 20
12.29394
 30
0.0
 10
-0.84428
 20
12.29105
 30
0.0
  0
SPLINE
  5
13A
330
1F
100
AcDbEntity
  8
0
370
    15
100
AcDbSpline
210
0.0
220
0.0
230
1.0
 70
     8
 71
     3
 72
     8
 73
     4
 74
     0
 42
0.0000000001
 43
0.0000000001
 40
0.0
 40
0.0
 40
0.0
 40
0.0
 40
1.0
 40
1.0
 40
1.0
 40
1.0
 10
-0.48901
 20
12.29915
 30
0.0
 10
-0.60787
 20
12.29664
 30
0.0
 10
-0.72631
 20
12.29394
 30
0.0
 10
-0.84428
 20
12.29105
 30
0.0
  0
SPLINE
  5
13B
330
1F
100
AcDbEntity
  8
0
370
    15
100
AcDbSpline
210
0.0
220
0.0
230
1.0
 70
     8
 71
     3
 72
     8
 73
     4
 74
     0
 42
0.0000000001
 43
0.0000000001
 40
0.0
 40
0.0
 40
0.0
 40
0.0
 40
1.0
 40
1.0
 40
1.0
 40
1.0
 10
-0.48901
 20
12.29915
 30
0.0
 10
-0.60787
 20
12.29664
 30
0.0
 10
-0.72631
 20
12.29394
 30
0.0
 10
-0.84428
 20
12.29105
 30
0.0
  0
SPLINE
  5
13C
330
1F
100
AcDbEntity
  8
0
370
    15
100
AcDbSpline
210
0.0
220
0.0
230
1.0
 70
     8
 71
     3
 72
     8
 73
     4
 74
     0
 42
0.0000000001
 43
0.0000000001
 40
0.0
 40
0.0
 40
0.0
 40
0.0
 40
1.0
 40
1.0
 40
1.0
 40
1.0
 10
-0.48901
 20
12.29915
 30
0.0
 10
-0.60787
 20
12.29664
 30
0.0
 10
-0.72631
 20
12.29394
 30
0.0
 10
-0.84428
 20
12.29105
 30
0.0
  0
SPLINE
  5
13D
330
1F
100
AcDbEntity
  8
0
370
    15
100
AcDbSpline
210
0.0
220
0.0
230
1.0
 70
     8
 71
     3
 72
     8
 73
     4
 74
     0
 42
0.0000000001
 43
0.0000000001
 40
0.0
 40
0.0
 40
0.0
 40
0.0
 40
1.0
 40
1.0
 40
1.0
 40
1.0
 10
-0.48901
 20
12.29915
 30
0.0
 10
-0.60787
 20
12.29664
 30
0.0
 10
-0.72631
 20
12.29394
 30
0.0
 10
-0.84428
 20
12.29105
 30
0.0
  0
SPLINE
  5
13E
330
1F
100
AcDbEntity
  8
0
370
    15
100
AcDbSpline
210
0.0
220
0.0
230
1.0
 70
     8
 71
     3
 72
     8
 73
     4
 74
     0
 42
0.0000000001
 43
0.0000000001
 40
0.0
 40
0.0
 40
0.0
 40
0.0
 40
1.0
 40
1.0
 40
1.0
 40
1.0
 10
-0.48901
 20
12.29915
 30
0.0
 10
-0.60787
 20
12.29664
 30
0.0
 10
-0.72631
 20
12.29394
 30
0.0
 10
-0.84428
 20
12.29105
 30
0.0
  0
SPLINE
  5
13F
330
1F
100
AcDbEntity
  8
0
370
    15
100
AcDbSpline
210
0.0
220
0.0
230
1.0
 70
     8
 71
     3
 72
     8
 73
     4
 74
     0
 42
0.0000000001
 43
0.0000000001
 40
0.0
 40
0.0
 40
0.0
 40
0.0
 40
1.0
 40
1.0
 40
1.0
 40
1.0
 10
-0.48901
 20
12.29915
 30
0.0
 10
-0.60787
 20
12.29664
 30
0.0
 10
-0.72631
 20
12.29394
 30
0.0
 10
-0.84428
 20
12.29105
 30
0.0
  0
SPLINE
  5
140
330
1F
100
AcDbEntity
  8
0
370
    15
100
AcDbSpline
210
0.0
220
0.0
230
1.0
 70
     8
 71
     3
 72
     8
 73
     4
 74
     0
 42
0.0000000001
 43
0.0000000001
 40
0.0
 40
0.0
 40
0.0
 40
0.0
 40
1.0
 40
1.0
 40
1.0
 40
1.0
 10
-0.48901
 20
12.29915
 30
0.0
 10
-0.60787
 20
12.29664
 30
0.0
 10
-0.72631
 20
12.29394
 30
0.0
 10
-0.84428
 20
12.29105
 30
0.0
  0
SPLINE
  5
141
330
1F
100
AcDbEntity
  8
0
370
    15
100
AcDbSpline
210
0.0
220
0.0
230
1.0
 70
     8
 71
     3
 72
     8
 73
     4
 74
     0
 42
0.0000000001
 43
0.0000000001
 40
0.0
 40
0.0
 40
0.0
 40
0.0
 40
1.0
 40
1.0
 40
1.0
 40
1.0
 10
-0.48901
 20
12.29915
 30
0.0
 10
-0.60787
 20
12.29664
 30
0.0
 10
-0.72631
 20
12.29394
 30
0.0
 10
-0.84428
 20
12.29105
 30
0.0
  0
SPLINE
  5
142
330
1F
100
AcDbEntity
  8
0
370
    15
100
AcDbSpline
210
0.0
220
0.0
230
1.0
 70
     8
 71
     3
 72
     8
 73
     4
 74
     0
 42
0.0000000001
 43
0.0000000001
 40
0.0
 40
0.0
 40
0.0
 40
0.0
 40
1.0
 40
1.0
 40
1.0
 40
1.0
 10
-0.4915
 20
12.32361
 30
0.0
 10
-0.63649
 20
12.32049
 30
0.0
 10
-0.78085
 20
12.31707
 30
0.0
 10
-0.9245
 20
12.31335
 30
0.0
  0
SPLINE
  5
143
330
1F
100
AcDbEntity
  8
0
370
    15
100
AcDbSpline
210
0.0
220
0.0
230
1.0
 70
    27
 71
     3
 72
     8
 73
     4
 74
     0
 42
0.0000000001
 43
0.0000000001
 40
0.0
 40
0.0
 40
0.0
 40
0.0
 40
1.0
 40
1.0
 40
1.0
 40
1.0
 10
-0.4915
 20
12.32361
 30
0.0
 10
-0.4915
 20
12.32361
 30
0.0
 10
-0.4915
 20
12.32361
 30
0.0
 10
-0.4915
 20
12.32361
 30
0.0
  0
SPLINE
  5
144
330
1F
100
AcDbEntity
  8
0
370
    15
100
AcDbSpline
210
0.0
220
0.0
230
1.0
 70
    27
 71
     3
 72
     8
 73
     4
 74
     0
 42
0.0000000001
 43
0.0000000001
 40
0.0
 40
0.0
 40
0.0
 40
0.0
 40
1.0
 40
1.0
 40
1.0
 40
1.0
 10
-0.9245
 20
12.31335
 30
0.0
 10
-0.9245
 20
12.31335
 30
0.0
 10
-0.9245
 20
12.31335
 30
0.0
 10
-0.9245
 20
12.31335
 30
0.0
  0
SPLINE
  5
145
330
1F
100
AcDbEntity
  8
0
370
    15
100
AcDbSpline
210
0.0
220
0.0
230
1.0
 70
     8
 71
     3
 72
     8
 73
     4
 74
     0
 42
0.0000000001
 43
0.0000000001
 40
0.0
 40
0.0
 40
0.0
 40
0.0
 40
1.0
 40
1.0
 40
1.0
 40
1.0
 10
-0.4915
 20
12.32361
 30
0.0
 10
-0.63649
 20
12.32049
 30
0.0
 10
-0.78085
 20
12.31707
 30
0.0
 10
-0.9245
 20
12.31335
 30
0.0
  0
SPLINE
  5
146
330
1F
100
AcDbEntity
  8
0
370
    15
100
AcDbSpline
210
0.0
220
0.0
230
1.0
 70
     8
 71
     3
 72
     8
 73
     4
 74
     0
 42
0.0000000001
 43
0.0000000001
 40
0.0
 40
0.0
 40
0.0
 40
0.0
 40
1.0
 40
1.0
 40
1.0
 40
1.0
 10
-0.4915
 20
12.32361
 30
0.0
 10
-0.63649
 20
12.32049
 30
0.0
 10
-0.78085
 20
12.31707
 30
0.0
 10
-0.9245
 20
12.31335
 30
0.0
  0
SPLINE
  5
147
330
1F
100
AcDbEntity
  8
0
370
    15
100
AcDbSpline
210
0.0
220
0.0
230
1.0
 70
     8
 71
     3
 72
     8
 73
     4
 74
     0
 42
0.0000000001
 43
0.0000000001
 40
0.0
 40
0.0
 40
0.0
 40
0.0
 40
1.0
 40
1.0
 40
1.0
 40
1.0
 10
-0.4915
 20
12.32361
 30
0.0
 10
-0.63649
 20
12.32049
 30
0.0
 10
-0.78085
 20
12.31707
 30
0.0
 10
-0.9245
 20
12.31335
 30
0.0
  0
SPLINE
  5
148
330
1F
100
AcDbEntity
  8
0
370
    15
100
AcDbSpline
210
0.0
220
0.0
230
1.0
 70
     8
 71
     3
 72
     8
 73
     4
 74
     0
 42
0.0000000001
 43
0.0000000001
 40
0.0
 40
0.0
 40
0.0
 40
0.0
 40
1.0
 40
1.0
 40
1.0
 40
1.0
 10
-0.4915
 20
12.32361
 30
0.0
 10
-0.63649
 20
12.32049
 30
0.0
 10
-0.78085
 20
12.31707
 30
0.0
 10
-0.9245
 20
12.31335
 30
0.0
  0
SPLINE
  5
149
330
1F
100
AcDbEntity
  8
0
370
    15
100
AcDbSpline
210
0.0
220
0.0
230
1.0
 70
     8
 71
     3
 72
     8
 73
     4
 74
     0
 42
0.0000000001
 43
0.0000000001
 40
0.0
 40
0.0
 40
0.0
 40
0.0
 40
1.0
 40
1.0
 40
1.0
 40
1.0
 10
-0.4915
 20
12.32361
 30
0.0
 10
-0.63649
 20
12.32049
 30
0.0
 10
-0.78085
 20
12.31707
 30
0.0
 10
-0.9245
 20
12.31335
 30
0.0
  0
SPLINE
  5
14A
330
1F
100
AcDbEntity
  8
0
370
    15
100
AcDbSpline
210
0.0
220
0.0
230
1.0
 70
     8
 71
     3
 72
     8
 73
     4
 74
     0
 42
0.0000000001
 43
0.0000000001
 40
0.0
 40
0.0
 40
0.0
 40
0.0
 40
1.0
 40
1.0
 40
1.0
 40
1.0
 10
-0.4915
 20
12.32361
 30
0.0
 10
-0.63649
 20
12.32049
 30
0.0
 10
-0.78085
 20
12.31707
 30
0.0
 10
-0.9245
 20
12.31335
 30
0.0
  0
SPLINE
  5
14B
330
1F
100
AcDbEntity
  8
0
370
    15
100
AcDbSpline
210
0.0
220
0.0
230
1.0
 70
     8
 71
     3
 72
     8
 73
     4
 74
     0
 42
0.0000000001
 43
0.0000000001
 40
0.0
 40
0.0
 40
0.0
 40
0.0
 40
1.0
 40
1.0
 40
1.0
 40
1.0
 10
-0.4915
 20
12.32361
 30
0.0
 10
-0.63649
 20
12.32049
 30
0.0
 10
-0.78085
 20
12.31707
 30
0.0
 10
-0.9245
 20
12.31335
 30
0.0
  0
SPLINE
  5
14C
330
1F
100
AcDbEntity
  8
0
370
    15
100
AcDbSpline
210
0.0
220
0.0
230
1.0
 70
     8
 71
     3
 72
     8
 73
     4
 74
     0
 42
0.0000000001
 43
0.0000000001
 40
0.0
 40
0.0
 40
0.0
 40
0.0
 40
1.0
 40
1.0
 40
1.0
 40
1.0
 10
-0.4915
 20
12.32361
 30
0.0
 10
-0.63649
 20
12.32049
 30
0.0
 10
-0.78085
 20
12.31707
 30
0.0
 10
-0.9245
 20
12.31335
 30
0.0
  0
SPLINE
  5
14D
330
1F
100
AcDbEntity
  8
0
370
    15
100
AcDbSpline
210
0.0
220
0.0
230
1.0
 70
     8
 71
     3
 72
     8
 73
     4
 74
     0
 42
0.0000000001
 43
0.0000000001
 40
0.0
 40
0.0
 40
0.0
 40
0.0
 40
1.0
 40
1.0
 40
1.0
 40
1.0
 10
-0.4915
 20
12.32361
 30
0.0
 10
-0.63649
 20
12.32049
 30
0.0
 10
-0.78085
 20
12.31707
 30
0.0
 10
-0.9245
 20
12.31335
 30
0.0
  0
SPLINE
  5
14E
330
1F
100
AcDbEntity
  8
0
370
    15
100
AcDbSpline
210
0.0
220
0.0
230
1.0
 70
     8
 71
     3
 72
     8
 73
     4
 74
     0
 42
0.0000000001
 43
0.0000000001
 40
0.0
 40
0.0
 40
0.0
 40
0.0
 40
1.0
 40
1.0
 40
1.0
 40
1.0
 10
-0.4915
 20
12.32361
 30
0.0
 10
-0.63649
 20
12.32049
 30
0.0
 10
-0.78085
 20
12.31707
 30
0.0
 10
-0.9245
 20
12.31335
 30
0.0
  0
SPLINE
  5
14F
330
1F
100
AcDbEntity
  8
0
370
    15
100
AcDbSpline
210
0.0
220
0.0
230
1.0
 70
     8
 71
     3
 72
     8
 73
     4
 74
     0
 42
0.0000000001
 43
0.0000000001
 40
0.0
 40
0.0
 40
0.0
 40
0.0
 40
1.0
 40
1.0
 40
1.0
 40
1.0
 10
-0.4915
 20
12.32361
 30
0.0
 10
-0.63649
 20
12.32049
 30
0.0
 10
-0.78085
 20
12.31707
 30
0.0
 10
-0.9245
 20
12.31335
 30
0.0
  0
SPLINE
  5
150
330
1F
100
AcDbEntity
  8
0
370
    15
100
AcDbSpline
210
0.0
220
0.0
230
1.0
 70
     8
 71
     3
 72
     8
 73
     4
 74
     0
 42
0.0000000001
 43
0.0000000001
 40
0.0
 40
0.0
 40
0.0
 40
0.0
 40
1.0
 40
1.0
 40
1.0
 40
1.0
 10
-0.4915
 20
12.32361
 30
0.0
 10
-0.63649
 20
12.32049
 30
0.0
 10
-0.78085
 20
12.31707
 30
0.0
 10
-0.9245
 20
12.31335
 30
0.0
  0
SPLINE
  5
151
330
1F
100
AcDbEntity
  8
0
370
    15
100
AcDbSpline
210
0.0
220
0.0
230
1.0
 70
     8
 71
     3
 72
     8
 73
     4
 74
     0
 42
0.0000000001
 43
0.0000000001
 40
0.0
 40
0.0
 40
0.0
 40
0.0
 40
1.0
 40
1.0
 40
1.0
 40
1.0
 10
-0.4915
 20
12.32361
 30
0.0
 10
-0.63649
 20
12.32049
 30
0.0
 10
-0.78085
 20
12.31707
 30
0.0
 10
-0.9245
 20
12.31335
 30
0.0
  0
SPLINE
  5
152
330
1F
100
AcDbEntity
  8
0
370
    15
100
AcDbSpline
210
0.0
220
0.0
230
1.0
 70
     8
 71
     3
 72
     8
 73
     4
 74
     0
 42
0.0000000001
 43
0.0000000001
 40
0.0
 40
0.0
 40
0.0
 40
0.0
 40
1.0
 40
1.0
 40
1.0
 40
1.0
 10
-0.4915
 20
12.32361
 30
0.0
 10
-0.63649
 20
12.32049
 30
0.0
 10
-0.78085
 20
12.31707
 30
0.0
 10
-0.9245
 20
12.31335
 30
0.0
  0
SPLINE
  5
153
330
1F
100
AcDbEntity
  8
0
370
    15
100
AcDbSpline
210
0.0
220
0.0
230
1.0
 70
     8
 71
     3
 72
     8
 73
     4
 74
     0
 42
0.0000000001
 43
0.0000000001
 40
0.0
 40
0.0
 40
0.0
 40
0.0
 40
1.0
 40
1.0
 40
1.0
 40
1.0
 10
-0.4915
 20
12.32361
 30
0.0
 10
-0.63649
 20
12.32049
 30
0.0
 10
-0.78085
 20
12.31707
 30
0.0
 10
-0.9245
 20
12.31335
 30
0.0
  0
SPLINE
  5
154
330
1F
100
AcDbEntity
  8
0
370
    15
100
AcDbSpline
210
0.0
220
0.0
230
1.0
 70
     8
 71
     3
 72
     8
 73
     4
 74
     0
 42
0.0000000001
 43
0.0000000001
 40
0.0
 40
0.0
 40
0.0
 40
0.0
 40
1.0
 40
1.0
 40
1.0
 40
1.0
 10
-0.4915
 20
12.32361
 30
0.0
 10
-0.63649
 20
12.32049
 30
0.0
 10
-0.78085
 20
12.31707
 30
0.0
 10
-0.9245
 20
12.31335
 30
0.0
  0
SPLINE
  5
155
330
1F
100
AcDbEntity
  8
0
370
    15
100
AcDbSpline
210
0.0
220
0.0
230
1.0
 70
     8
 71
     3
 72
     8
 73
     4
 74
     0
 42
0.0000000001
 43
0.0000000001
 40
0.0
 40
0.0
 40
0.0
 40
0.0
 40
1.0
 40
1.0
 40
1.0
 40
1.0
 10
-0.4915
 20
12.32361
 30
0.0
 10
-0.63649
 20
12.32049
 30
0.0
 10
-0.78085
 20
12.31707
 30
0.0
 10
-0.9245
 20
12.31335
 30
0.0
  0
SPLINE
  5
156
330
1F
100
AcDbEntity
  8
0
370
    15
100
AcDbSpline
210
0.0
220
0.0
230
1.0
 70
     8
 71
     3
 72
     8
 73
     4
 74
     0
 42
0.0000000001
 43
0.0000000001
 40
0.0
 40
0.0
 40
0.0
 40
0.0
 40
1.0
 40
1.0
 40
1.0
 40
1.0
 10
-0.4915
 20
12.32361
 30
0.0
 10
-0.63649
 20
12.32049
 30
0.0
 10
-0.78085
 20
12.31707
 30
0.0
 10
-0.9245
 20
12.31335
 30
0.0
  0
SPLINE
  5
157
330
1F
100
AcDbEntity
  8
0
370
    15
100
AcDbSpline
210
0.0
220
0.0
230
1.0
 70
     8
 71
     3
 72
     8
 73
     4
 74
     0
 42
0.0000000001
 43
0.0000000001
 40
0.0
 40
0.0
 40
0.0
 40
0.0
 40
1.0
 40
1.0
 40
1.0
 40
1.0
 10
-0.4915
 20
12.32361
 30
0.0
 10
-0.63649
 20
12.32049
 30
0.0
 10
-0.78085
 20
12.31707
 30
0.0
 10
-0.9245
 20
12.31335
 30
0.0
  0
SPLINE
  5
158
330
1F
100
AcDbEntity
  8
0
370
    15
100
AcDbSpline
210
0.0
220
0.0
230
1.0
 70
     8
 71
     3
 72
     8
 73
     4
 74
     0
 42
0.0000000001
 43
0.0000000001
 40
0.0
 40
0.0
 40
0.0
 40
0.0
 40
1.0
 40
1.0
 40
1.0
 40
1.0
 10
-0.4915
 20
12.32361
 30
0.0
 10
-0.63649
 20
12.32049
 30
0.0
 10
-0.78085
 20
12.31707
 30
0.0
 10
-0.9245
 20
12.31335
 30
0.0
  0
SPLINE
  5
159
330
1F
100
AcDbEntity
  8
0
370
    15
100
AcDbSpline
210
0.0
220
0.0
230
1.0
 70
    24
 71
     3
 72
     8
 73
     4
 74
     0
 42
0.0000000001
 43
0.0000000001
 40
0.0
 40
0.0
 40
0.0
 40
0.0
 40
1.0
 40
1.0
 40
1.0
 40
1.0
 10
-0.48901
 20
11.09662
 30
0.0
 10
-0.48901
 20
11.09662
 30
0.0
 10
-0.48901
 20
12.29915
 30
0.0
 10
-0.48901
 20
12.29915
 30
0.0
  0
SPLINE
  5
15A
330
1F
100
AcDbEntity
  8
0
370
    15
100
AcDbSpline
210
0.0
220
0.0
230
1.0
 70
    24
 71
     3
 72
     8
 73
     4
 74
     0
 42
0.0000000001
 43
0.0000000001
 40
0.0
 40
0.0
 40
0.0
 40
0.0
 40
1.0
 40
1.0
 40
1.0
 40
1.0
 10
-0.84427
 20
11.07886
 30
0.0
 10
-0.84427
 20
11.07886
 30
0.0
 10
-0.48901
 20
11.09662
 30
0.0
 10
-0.48901
 20
11.09662
 30
0.0
  0
SPLINE
  5
15B
330
1F
100
AcDbEntity
  8
0
370
    15
100
AcDbSpline
210
0.0
220
0.0
230
1.0
 70
     8
 71
     3
 72
     8
 73
     4
 74
     0
 42
0.0000000001
 43
0.0000000001
 40
0.0
 40
0.0
 40
0.0
 40
0.0
 40
1.0
 40
1.0
 40
1.0
 40
1.0
 10
-0.49025
 20
11.07165
 30
0.0
 10
-0.48821
 20
11.07982
 30
0.0
 10
-0.48779
 20
11.0883
 30
0.0
 10
-0.48901
 20
11.09662
 30
0.0
  0
SPLINE
  5
15C
330
1F
100
AcDbEntity
  8
0
370
    15
100
AcDbSpline
210
0.0
220
0.0
230
1.0
 70
    24
 71
     3
 72
     8
 73
     4
 74
     0
 42
0.0000000001
 43
0.0000000001
 40
0.0
 40
0.0
 40
0.0
 40
0.0
 40
1.0
 40
1.0
 40
1.0
 40
1.0
 10
-0.49025
 20
11.07165
 30
0.0
 10
-0.49025
 20
11.07165
 30
0.0
 10
-0.8383
 20
11.05425
 30
0.0
 10
-0.8383
 20
11.05425
 30
0.0
  0
SPLINE
  5
15D
330
1F
100
AcDbEntity
  8
0
370
    15
100
AcDbSpline
210
0.0
220
0.0
230
1.0
 70
    24
 71
     3
 72
     8
 73
     4
 74
     0
 42
0.0000000001
 43
0.0000000001
 40
0.0
 40
0.0
 40
0.0
 40
0.0
 40
1.0
 40
1.0
 40
1.0
 40
1.0
 10
-0.48901
 20
12.29915
 30
0.0
 10
-0.48901
 20
12.29915
 30
0.0
 10
-0.4665
 20
12.29915
 30
0.0
 10
-0.4665
 20
12.29915
 30
0.0
  0
SPLINE
  5
15E
330
1F
100
AcDbEntity
  8
0
370
    15
100
AcDbSpline
210
0.0
220
0.0
230
1.0
 70
     8
 71
     3
 72
     8
 73
     4
 74
     0
 42
0.0000000001
 43
0.0000000001
 40
0.0
 40
0.0
 40
0.0
 40
0.0
 40
1.0
 40
1.0
 40
1.0
 40
1.0
 10
-0.4665
 20
12.29915
 30
0.0
 10
-0.46665
 20
12.31281
 30
0.0
 10
-0.47784
 20
12.32376
 30
0.0
 10
-0.4915
 20
12.32361
 30
0.0
  0
SPLINE
  5
15F
330
1F
100
AcDbEntity
  8
0
370
    15
100
AcDbSpline
210
0.0
220
0.0
230
1.0
 70
    24
 71
     3
 72
     8
 73
     4
 74
     0
 42
0.0000000001
 43
0.0000000001
 40
0.0
 40
0.0
 40
0.0
 40
0.0
 40
1.0
 40
1.0
 40
1.0
 40
1.0
 10
-0.48901
 20
11.09662
 30
0.0
 10
-0.48901
 20
11.09662
 30
0.0
 10
-0.4665
 20
11.09662
 30
0.0
 10
-0.4665
 20
11.09662
 30
0.0
  0
SPLINE
  5
160
330
1F
100
AcDbEntity
  8
0
370
    15
100
AcDbSpline
210
0.0
220
0.0
230
1.0
 70
     8
 71
     3
 72
     8
 73
     4
 74
     0
 42
0.0000000001
 43
0.0000000001
 40
0.0
 40
0.0
 40
0.0
 40
0.0
 40
1.0
 40
1.0
 40
1.0
 40
1.0
 10
-0.49025
 20
11.07165
 30
0.0
 10
-0.47694
 20
11.07232
 30
0.0
 10
-0.4665
 20
11.0833
 30
0.0
 10
-0.4665
 20
11.09662
 30
0.0
  0
SPLINE
  5
161
330
1F
100
AcDbEntity
  8
0
370
    15
100
AcDbSpline
210
0.0
220
0.0
230
1.0
 70
    24
 71
     3
 72
     8
 73
     4
 74
     0
 42
0.0000000001
 43
0.0000000001
 40
0.0
 40
0.0
 40
0.0
 40
0.0
 40
1.0
 40
1.0
 40
1.0
 40
1.0
 10
-0.4665
 20
12.29915
 30
0.0
 10
-0.4665
 20
12.29915
 30
0.0
 10
-0.4665
 20
11.09662
 30
0.0
 10
-0.4665
 20
11.09662
 30
0.0
  0
SPLINE
  5
162
330
1F
100
AcDbEntity
  8
0
370
    15
100
AcDbSpline
210
0.0
220
0.0
230
1.0
 70
    24
 71
     3
 72
     8
 73
     4
 74
     0
 42
0.0000000001
 43
0.0000000001
 40
0.0
 40
0.0
 40
0.0
 40
0.0
 40
1.0
 40
1.0
 40
1.0
 40
1.0
 10
-0.4665
 20
12.29915
 30
0.0
 10
-0.4665
 20
12.29915
 30
0.0
 10
-0.4665
 20
12.32284
 30
0.0
 10
-0.4665
 20
12.32284
 30
0.0
  0
SPLINE
  5
163
330
1F
100
AcDbEntity
  8
0
370
    15
100
AcDbSpline
210
0.0
220
0.0
230
1.0
 70
    24
 71
     3
 72
     8
 73
     4
 74
     0
 42
0.0000000001
 43
0.0000000001
 40
0.0
 40
0.0
 40
0.0
 40
0.0
 40
1.0
 40
1.0
 40
1.0
 40
1.0
 10
-1.36651
 20
10.20628
 30
0.0
 10
-1.36651
 20
10.20628
 30
0.0
 10
-1.3665
 20
10.20727
 30
0.0
 10
-1.3665
 20
10.20727
 30
0.0
  0
SPLINE
  5
164
330
1F
100
AcDbEntity
  8
0
370
    15
100
AcDbSpline
210
0.0
220
0.0
230
1.0
 70
    24
 71
     3
 72
     8
 73
     4
 74
     0
 42
0.0000000001
 43
0.0000000001
 40
0.0
 40
0.0
 40
0.0
 40
0.0
 40
1.0
 40
1.0
 40
1.0
 40
1.0
 10
-1.36651
 20
10.20628
 30
0.0
 10
-1.36651
 20
10.20628
 30
0.0
 10
-1.37651
 20
10.20628
 30
0.0
 10
-1.37651
 20
10.20628
 30
0.0
  0
SPLINE
  5
165
330
1F
100
AcDbEntity
  8
0
370
    15
100
AcDbSpline
210
0.0
220
0.0
230
1.0
 70
    24
 71
     3
 72
     8
 73
     4
 74
     0
 42
0.0000000001
 43
0.0000000001
 40
0.0
 40
0.0
 40
0.0
 40
0.0
 40
1.0
 40
1.0
 40
1.0
 40
1.0
 10
-1.48151
 20
11.7574
 30
0.0
 10
-1.48151
 20
11.7574
 30
0.0
 10
-1.48151
 20
10.20628
 30
0.0
 10
-1.48151
 20
10.20628
 30
0.0
  0
SPLINE
  5
166
330
1F
100
AcDbEntity
  8
0
370
    15
100
AcDbSpline
210
0.0
220
0.0
230
1.0
 70
    24
 71
     3
 72
     8
 73
     4
 74
     0
 42
0.0000000001
 43
0.0000000001
 40
0.0
 40
0.0
 40
0.0
 40
0.0
 40
1.0
 40
1.0
 40
1.0
 40
1.0
 10
-1.48151
 20
11.7574
 30
0.0
 10
-1.48151
 20
11.7574
 30
0.0
 10
-1.4665
 20
11.75727
 30
0.0
 10
-1.4665
 20
11.75727
 30
0.0
  0
SPLINE
  5
167
330
1F
100
AcDbEntity
  8
0
370
    15
100
AcDbSpline
210
0.0
220
0.0
230
1.0
 70
    27
 71
     3
 72
     8
 73
     4
 74
     0
 42
0.0000000001
 43
0.0000000001
 40
0.0
 40
0.0
 40
0.0
 40
0.0
 40
1.0
 40
1.0
 40
1.0
 40
1.0
 10
-1.36298
 20
11.75637
 30
0.0
 10
-1.36298
 20
11.75637
 30
0.0
 10
-1.36298
 20
11.75637
 30
0.0
 10
-1.36298
 20
11.75637
 30
0.0
  0
SPLINE
  5
168
330
1F
100
AcDbEntity
  8
0
370
    15
100
AcDbSpline
210
0.0
220
0.0
230
1.0
 70
    24
 71
     3
 72
     8
 73
     4
 74
     0
 42
0.0000000001
 43
0.0000000001
 40
0.0
 40
0.0
 40
0.0
 40
0.0
 40
1.0
 40
1.0
 40
1.0
 40
1.0
 10
-1.48151
 20
10.20628
 30
0.0
 10
-1.48151
 20
10.20628
 30
0.0
 10
-1.37651
 20
10.20628
 30
0.0
 10
-1.37651
 20
10.20628
 30
0.0
  0
SPLINE
  5
169
330
1F
100
AcDbEntity
  8
0
 62
     8
370
    15
100
AcDbSpline
210
0.0
220
0.0
230
1.0
 70
    24
 71
     3
 72
     8
 73
     4
 74
     0
 42
0.0000000001
 43
0.0000000001
 40
0.0
 40
0.0
 40
0.0
 40
0.0
 40
1.0
 40
1.0
 40
1.0
 40
1.0
 10
-0.93245
 20
10.95442
 30
0.0
 10
-0.93245
 20
10.95442
 30
0.0
 10
-0.93331
 20
10.95438
 30
0.0
 10
-0.93331
 20
10.95438
 30
0.0
  0
SPLINE
  5
16A
330
1F
100
AcDbEntity
  8
0
 62
     8
370
    15
100
AcDbSpline
210
0.0
220
0.0
230
1.0
 70
     8
 71
     3
 72
     8
 73
     4
 74
     0
 42
0.0000000001
 43
0.0000000001
 40
0.0
 40
0.0
 40
0.0
 40
0.0
 40
1.0
 40
1.0
 40
1.0
 40
1.0
 10
-0.91156
 20
11.01664
 30
0.0
 10
-0.92564
 20
10.99894
 30
0.0
 10
-0.93331
 20
10.97699
 30
0.0
 10
-0.93331
 20
10.95438
 30
0.0
  0
SPLINE
  5
16B
330
1F
100
AcDbEntity
  8
0
 62
     8
370
    15
100
AcDbSpline
210
0.0
220
0.0
230
1.0
 70
    24
 71
     3
 72
     8
 73
     4
 74
     0
 42
0.0000000001
 43
0.0000000001
 40
0.0
 40
0.0
 40
0.0
 40
0.0
 40
1.0
 40
1.0
 40
1.0
 40
1.0
 10
-0.4915
 20
12.32361
 30
0.0
 10
-0.4915
 20
12.32361
 30
0.0
 10
-0.4915
 20
12.34784
 30
0.0
 10
-0.4915
 20
12.34784
 30
0.0
  0
SPLINE
  5
16C
330
1F
100
AcDbEntity
  8
0
 62
     8
370
    15
100
AcDbSpline
210
0.0
220
0.0
230
1.0
 70
    24
 71
     3
 72
     8
 73
     4
 74
     0
 42
0.0000000001
 43
0.0000000001
 40
0.0
 40
0.0
 40
0.0
 40
0.0
 40
1.0
 40
1.0
 40
1.0
 40
1.0
 10
-1.37651
 20
10.20628
 30
0.0
 10
-1.37651
 20
10.20628
 30
0.0
 10
-1.3765
 20
10.20727
 30
0.0
 10
-1.3765
 20
10.20727
 30
0.0
  0
SPLINE
  5
16D
330
1F
100
AcDbEntity
  8
0
 62
     8
370
    15
100
AcDbSpline
210
0.0
220
0.0
230
1.0
 70
    24
 71
     3
 72
     8
 73
     4
 74
     0
 42
0.0000000001
 43
0.0000000001
 40
0.0
 40
0.0
 40
0.0
 40
0.0
 40
1.0
 40
1.0
 40
1.0
 40
1.0
 10
-1.3665
 20
11.35311
 30
0.0
 10
-1.3665
 20
11.35311
 30
0.0
 10
-1.36298
 20
11.75637
 30
0.0
 10
-1.36298
 20
11.75637
 30
0.0
  0
SPLINE
  5
16E
330
1F
100
AcDbEntity
  8
0
100
AcDbSpline
210
0.0
220
0.0
230
1.0
 70
    27
 71
     3
 72
    12
 73
     8
 74
     0
 42
0.0000000001
 43
0.0000000001
 40
0.0
 40
0.0
 40
0.0
 40
0.0
 40
0.3333333333333333
 40
0.3333333333333333
 40
0.3333333333333333
 40
0.3333333333333333
 40
1.0
 40
1.0
 40
1.0
 40
1.0
 10
16.31021
 20
12.25534
 30
0.0
 10
16.31021
 20
12.25534
 30
0.0
 10
16.25941
 20
12.58554
 30
0.0
 10
16.25941
 20
12.58554
 30
0.0
 10
16.25941
 20
12.58554
 30
0.0
 10
16.25941
 20
12.58554
 30
0.0
 10
16.31021
 20
12.25534
 30
0.0
 10
16.31021
 20
12.25534
 30
0.0
  0
SPLINE
  5
16F
330
1F
100
AcDbEntity
  8
0
100
AcDbSpline
210
0.0
220
0.0
230
1.0
 70
     8
 71
     3
 72
    12
 73
     8
 74
     0
 42
0.0000000001
 43
0.0000000001
 40
0.0
 40
0.0
 40
0.0
 40
0.0
 40
0.3333333333333333
 40
0.3333333333333333
 40
0.3333333333333333
 40
0.3333333333333333
 40
1.0
 40
1.0
 40
1.0
 40
1.0
 10
16.25941
 20
12.58554
 30
0.0
 10
16.25941
 20
12.58554
 30
0.0
 10
16.36101
 20
12.58554
 30
0.0
 10
16.36101
 20
12.58554
 30
0.0
 10
16.36101
 20
12.58554
 30
0.0
 10
16.36101
 20
12.58554
 30
0.0
 10
16.31021
 20
12.25534
 30
0.0
 10
16.31021
 20
12.25534
 30
0.0
  0
SPLINE
  5
170
330
1F
100
AcDbEntity
  8
0
370
     9
100
AcDbSpline
210
0.0
220
0.0
230
1.0
 70
    24
 71
     3
 72
     8
 73
     4
 74
     0
 42
0.0000000001
 43
0.0000000001
 40
0.0
 40
0.0
 40
0.0
 40
0.0
 40
1.0
 40
1.0
 40
1.0
 40
1.0
 10
16.31021
 20
12.25534
 30
0.0
 10
16.31021
 20
12.25534
 30
0.0
 10
16.25941
 20
12.58554
 30
0.0
 10
16.25941
 20
12.58554
 30
0.0
  0
SPLINE
  5
171
330
1F
100
AcDbEntity
  8
0
370
     9
100
AcDbSpline
210
0.0
220
0.0
230
1.0
 70
     8
 71
     3
 72
    12
 73
     8
 74
     0
 42
0.0000000001
 43
0.0000000001
 40
0.0
 40
0.0
 40
0.0
 40
0.0
 40
0.3333333333333333
 40
0.3333333333333333
 40
0.3333333333333333
 40
0.3333333333333333
 40
1.0
 40
1.0
 40
1.0
 40
1.0
 10
16.25941
 20
12.58554
 30
0.0
 10
16.25941
 20
12.58554
 30
0.0
 10
16.36101
 20
12.58554
 30
0.0
 10
16.36101
 20
12.58554
 30
0.0
 10
16.36101
 20
12.58554
 30
0.0
 10
16.36101
 20
12.58554
 30
0.0
 10
16.31021
 20
12.25534
 30
0.0
 10
16.31021
 20
12.25534
 30
0.0
  0
SPLINE
  5
172
330
1F
100
AcDbEntity
  8
0
100
AcDbSpline
210
0.0
220
0.0
230
1.0
 70
    27
 71
     3
 72
    12
 73
     8
 74
     0
 42
0.0000000001
 43
0.0000000001
 40
0.0
 40
0.0
 40
0.0
 40
0.0
 40
0.3333333333333333
 40
0.3333333333333333
 40
0.3333333333333333
 40
0.3333333333333333
 40
1.0
 40
1.0
 40
1.0
 40
1.0
 10
16.31021
 20
11.15534
 30
0.0
 10
16.31021
 20
11.15534
 30
0.0
 10
16.36101
 20
10.82514
 30
0.0
 10
16.36101
 20
10.82514
 30
0.0
 10
16.36101
 20
10.82514
 30
0.0
 10
16.36101
 20
10.82514
 30
0.0
 10
16.31021
 20
11.15534
 30
0.0
 10
16.31021
 20
11.15534
 30
0.0
  0
SPLINE
  5
173
330
1F
100
AcDbEntity
  8
0
100
AcDbSpline
210
0.0
220
0.0
230
1.0
 70
     8
 71
     3
 72
    12
 73
     8
 74
     0
 42
0.0000000001
 43
0.0000000001
 40
0.0
 40
0.0
 40
0.0
 40
0.0
 40
0.3333333333333333
 40
0.3333333333333333
 40
0.3333333333333333
 40
0.3333333333333333
 40
1.0
 40
1.0
 40
1.0
 40
1.0
 10
16.36101
 20
10.82514
 30
0.0
 10
16.36101
 20
10.82514
 30
0.0
 10
16.25941
 20
10.82514
 30
0.0
 10
16.25941
 20
10.82514
 30
0.0
 10
16.25941
 20
10.82514
 30
0.0
 10
16.25941
 20
10.82514
 30
0.0
 10
16.31021
 20
11.15534
 30
0.0
 10
16.31021
 20
11.15534
 30
0.0
  0
SPLINE
  5
174
330
1F
100
AcDbEntity
  8
0
370
     9
100
AcDbSpline
210
0.0
220
0.0
230
1.0
 70
    24
 71
     3
 72
     8
 73
     4
 74
     0
 42
0.0000000001
 43
0.0000000001
 40
0.0
 40
0.0
 40
0.0
 40
0.0
 40
1.0
 40
1.0
 40
1.0
 40
1.0
 10
16.31021
 20
11.15534
 30
0.0
 10
16.31021
 20
11.15534
 30
0.0
 10
16.36101
 20
10.82514
 30
0.0
 10
16.36101
 20
10.82514
 30
0.0
  0
SPLINE
  5
175
330
1F
100
AcDbEntity
  8
0
370
     9
100
AcDbSpline
210
0.0
220
0.0
230
1.0
 70
     8
 71
     3
 72
    12
 73
     8
 74
     0
 42
0.0000000001
 43
0.0000000001
 40
0.0
 40
0.0
 40
0.0
 40
0.0
 40
0.3333333333333333
 40
0.3333333333333333
 40
0.3333333333333333
 40
0.3333333333333333
 40
1.0
 40
1.0
 40
1.0
 40
1.0
 10
16.36101
 20
10.82514
 30
0.0
 10
16.36101
 20
10.82514
 30
0.0
 10
16.25941
 20
10.82514
 30
0.0
 10
16.25941
 20
10.82514
 30
0.0
 10
16.25941
 20
10.82514
 30
0.0
 10
16.25941
 20
10.82514
 30
0.0
 10
16.31021
 20
11.15534
 30
0.0
 10
16.31021
 20
11.15534
 30
0.0
  0
SPLINE
  5
176
330
1F
100
AcDbEntity
  8
0
370
     9
100
AcDbSpline
210
0.0
220
0.0
230
1.0
 70
    24
 71
     3
 72
     8
 73
     4
 74
     0
 42
0.0000000001
 43
0.0000000001
 40
0.0
 40
0.0
 40
0.0
 40
0.0
 40
1.0
 40
1.0
 40
1.0
 40
1.0
 10
14.8585
 20
12.25534
 30
0.0
 10
14.8585
 20
12.25534
 30
0.0
 10
16.41021
 20
12.25534
 30
0.0
 10
16.41021
 20
12.25534
 30
0.0
  0
SPLINE
  5
177
330
1F
100
AcDbEntity
  8
0
370
     9
100
AcDbSpline
210
0.0
220
0.0
230
1.0
 70
    24
 71
     3
 72
     8
 73
     4
 74
     0
 42
0.0000000001
 43
0.0000000001
 40
0.0
 40
0.0
 40
0.0
 40
0.0
 40
1.0
 40
1.0
 40
1.0
 40
1.0
 10
14.8585
 20
11.15534
 30
0.0
 10
14.8585
 20
11.15534
 30
0.0
 10
16.41021
 20
11.15534
 30
0.0
 10
16.41021
 20
11.15534
 30
0.0
  0
SPLINE
  5
178
330
1F
100
AcDbEntity
  8
0
370
     9
100
AcDbSpline
210
0.0
220
0.0
230
1.0
 70
    24
 71
     3
 72
     8
 73
     4
 74
     0
 42
0.0000000001
 43
0.0000000001
 40
0.0
 40
0.0
 40
0.0
 40
0.0
 40
1.0
 40
1.0
 40
1.0
 40
1.0
 10
16.31021
 20
12.25534
 30
0.0
 10
16.31021
 20
12.25534
 30
0.0
 10
16.31021
 20
12.89034
 30
0.0
 10
16.31021
 20
12.89034
 30
0.0
  0
SPLINE
  5
179
330
1F
100
AcDbEntity
  8
0
370
     9
100
AcDbSpline
210
0.0
220
0.0
230
1.0
 70
    24
 71
     3
 72
     8
 73
     4
 74
     0
 42
0.0000000001
 43
0.0000000001
 40
0.0
 40
0.0
 40
0.0
 40
0.0
 40
1.0
 40
1.0
 40
1.0
 40
1.0
 10
16.31021
 20
12.25534
 30
0.0
 10
16.31021
 20
12.25534
 30
0.0
 10
16.31021
 20
11.15534
 30
0.0
 10
16.31021
 20
11.15534
 30
0.0
  0
SPLINE
  5
17A
330
1F
100
AcDbEntity
  8
0
370
     9
100
AcDbSpline
210
0.0
220
0.0
230
1.0
 70
    24
 71
     3
 72
     8
 73
     4
 74
     0
 42
0.0000000001
 43
0.0000000001
 40
0.0
 40
0.0
 40
0.0
 40
0.0
 40
1.0
 40
1.0
 40
1.0
 40
1.0
 10
16.31021
 20
11.15534
 30
0.0
 10
16.31021
 20
11.15534
 30
0.0
 10
16.31021
 20
10.52034
 30
0.0
 10
16.31021
 20
10.52034
 30
0.0
  0
SPLINE
  5
17B
330
1F
100
AcDbEntity
  8
0
100
AcDbSpline
210
0.0
220
0.0
230
1.0
 70
    11
 71
     3
 72
    92
 73
    88
 74
     0
 42
0.0000000001
 43
0.0000000001
 40
0.0
 40
0.0
 40
0.0
 40
0.0
 40
0.0434782608695652
 40
0.0434782608695652
 40
0.0434782608695652
 40
0.0434782608695652
 40
0.0869565217391304
 40
0.0869565217391304
 40
0.0869565217391304
 40
0.0869565217391304
 40
0.1304347826086956
 40
0.1304347826086956
 40
0.1304347826086956
 40
0.1304347826086956
 40
0.1739130434782609
 40
0.1739130434782609
 40
0.1739130434782609
 40
0.1739130434782609
 40
0.2173913043478261
 40
0.2173913043478261
 40
0.2173913043478261
 40
0.2173913043478261
 40
0.2608695652173913
 40
0.2608695652173913
 40
0.2608695652173913
 40
0.2608695652173913
 40
0.3043478260869565
 40
0.3043478260869565
 40
0.3043478260869565
 40
0.3043478260869565
 40
0.3478260869565217
 40
0.3478260869565217
 40
0.3478260869565217
 40
0.3478260869565217
 40
0.391304347826087
 40
0.391304347826087
 40
0.391304347826087
 40
0.391304347826087
 40
0.4347826086956522
 40
0.4347826086956522
 40
0.4347826086956522
 40
0.4347826086956522
 40
0.4782608695652174
 40
0.4782608695652174
 40
0.4782608695652174
 40
0.4782608695652174
 40
0.5217391304347826
 40
0.5217391304347826
 40
0.5217391304347826
 40
0.5217391304347826
 40
0.5652173913043478
 40
0.5652173913043478
 40
0.5652173913043478
 40
0.5652173913043478
 40
0.6086956521739131
 40
0.6086956521739131
 40
0.6086956521739131
 40
0.6086956521739131
 40
0.6521739130434783
 40
0.6521739130434783
 40
0.6521739130434783
 40
0.6521739130434783
 40
0.6956521739130435
 40
0.6956521739130435
 40
0.6956521739130435
 40
0.6956521739130435
 40
0.7391304347826086
 40
0.7391304347826086
 40
0.7391304347826086
 40
0.7391304347826086
 40
0.782608695652174
 40
0.782608695652174
 40
0.782608695652174
 40
0.782608695652174
 40
0.8260869565217391
 40
0.8260869565217391
 40
0.8260869565217391
 40
0.8260869565217391
 40
0.8695652173913043
 40
0.8695652173913043
 40
0.8695652173913043
 40
0.8695652173913043
 40
0.9130434782608695
 40
0.9130434782608695
 40
0.9130434782608695
 40
0.9130434782608695
 40
1.0
 40
1.0
 40
1.0
 40
1.0
 10
16.14633
 20
11.44344
 30
0.0
 10
16.14633
 20
11.44344
 30
0.0
 10
16.1759
 20
11.44344
 30
0.0
 10
16.1759
 20
11.44344
 30
0.0
 10
16.1759
 20
11.44344
 30
0.0
 10
16.1759
 20
11.44344
 30
0.0
 10
16.1759
 20
11.27784
 30
0.0
 10
16.1759
 20
11.27784
 30
0.0
 10
16.1759
 20
11.27784
 30
0.0
 10
16.16849
 20
11.2776
 30
0.0
 10
16.16138
 20
11.27877
 30
0.0
 10
16.15455
 20
11.28139
 30
0.0
 10
16.15455
 20
11.28139
 30
0.0
 10
16.14323
 20
11.28559
 30
0.0
 10
16.13215
 20
11.29236
 30
0.0
 10
16.12124
 20
11.30164
 30
0.0
 10
16.12124
 20
11.30164
 30
0.0
 10
16.11028
 20
11.31097
 30
0.0
 10
16.09762
 20
11.32439
 30
0.0
 10
16.08327
 20
11.34189
 30
0.0
 10
16.08327
 20
11.34189
 30
0.0
 10
16.06093
 20
11.36913
 30
0.0
 10
16.04325
 20
11.38756
 30
0.0
 10
16.03018
 20
11.39713
 30
0.0
 10
16.03018
 20
11.39713
 30
0.0
 10
16.01718
 20
11.40669
 30
0.0
 10
16.00481
 20
11.41148
 30
0.0
 10
15.9932
 20
11.41148
 30
0.0
 10
15.9932
 20
11.41148
 30
0.0
 10
15.98101
 20
11.41148
 30
0.0
 10
15.97074
 20
11.4071
 30
0.0
 10
15.96234
 20
11.39841
 30
0.0
 10
15.96234
 20
11.39841
 30
0.0
 10
15.954
 20
11.38966
 30
0.0
 10
15.9498
 20
11.37829
 30
0.0
 10
15.9498
 20
11.36429
 30
0.0
 10
15.9498
 20
11.36429
 30
0.0
 10
15.9498
 20
11.34947
 30
0.0
 10
15.95423
 20
11.33763
 30
0.0
 10
15.96316
 20
11.32876
 30
0.0
 10
15.96316
 20
11.32876
 30
0.0
 10
15.97203
 20
11.31984
 30
0.0
 10
15.98433
 20
11.31534
 30
0.0
 10
16.00003
 20
11.31523
 30
0.0
 10
16.00003
 20
11.31523
 30
0.0
 10
16.00003
 20
11.31523
 30
0.0
 10
15.99682
 20
11.28361
 30
0.0
 10
15.99682
 20
11.28361
 30
0.0
 10
15.99682
 20
11.28361
 30
0.0
 10
15.97319
 20
11.28577
 30
0.0
 10
15.95523
 20
11.29394
 30
0.0
 10
15.94286
 20
11.30805
 30
0.0
 10
15.94286
 20
11.30805
 30
0.0
 10
15.93049
 20
11.32217
 30
0.0
 10
15.92437
 20
11.34119
 30
0.0
 10
15.92437
 20
11.36499
 30
0.0
 10
15.92437
 20
11.36499
 30
0.0
 10
15.92437
 20
11.38902
 30
0.0
 10
15.93102
 20
11.40804
 30
0.0
 10
15.94432
 20
11.42204
 30
0.0
 10
15.94432
 20
11.42204
 30
0.0
 10
15.95768
 20
11.43609
 30
0.0
 10
15.97418
 20
11.44309
 30
0.0
 10
15.9939
 20
11.44309
 30
0.0
 10
15.9939
 20
11.44309
 30
0.0
 10
16.00393
 20
11.44309
 30
0.0
 10
16.01379
 20
11.44105
 30
0.0
 10
16.02348
 20
11.43691
 30
0.0
 10
16.02348
 20
11.43691
 30
0.0
 10
16.03316
 20
11.43283
 30
0.0
 10
16.04337
 20
11.426
 30
0.0
 10
16.05404
 20
11.41649
 30
0.0
 10
16.05404
 20
11.41649
 30
0.0
 10
16.06478
 20
11.40699
 30
0.0
 10
16.07948
 20
11.39118
 30
0.0
 10
16.09814
 20
11.36907
 30
0.0
 10
16.09814
 20
11.36907
 30
0.0
 10
16.11366
 20
11.35064
 30
0.0
 10
16.12416
 20
11.33879
 30
0.0
 10
16.1297
 20
11.33354
 30
0.0
 10
16.1297
 20
11.33354
 30
0.0
 10
16.13518
 20
11.32829
 30
0.0
 10
16.14073
 20
11.32398
 30
0.0
 10
16.14633
 20
11.32054
 30
0.0
 10
16.14633
 20
11.32054
 30
0.0
 10
16.14633
 20
11.32054
 30
0.0
 10
16.14633
 20
11.44344
 30
0.0
 10
16.14633
 20
11.44344
 30
0.0
  0
SPLINE
  5
17C
330
1F
100
AcDbEntity
  8
0
100
AcDbSpline
210
0.0
220
0.0
230
1.0
 70
    11
 71
     3
 72
    92
 73
    88
 74
     0
 42
0.0000000001
 43
0.0000000001
 40
0.0
 40
0.0
 40
0.0
 40
0.0
 40
0.0434782608695652
 40
0.0434782608695652
 40
0.0434782608695652
 40
0.0434782608695652
 40
0.0869565217391304
 40
0.0869565217391304
 40
0.0869565217391304
 40
0.0869565217391304
 40
0.1304347826086956
 40
0.1304347826086956
 40
0.1304347826086956
 40
0.1304347826086956
 40
0.1739130434782609
 40
0.1739130434782609
 40
0.1739130434782609
 40
0.1739130434782609
 40
0.2173913043478261
 40
0.2173913043478261
 40
0.2173913043478261
 40
0.2173913043478261
 40
0.2608695652173913
 40
0.2608695652173913
 40
0.2608695652173913
 40
0.2608695652173913
 40
0.3043478260869565
 40
0.3043478260869565
 40
0.3043478260869565
 40
0.3043478260869565
 40
0.3478260869565217
 40
0.3478260869565217
 40
0.3478260869565217
 40
0.3478260869565217
 40
0.391304347826087
 40
0.391304347826087
 40
0.391304347826087
 40
0.391304347826087
 40
0.4347826086956522
 40
0.4347826086956522
 40
0.4347826086956522
 40
0.4347826086956522
 40
0.4782608695652174
 40
0.4782608695652174
 40
0.4782608695652174
 40
0.4782608695652174
 40
0.5217391304347826
 40
0.5217391304347826
 40
0.5217391304347826
 40
0.5217391304347826
 40
0.5652173913043478
 40
0.5652173913043478
 40
0.5652173913043478
 40
0.5652173913043478
 40
0.6086956521739131
 40
0.6086956521739131
 40
0.6086956521739131
 40
0.6086956521739131
 40
0.6521739130434783
 40
0.6521739130434783
 40
0.6521739130434783
 40
0.6521739130434783
 40
0.6956521739130435
 40
0.6956521739130435
 40
0.6956521739130435
 40
0.6956521739130435
 40
0.7391304347826086
 40
0.7391304347826086
 40
0.7391304347826086
 40
0.7391304347826086
 40
0.782608695652174
 40
0.782608695652174
 40
0.782608695652174
 40
0.782608695652174
 40
0.8260869565217391
 40
0.8260869565217391
 40
0.8260869565217391
 40
0.8260869565217391
 40
0.8695652173913043
 40
0.8695652173913043
 40
0.8695652173913043
 40
0.8695652173913043
 40
0.9130434782608695
 40
0.9130434782608695
 40
0.9130434782608695
 40
0.9130434782608695
 40
1.0
 40
1.0
 40
1.0
 40
1.0
 10
16.14633
 20
11.6381
 30
0.0
 10
16.14633
 20
11.6381
 30
0.0
 10
16.1759
 20
11.6381
 30
0.0
 10
16.1759
 20
11.6381
 30
0.0
 10
16.1759
 20
11.6381
 30
0.0
 10
16.1759
 20
11.6381
 30
0.0
 10
16.1759
 20
11.4725
 30
0.0
 10
16.1759
 20
11.4725
 30
0.0
 10
16.1759
 20
11.4725
 30
0.0
 10
16.16849
 20
11.47226
 30
0.0
 10
16.16138
 20
11.47343
 30
0.0
 10
16.15455
 20
11.47605
 30
0.0
 10
16.15455
 20
11.47605
 30
0.0
 10
16.14323
 20
11.48025
 30
0.0
 10
16.13215
 20
11.48702
 30
0.0
 10
16.12124
 20
11.4963
 30
0.0
 10
16.12124
 20
11.4963
 30
0.0
 10
16.11028
 20
11.50563
 30
0.0
 10
16.09762
 20
11.51905
 30
0.0
 10
16.08327
 20
11.53655
 30
0.0
 10
16.08327
 20
11.53655
 30
0.0
 10
16.06093
 20
11.56379
 30
0.0
 10
16.04325
 20
11.58222
 30
0.0
 10
16.03018
 20
11.59179
 30
0.0
 10
16.03018
 20
11.59179
 30
0.0
 10
16.01718
 20
11.60135
 30
0.0
 10
16.00481
 20
11.60614
 30
0.0
 10
15.9932
 20
11.60614
 30
0.0
 10
15.9932
 20
11.60614
 30
0.0
 10
15.98101
 20
11.60614
 30
0.0
 10
15.97074
 20
11.60176
 30
0.0
 10
15.96234
 20
11.59307
 30
0.0
 10
15.96234
 20
11.59307
 30
0.0
 10
15.954
 20
11.58432
 30
0.0
 10
15.9498
 20
11.57295
 30
0.0
 10
15.9498
 20
11.55895
 30
0.0
 10
15.9498
 20
11.55895
 30
0.0
 10
15.9498
 20
11.54413
 30
0.0
 10
15.95423
 20
11.53229
 30
0.0
 10
15.96316
 20
11.52342
 30
0.0
 10
15.96316
 20
11.52342
 30
0.0
 10
15.97203
 20
11.5145
 30
0.0
 10
15.98433
 20
11.51
 30
0.0
 10
16.00003
 20
11.50989
 30
0.0
 10
16.00003
 20
11.50989
 30
0.0
 10
16.00003
 20
11.50989
 30
0.0
 10
15.99682
 20
11.47827
 30
0.0
 10
15.99682
 20
11.47827
 30
0.0
 10
15.99682
 20
11.47827
 30
0.0
 10
15.97319
 20
11.48043
 30
0.0
 10
15.95523
 20
11.4886
 30
0.0
 10
15.94286
 20
11.50271
 30
0.0
 10
15.94286
 20
11.50271
 30
0.0
 10
15.93049
 20
11.51683
 30
0.0
 10
15.92437
 20
11.53585
 30
0.0
 10
15.92437
 20
11.55965
 30
0.0
 10
15.92437
 20
11.55965
 30
0.0
 10
15.92437
 20
11.58368
 30
0.0
 10
15.93102
 20
11.6027
 30
0.0
 10
15.94432
 20
11.6167
 30
0.0
 10
15.94432
 20
11.6167
 30
0.0
 10
15.95768
 20
11.63075
 30
0.0
 10
15.97418
 20
11.63775
 30
0.0
 10
15.9939
 20
11.63775
 30
0.0
 10
15.9939
 20
11.63775
 30
0.0
 10
16.00393
 20
11.63775
 30
0.0
 10
16.01379
 20
11.63571
 30
0.0
 10
16.02348
 20
11.63157
 30
0.0
 10
16.02348
 20
11.63157
 30
0.0
 10
16.03316
 20
11.62749
 30
0.0
 10
16.04337
 20
11.62066
 30
0.0
 10
16.05404
 20
11.61115
 30
0.0
 10
16.05404
 20
11.61115
 30
0.0
 10
16.06478
 20
11.60165
 30
0.0
 10
16.07948
 20
11.58584
 30
0.0
 10
16.09814
 20
11.56373
 30
0.0
 10
16.09814
 20
11.56373
 30
0.0
 10
16.11366
 20
11.5453
 30
0.0
 10
16.12416
 20
11.53345
 30
0.0
 10
16.1297
 20
11.5282
 30
0.0
 10
16.1297
 20
11.5282
 30
0.0
 10
16.13518
 20
11.52295
 30
0.0
 10
16.14073
 20
11.51864
 30
0.0
 10
16.14633
 20
11.5152
 30
0.0
 10
16.14633
 20
11.5152
 30
0.0
 10
16.14633
 20
11.5152
 30
0.0
 10
16.14633
 20
11.6381
 30
0.0
 10
16.14633
 20
11.6381
 30
0.0
  0
SPLINE
  5
17D
330
1F
100
AcDbEntity
  8
0
100
AcDbSpline
210
0.0
220
0.0
230
1.0
 70
    27
 71
     3
 72
    12
 73
     8
 74
     0
 42
0.0000000001
 43
0.0000000001
 40
0.0
 40
0.0
 40
0.0
 40
0.0
 40
0.3333333333333333
 40
0.3333333333333333
 40
0.3333333333333333
 40
0.3333333333333333
 40
1.0
 40
1.0
 40
1.0
 40
1.0
 10
14.9585
 20
9.60474
 30
0.0
 10
14.9585
 20
9.60474
 30
0.0
 10
14.6283
 20
9.55394
 30
0.0
 10
14.6283
 20
9.55394
 30
0.0
 10
14.6283
 20
9.55394
 30
0.0
 10
14.6283
 20
9.55394
 30
0.0
 10
14.9585
 20
9.60474
 30
0.0
 10
14.9585
 20
9.60474
 30
0.0
  0
SPLINE
  5
17E
330
1F
100
AcDbEntity
  8
0
100
AcDbSpline
210
0.0
220
0.0
230
1.0
 70
     8
 71
     3
 72
    12
 73
     8
 74
     0
 42
0.0000000001
 43
0.0000000001
 40
0.0
 40
0.0
 40
0.0
 40
0.0
 40
0.3333333333333333
 40
0.3333333333333333
 40
0.3333333333333333
 40
0.3333333333333333
 40
1.0
 40
1.0
 40
1.0
 40
1.0
 10
14.6283
 20
9.55394
 30
0.0
 10
14.6283
 20
9.55394
 30
0.0
 10
14.6283
 20
9.65554
 30
0.0
 10
14.6283
 20
9.65554
 30
0.0
 10
14.6283
 20
9.65554
 30
0.0
 10
14.6283
 20
9.65554
 30
0.0
 10
14.9585
 20
9.60474
 30
0.0
 10
14.9585
 20
9.60474
 30
0.0
  0
SPLINE
  5
17F
330
1F
100
AcDbEntity
  8
0
370
     9
100
AcDbSpline
210
0.0
220
0.0
230
1.0
 70
    24
 71
     3
 72
     8
 73
     4
 74
     0
 42
0.0000000001
 43
0.0000000001
 40
0.0
 40
0.0
 40
0.0
 40
0.0
 40
1.0
 40
1.0
 40
1.0
 40
1.0
 10
14.9585
 20
9.60474
 30
0.0
 10
14.9585
 20
9.60474
 30
0.0
 10
14.6283
 20
9.55394
 30
0.0
 10
14.6283
 20
9.55394
 30
0.0
  0
SPLINE
  5
180
330
1F
100
AcDbEntity
  8
0
370
     9
100
AcDbSpline
210
0.0
220
0.0
230
1.0
 70
     8
 71
     3
 72
    12
 73
     8
 74
     0
 42
0.0000000001
 43
0.0000000001
 40
0.0
 40
0.0
 40
0.0
 40
0.0
 40
0.3333333333333333
 40
0.3333333333333333
 40
0.3333333333333333
 40
0.3333333333333333
 40
1.0
 40
1.0
 40
1.0
 40
1.0
 10
14.6283
 20
9.55394
 30
0.0
 10
14.6283
 20
9.55394
 30
0.0
 10
14.6283
 20
9.65554
 30
0.0
 10
14.6283
 20
9.65554
 30
0.0
 10
14.6283
 20
9.65554
 30
0.0
 10
14.6283
 20
9.65554
 30
0.0
 10
14.9585
 20
9.60474
 30
0.0
 10
14.9585
 20
9.60474
 30
0.0
  0
SPLINE
  5
181
330
1F
100
AcDbEntity
  8
0
100
AcDbSpline
210
0.0
220
0.0
230
1.0
 70
    27
 71
     3
 72
    12
 73
     8
 74
     0
 42
0.0000000001
 43
0.0000000001
 40
0.0
 40
0.0
 40
0.0
 40
0.0
 40
0.3333333333333333
 40
0.3333333333333333
 40
0.3333333333333333
 40
0.3333333333333333
 40
1.0
 40
1.0
 40
1.0
 40
1.0
 10
-1.48151
 20
9.60474
 30
0.0
 10
-1.48151
 20
9.60474
 30
0.0
 10
-1.15131
 20
9.65554
 30
0.0
 10
-1.15131
 20
9.65554
 30
0.0
 10
-1.15131
 20
9.65554
 30
0.0
 10
-1.15131
 20
9.65554
 30
0.0
 10
-1.48151
 20
9.60474
 30
0.0
 10
-1.48151
 20
9.60474
 30
0.0
  0
SPLINE
  5
182
330
1F
100
AcDbEntity
  8
0
100
AcDbSpline
210
0.0
220
0.0
230
1.0
 70
     8
 71
     3
 72
    12
 73
     8
 74
     0
 42
0.0000000001
 43
0.0000000001
 40
0.0
 40
0.0
 40
0.0
 40
0.0
 40
0.3333333333333333
 40
0.3333333333333333
 40
0.3333333333333333
 40
0.3333333333333333
 40
1.0
 40
1.0
 40
1.0
 40
1.0
 10
-1.15131
 20
9.65554
 30
0.0
 10
-1.15131
 20
9.65554
 30
0.0
 10
-1.15131
 20
9.55394
 30
0.0
 10
-1.15131
 20
9.55394
 30
0.0
 10
-1.15131
 20
9.55394
 30
0.0
 10
-1.15131
 20
9.55394
 30
0.0
 10
-1.48151
 20
9.60474
 30
0.0
 10
-1.48151
 20
9.60474
 30
0.0
  0
SPLINE
  5
183
330
1F
100
AcDbEntity
  8
0
370
     9
100
AcDbSpline
210
0.0
220
0.0
230
1.0
 70
    24
 71
     3
 72
     8
 73
     4
 74
     0
 42
0.0000000001
 43
0.0000000001
 40
0.0
 40
0.0
 40
0.0
 40
0.0
 40
1.0
 40
1.0
 40
1.0
 40
1.0
 10
-1.48151
 20
9.60474
 30
0.0
 10
-1.48151
 20
9.60474
 30
0.0
 10
-1.15131
 20
9.65554
 30
0.0
 10
-1.15131
 20
9.65554
 30
0.0
  0
SPLINE
  5
184
330
1F
100
AcDbEntity
  8
0
370
     9
100
AcDbSpline
210
0.0
220
0.0
230
1.0
 70
     8
 71
     3
 72
    12
 73
     8
 74
     0
 42
0.0000000001
 43
0.0000000001
 40
0.0
 40
0.0
 40
0.0
 40
0.0
 40
0.3333333333333333
 40
0.3333333333333333
 40
0.3333333333333333
 40
0.3333333333333333
 40
1.0
 40
1.0
 40
1.0
 40
1.0
 10
-1.15131
 20
9.65554
 30
0.0
 10
-1.15131
 20
9.65554
 30
0.0
 10
-1.15131
 20
9.55394
 30
0.0
 10
-1.15131
 20
9.55394
 30
0.0
 10
-1.15131
 20
9.55394
 30
0.0
 10
-1.15131
 20
9.55394
 30
0.0
 10
-1.48151
 20
9.60474
 30
0.0
 10
-1.48151
 20
9.60474
 30
0.0
  0
SPLINE
  5
185
330
1F
100
AcDbEntity
  8
0
370
     9
100
AcDbSpline
210
0.0
220
0.0
230
1.0
 70
    24
 71
     3
 72
     8
 73
     4
 74
     0
 42
0.0000000001
 43
0.0000000001
 40
0.0
 40
0.0
 40
0.0
 40
0.0
 40
1.0
 40
1.0
 40
1.0
 40
1.0
 10
14.9585
 20
11.25534
 30
0.0
 10
14.9585
 20
11.25534
 30
0.0
 10
14.9585
 20
9.50474
 30
0.0
 10
14.9585
 20
9.50474
 30
0.0
  0
SPLINE
  5
186
330
1F
100
AcDbEntity
  8
0
370
     9
100
AcDbSpline
210
0.0
220
0.0
230
1.0
 70
    24
 71
     3
 72
     8
 73
     4
 74
     0
 42
0.0000000001
 43
0.0000000001
 40
0.0
 40
0.0
 40
0.0
 40
0.0
 40
1.0
 40
1.0
 40
1.0
 40
1.0
 10
-1.48151
 20
10.10628
 30
0.0
 10
-1.48151
 20
10.10628
 30
0.0
 10
-1.48151
 20
9.50474
 30
0.0
 10
-1.48151
 20
9.50474
 30
0.0
  0
SPLINE
  5
187
330
1F
100
AcDbEntity
  8
0
370
     9
100
AcDbSpline
210
0.0
220
0.0
230
1.0
 70
    24
 71
     3
 72
     8
 73
     4
 74
     0
 42
0.0000000001
 43
0.0000000001
 40
0.0
 40
0.0
 40
0.0
 40
0.0
 40
1.0
 40
1.0
 40
1.0
 40
1.0
 10
14.9585
 20
9.60474
 30
0.0
 10
14.9585
 20
9.60474
 30
0.0
 10
-1.48151
 20
9.60474
 30
0.0
 10
-1.48151
 20
9.60474
 30
0.0
  0
SPLINE
  5
188
330
1F
100
AcDbEntity
  8
0
100
AcDbSpline
210
0.0
220
0.0
230
1.0
 70
    11
 71
     3
 72
   124
 73
   120
 74
     0
 42
0.0000000001
 43
0.0000000001
 40
0.0
 40
0.0
 40
0.0
 40
0.0
 40
0.032258064516129
 40
0.032258064516129
 40
0.032258064516129
 40
0.032258064516129
 40
0.0645161290322581
 40
0.0645161290322581
 40
0.0645161290322581
 40
0.0645161290322581
 40
0.0967741935483871
 40
0.0967741935483871
 40
0.0967741935483871
 40
0.0967741935483871
 40
0.1290322580645161
 40
0.1290322580645161
 40
0.1290322580645161
 40
0.1290322580645161
 40
0.1612903225806452
 40
0.1612903225806452
 40
0.1612903225806452
 40
0.1612903225806452
 40
0.1935483870967742
 40
0.1935483870967742
 40
0.1935483870967742
 40
0.1935483870967742
 40
0.2258064516129032
 40
0.2258064516129032
 40
0.2258064516129032
 40
0.2258064516129032
 40
0.2580645161290323
 40
0.2580645161290323
 40
0.2580645161290323
 40
0.2580645161290323
 40
0.2903225806451613
 40
0.2903225806451613
 40
0.2903225806451613
 40
0.2903225806451613
 40
0.3225806451612903
 40
0.3225806451612903
 40
0.3225806451612903
 40
0.3225806451612903
 40
0.3548387096774194
 40
0.3548387096774194
 40
0.3548387096774194
 40
0.3548387096774194
 40
0.3870967741935484
 40
0.3870967741935484
 40
0.3870967741935484
 40
0.3870967741935484
 40
0.4193548387096774
 40
0.4193548387096774
 40
0.4193548387096774
 40
0.4193548387096774
 40
0.4516129032258064
 40
0.4516129032258064
 40
0.4516129032258064
 40
0.4516129032258064
 40
0.4838709677419355
 40
0.4838709677419355
 40
0.4838709677419355
 40
0.4838709677419355
 40
0.5161290322580645
 40
0.5161290322580645
 40
0.5161290322580645
 40
0.5161290322580645
 40
0.5483870967741935
 40
0.5483870967741935
 40
0.5483870967741935
 40
0.5483870967741935
 40
0.5806451612903226
 40
0.5806451612903226
 40
0.5806451612903226
 40
0.5806451612903226
 40
0.6129032258064516
 40
0.6129032258064516
 40
0.6129032258064516
 40
0.6129032258064516
 40
0.6451612903225806
 40
0.6451612903225806
 40
0.6451612903225806
 40
0.6451612903225806
 40
0.6774193548387096
 40
0.6774193548387096
 40
0.6774193548387096
 40
0.6774193548387096
 40
0.7096774193548387
 40
0.7096774193548387
 40
0.7096774193548387
 40
0.7096774193548387
 40
0.7419354838709677
 40
0.7419354838709677
 40
0.7419354838709677
 40
0.7419354838709677
 40
0.7741935483870968
 40
0.7741935483870968
 40
0.7741935483870968
 40
0.7741935483870968
 40
0.8064516129032258
 40
0.8064516129032258
 40
0.8064516129032258
 40
0.8064516129032258
 40
0.8387096774193549
 40
0.8387096774193549
 40
0.8387096774193549
 40
0.8387096774193549
 40
0.8709677419354839
 40
0.8709677419354839
 40
0.8709677419354839
 40
0.8709677419354839
 40
0.9032258064516129
 40
0.9032258064516129
 40
0.9032258064516129
 40
0.9032258064516129
 40
0.9354838709677419
 40
0.9354838709677419
 40
0.9354838709677419
 40
0.9354838709677419
 40
1.0
 40
1.0
 40
1.0
 40
1.0
 10
6.39933
 20
9.80519
 30
0.0
 10
6.39933
 20
9.80519
 30
0.0
 10
6.43007
 20
9.80927
 30
0.0
 10
6.43007
 20
9.80927
 30
0.0
 10
6.43007
 20
9.80927
 30
0.0
 10
6.43363
 20
9.79183
 30
0.0
 10
6.43964
 20
9.77929
 30
0.0
 10
6.4481
 20
9.77159
 30
0.0
 10
6.4481
 20
9.77159
 30
0.0
 10
6.45661
 20
9.76389
 30
0.0
 10
6.46694
 20
9.76004
 30
0.0
 10
6.47913
 20
9.76004
 30
0.0
 10
6.47913
 20
9.76004
 30
0.0
 10
6.4936
 20
9.76004
 30
0.0
 10
6.50585
 20
9.76506
 30
0.0
 10
6.51582
 20
9.77509
 30
0.0
 10
6.51582
 20
9.77509
 30
0.0
 10
6.52574
 20
9.78512
 30
0.0
 10
6.53075
 20
9.79755
 30
0.0
 10
6.53075
 20
9.81236
 30
0.0
 10
6.53075
 20
9.81236
 30
0.0
 10
6.53075
 20
9.82648
 30
0.0
 10
6.52615
 20
9.83815
 30
0.0
 10
6.51693
 20
9.84731
 30
0.0
 10
6.51693
 20
9.84731
 30
0.0
 10
6.50765
 20
9.85646
 30
0.0
 10
6.49593
 20
9.86107
 30
0.0
 10
6.4817
 20
9.86107
 30
0.0
 10
6.4817
 20
9.86107
 30
0.0
 10
6.47586
 20
9.86107
 30
0.0
 10
6.46863
 20
9.85991
 30
0.0
 10
6.46
 20
9.85763
 30
0.0
 10
6.46
 20
9.85763
 30
0.0
 10
6.46
 20
9.85763
 30
0.0
 10
6.46344
 20
9.88464
 30
0.0
 10
6.46344
 20
9.88464
 30
0.0
 10
6.46344
 20
9.88464
 30
0.0
 10
6.46548
 20
9.88441
 30
0.0
 10
6.46711
 20
9.88429
 30
0.0
 10
6.4684
 20
9.88429
 30
0.0
 10
6.4684
 20
9.88429
 30
0.0
 10
6.48146
 20
9.88429
 30
0.0
 10
6.49325
 20
9.88773
 30
0.0
 10
6.50375
 20
9.89456
 30
0.0
 10
6.50375
 20
9.89456
 30
0.0
 10
6.51425
 20
9.90138
 30
0.0
 10
6.5195
 20
9.91194
 30
0.0
 10
6.5195
 20
9.92617
 30
0.0
 10
6.5195
 20
9.92617
 30
0.0
 10
6.5195
 20
9.93743
 30
0.0
 10
6.51565
 20
9.94682
 30
0.0
 10
6.508
 20
9.95417
 30
0.0
 10
6.508
 20
9.95417
 30
0.0
 10
6.50036
 20
9.96158
 30
0.0
 10
6.4905
 20
9.96531
 30
0.0
 10
6.47843
 20
9.96531
 30
0.0
 10
6.47843
 20
9.96531
 30
0.0
 10
6.46647
 20
9.96531
 30
0.0
 10
6.4565
 20
9.96152
 30
0.0
 10
6.44856
 20
9.95406
 30
0.0
 10
6.44856
 20
9.95406
 30
0.0
 10
6.44057
 20
9.94653
 30
0.0
 10
6.43544
 20
9.93521
 30
0.0
 10
6.43316
 20
9.92016
 30
0.0
 10
6.43316
 20
9.92016
 30
0.0
 10
6.43316
 20
9.92016
 30
0.0
 10
6.40242
 20
9.92565
 30
0.0
 10
6.40242
 20
9.92565
 30
0.0
 10
6.40242
 20
9.92565
 30
0.0
 10
6.40615
 20
9.9463
 30
0.0
 10
6.41473
 20
9.96228
 30
0.0
 10
6.42803
 20
9.9736
 30
0.0
 10
6.42803
 20
9.9736
 30
0.0
 10
6.44139
 20
9.98491
 30
0.0
 10
6.45795
 20
9.99063
 30
0.0
 10
6.47779
 20
9.99063
 30
0.0
 10
6.47779
 20
9.99063
 30
0.0
 10
6.49144
 20
9.99063
 30
0.0
 10
6.50404
 20
9.98766
 30
0.0
 10
6.51553
 20
9.98182
 30
0.0
 10
6.51553
 20
9.98182
 30
0.0
 10
6.52702
 20
9.97593
 30
0.0
 10
6.53583
 20
9.96794
 30
0.0
 10
6.54195
 20
9.95779
 30
0.0
 10
6.54195
 20
9.95779
 30
0.0
 10
6.54802
 20
9.94764
 30
0.0
 10
6.55111
 20
9.93691
 30
0.0
 10
6.55111
 20
9.92547
 30
0.0
 10
6.55111
 20
9.92547
 30
0.0
 10
6.55111
 20
9.91468
 30
0.0
 10
6.5482
 20
9.90482
 30
0.0
 10
6.54236
 20
9.8959
 30
0.0
 10
6.54236
 20
9.8959
 30
0.0
 10
6.53653
 20
9.88703
 30
0.0
 10
6.52795
 20
9.87997
 30
0.0
 10
6.51658
 20
9.87472
 30
0.0
 10
6.51658
 20
9.87472
 30
0.0
 10
6.5314
 20
9.87134
 30
0.0
 10
6.54289
 20
9.86422
 30
0.0
 10
6.55111
 20
9.85343
 30
0.0
 10
6.55111
 20
9.85343
 30
0.0
 10
6.55928
 20
9.8427
 30
0.0
 10
6.56336
 20
9.82922
 30
0.0
 10
6.56336
 20
9.81306
 30
0.0
 10
6.56336
 20
9.81306
 30
0.0
 10
6.56336
 20
9.79119
 30
0.0
 10
6.55543
 20
9.77264
 30
0.0
 10
6.53945
 20
9.75741
 30
0.0
 10
6.53945
 20
9.75741
 30
0.0
 10
6.52352
 20
9.74219
 30
0.0
 10
6.50334
 20
9.73461
 30
0.0
 10
6.47895
 20
9.73461
 30
0.0
 10
6.47895
 20
9.73461
 30
0.0
 10
6.45696
 20
9.73461
 30
0.0
 10
6.4387
 20
9.74114
 30
0.0
 10
6.42418
 20
9.75426
 30
0.0
 10
6.42418
 20
9.75426
 30
0.0
 10
6.40965
 20
9.76733
 30
0.0
 10
6.40137
 20
9.78431
 30
0.0
 10
6.39933
 20
9.80519
 30
0.0
  0
SPLINE
  5
189
330
1F
100
AcDbEntity
  8
0
100
AcDbSpline
210
0.0
220
0.0
230
1.0
 70
    11
 71
     3
 72
    92
 73
    88
 74
     0
 42
0.0000000001
 43
0.0000000001
 40
0.0
 40
0.0
 40
0.0
 40
0.0
 40
0.0434782608695652
 40
0.0434782608695652
 40
0.0434782608695652
 40
0.0434782608695652
 40
0.0869565217391304
 40
0.0869565217391304
 40
0.0869565217391304
 40
0.0869565217391304
 40
0.1304347826086956
 40
0.1304347826086956
 40
0.1304347826086956
 40
0.1304347826086956
 40
0.1739130434782609
 40
0.1739130434782609
 40
0.1739130434782609
 40
0.1739130434782609
 40
0.2173913043478261
 40
0.2173913043478261
 40
0.2173913043478261
 40
0.2173913043478261
 40
0.2608695652173913
 40
0.2608695652173913
 40
0.2608695652173913
 40
0.2608695652173913
 40
0.3043478260869565
 40
0.3043478260869565
 40
0.3043478260869565
 40
0.3043478260869565
 40
0.3478260869565217
 40
0.3478260869565217
 40
0.3478260869565217
 40
0.3478260869565217
 40
0.391304347826087
 40
0.391304347826087
 40
0.391304347826087
 40
0.391304347826087
 40
0.4347826086956522
 40
0.4347826086956522
 40
0.4347826086956522
 40
0.4347826086956522
 40
0.4782608695652174
 40
0.4782608695652174
 40
0.4782608695652174
 40
0.4782608695652174
 40
0.5217391304347826
 40
0.5217391304347826
 40
0.5217391304347826
 40
0.5217391304347826
 40
0.5652173913043478
 40
0.5652173913043478
 40
0.5652173913043478
 40
0.5652173913043478
 40
0.6086956521739131
 40
0.6086956521739131
 40
0.6086956521739131
 40
0.6086956521739131
 40
0.6521739130434783
 40
0.6521739130434783
 40
0.6521739130434783
 40
0.6521739130434783
 40
0.6956521739130435
 40
0.6956521739130435
 40
0.6956521739130435
 40
0.6956521739130435
 40
0.7391304347826086
 40
0.7391304347826086
 40
0.7391304347826086
 40
0.7391304347826086
 40
0.782608695652174
 40
0.782608695652174
 40
0.782608695652174
 40
0.782608695652174
 40
0.8260869565217391
 40
0.8260869565217391
 40
0.8260869565217391
 40
0.8260869565217391
 40
0.8695652173913043
 40
0.8695652173913043
 40
0.8695652173913043
 40
0.8695652173913043
 40
0.9130434782608695
 40
0.9130434782608695
 40
0.9130434782608695
 40
0.9130434782608695
 40
1.0
 40
1.0
 40
1.0
 40
1.0
 10
6.75551
 20
9.76861
 30
0.0
 10
6.75551
 20
9.76861
 30
0.0
 10
6.75551
 20
9.73904
 30
0.0
 10
6.75551
 20
9.73904
 30
0.0
 10
6.75551
 20
9.73904
 30
0.0
 10
6.75551
 20
9.73904
 30
0.0
 10
6.58991
 20
9.73904
 30
0.0
 10
6.58991
 20
9.73904
 30
0.0
 10
6.58991
 20
9.73904
 30
0.0
 10
6.58967
 20
9.74645
 30
0.0
 10
6.59084
 20
9.75356
 30
0.0
 10
6.59346
 20
9.76039
 30
0.0
 10
6.59346
 20
9.76039
 30
0.0
 10
6.59766
 20
9.77171
 30
0.0
 10
6.60443
 20
9.78279
 30
0.0
 10
6.61371
 20
9.79376
 30
0.0
 10
6.61371
 20
9.79376
 30
0.0
 10
6.62304
 20
9.80466
 30
0.0
 10
6.63646
 20
9.81732
 30
0.0
 10
6.65396
 20
9.83167
 30
0.0
 10
6.65396
 20
9.83167
 30
0.0
 10
6.6812
 20
9.85401
 30
0.0
 10
6.69963
 20
9.87169
 30
0.0
 10
6.7092
 20
9.88476
 30
0.0
 10
6.7092
 20
9.88476
 30
0.0
 10
6.71876
 20
9.89776
 30
0.0
 10
6.72355
 20
9.91013
 30
0.0
 10
6.72355
 20
9.92174
 30
0.0
 10
6.72355
 20
9.92174
 30
0.0
 10
6.72355
 20
9.93393
 30
0.0
 10
6.71917
 20
9.9442
 30
0.0
 10
6.71048
 20
9.9526
 30
0.0
 10
6.71048
 20
9.9526
 30
0.0
 10
6.70173
 20
9.96094
 30
0.0
 10
6.69036
 20
9.96514
 30
0.0
 10
6.67636
 20
9.96514
 30
0.0
 10
6.67636
 20
9.96514
 30
0.0
 10
6.66154
 20
9.96514
 30
0.0
 10
6.6497
 20
9.96071
 30
0.0
 10
6.64083
 20
9.95178
 30
0.0
 10
6.64083
 20
9.95178
 30
0.0
 10
6.63191
 20
9.94291
 30
0.0
 10
6.62741
 20
9.93061
 30
0.0
 10
6.6273
 20
9.91491
 30
0.0
 10
6.6273
 20
9.91491
 30
0.0
 10
6.6273
 20
9.91491
 30
0.0
 10
6.59568
 20
9.91812
 30
0.0
 10
6.59568
 20
9.91812
 30
0.0
 10
6.59568
 20
9.91812
 30
0.0
 10
6.59784
 20
9.94175
 30
0.0
 10
6.60601
 20
9.95971
 30
0.0
 10
6.62012
 20
9.97208
 30
0.0
 10
6.62012
 20
9.97208
 30
0.0
 10
6.63424
 20
9.98445
 30
0.0
 10
6.65326
 20
9.99063
 30
0.0
 10
6.67706
 20
9.99063
 30
0.0
 10
6.67706
 20
9.99063
 30
0.0
 10
6.70109
 20
9.99063
 30
0.0
 10
6.72011
 20
9.98392
 30
0.0
 10
6.73411
 20
9.97062
 30
0.0
 10
6.73411
 20
9.97062
 30
0.0
 10
6.74816
 20
9.95726
 30
0.0
 10
6.75516
 20
9.94076
 30
0.0
 10
6.75516
 20
9.92104
 30
0.0
 10
6.75516
 20
9.92104
 30
0.0
 10
6.75516
 20
9.91101
 30
0.0
 10
6.75312
 20
9.90115
 30
0.0
 10
6.74898
 20
9.89146
 30
0.0
 10
6.74898
 20
9.89146
 30
0.0
 10
6.7449
 20
9.88178
 30
0.0
 10
6.73807
 20
9.87157
 30
0.0
 10
6.72856
 20
9.8609
 30
0.0
 10
6.72856
 20
9.8609
 30
0.0
 10
6.71906
 20
9.85016
 30
0.0
 10
6.70325
 20
9.83546
 30
0.0
 10
6.68114
 20
9.8168
 30
0.0
 10
6.68114
 20
9.8168
 30
0.0
 10
6.66271
 20
9.80128
 30
0.0
 10
6.65086
 20
9.79078
 30
0.0
 10
6.64561
 20
9.78524
 30
0.0
 10
6.64561
 20
9.78524
 30
0.0
 10
6.64036
 20
9.77976
 30
0.0
 10
6.63605
 20
9.77421
 30
0.0
 10
6.63261
 20
9.76861
 30
0.0
 10
6.63261
 20
9.76861
 30
0.0
 10
6.63261
 20
9.76861
 30
0.0
 10
6.75551
 20
9.76861
 30
0.0
 10
6.75551
 20
9.76861
 30
0.0
  0
SPLINE
  5
18A
330
1F
100
AcDbEntity
  8
0
100
AcDbSpline
210
0.0
220
0.0
230
1.0
 70
    11
 71
     3
 72
    92
 73
    88
 74
     0
 42
0.0000000001
 43
0.0000000001
 40
0.0
 40
0.0
 40
0.0
 40
0.0
 40
0.0434782608695652
 40
0.0434782608695652
 40
0.0434782608695652
 40
0.0434782608695652
 40
0.0869565217391304
 40
0.0869565217391304
 40
0.0869565217391304
 40
0.0869565217391304
 40
0.1304347826086956
 40
0.1304347826086956
 40
0.1304347826086956
 40
0.1304347826086956
 40
0.1739130434782609
 40
0.1739130434782609
 40
0.1739130434782609
 40
0.1739130434782609
 40
0.2173913043478261
 40
0.2173913043478261
 40
0.2173913043478261
 40
0.2173913043478261
 40
0.2608695652173913
 40
0.2608695652173913
 40
0.2608695652173913
 40
0.2608695652173913
 40
0.3043478260869565
 40
0.3043478260869565
 40
0.3043478260869565
 40
0.3043478260869565
 40
0.3478260869565217
 40
0.3478260869565217
 40
0.3478260869565217
 40
0.3478260869565217
 40
0.391304347826087
 40
0.391304347826087
 40
0.391304347826087
 40
0.391304347826087
 40
0.4347826086956522
 40
0.4347826086956522
 40
0.4347826086956522
 40
0.4347826086956522
 40
0.4782608695652174
 40
0.4782608695652174
 40
0.4782608695652174
 40
0.4782608695652174
 40
0.5217391304347826
 40
0.5217391304347826
 40
0.5217391304347826
 40
0.5217391304347826
 40
0.5652173913043478
 40
0.5652173913043478
 40
0.5652173913043478
 40
0.5652173913043478
 40
0.6086956521739131
 40
0.6086956521739131
 40
0.6086956521739131
 40
0.6086956521739131
 40
0.6521739130434783
 40
0.6521739130434783
 40
0.6521739130434783
 40
0.6521739130434783
 40
0.6956521739130435
 40
0.6956521739130435
 40
0.6956521739130435
 40
0.6956521739130435
 40
0.7391304347826086
 40
0.7391304347826086
 40
0.7391304347826086
 40
0.7391304347826086
 40
0.782608695652174
 40
0.782608695652174
 40
0.782608695652174
 40
0.782608695652174
 40
0.8260869565217391
 40
0.8260869565217391
 40
0.8260869565217391
 40
0.8260869565217391
 40
0.8695652173913043
 40
0.8695652173913043
 40
0.8695652173913043
 40
0.8695652173913043
 40
0.9130434782608695
 40
0.9130434782608695
 40
0.9130434782608695
 40
0.9130434782608695
 40
1.0
 40
1.0
 40
1.0
 40
1.0
 10
6.79308
 20
9.79696
 30
0.0
 10
6.79308
 20
9.79696
 30
0.0
 10
6.82266
 20
9.79971
 30
0.0
 10
6.82266
 20
9.79971
 30
0.0
 10
6.82266
 20
9.79971
 30
0.0
 10
6.82517
 20
9.78582
 30
0.0
 10
6.82995
 20
9.77573
 30
0.0
 10
6.83701
 20
9.76943
 30
0.0
 10
6.83701
 20
9.76943
 30
0.0
 10
6.84407
 20
9.76319
 30
0.0
 10
6.85311
 20
9.76004
 30
0.0
 10
6.86419
 20
9.76004
 30
0.0
 10
6.86419
 20
9.76004
 30
0.0
 10
6.87364
 20
9.76004
 30
0.0
 10
6.88192
 20
9.7622
 30
0.0
 10
6.88904
 20
9.76657
 30
0.0
 10
6.88904
 20
9.76657
 30
0.0
 10
6.89616
 20
9.77089
 30
0.0
 10
6.90199
 20
9.77666
 30
0.0
 10
6.90654
 20
9.7839
 30
0.0
 10
6.90654
 20
9.7839
 30
0.0
 10
6.91115
 20
9.79113
 30
0.0
 10
6.91494
 20
9.80093
 30
0.0
 10
6.91803
 20
9.81318
 30
0.0
 10
6.91803
 20
9.81318
 30
0.0
 10
6.92107
 20
9.82549
 30
0.0
 10
6.92264
 20
9.83803
 30
0.0
 10
6.92264
 20
9.85081
 30
0.0
 10
6.92264
 20
9.85081
 30
0.0
 10
6.92264
 20
9.85215
 30
0.0
 10
6.92258
 20
9.85425
 30
0.0
 10
6.92247
 20
9.85693
 30
0.0
 10
6.92247
 20
9.85693
 30
0.0
 10
6.91628
 20
9.84719
 30
0.0
 10
6.90788
 20
9.8392
 30
0.0
 10
6.89727
 20
9.83313
 30
0.0
 10
6.89727
 20
9.83313
 30
0.0
 10
6.88659
 20
9.82701
 30
0.0
 10
6.87504
 20
9.82397
 30
0.0
 10
6.86267
 20
9.82397
 30
0.0
 10
6.86267
 20
9.82397
 30
0.0
 10
6.84191
 20
9.82397
 30
0.0
 10
6.82435
 20
9.8315
 30
0.0
 10
6.81
 20
9.84655
 30
0.0
 10
6.81
 20
9.84655
 30
0.0
 10
6.79565
 20
9.8616
 30
0.0
 10
6.78847
 20
9.88137
 30
0.0
 10
6.78847
 20
9.90599
 30
0.0
 10
6.78847
 20
9.90599
 30
0.0
 10
6.78847
 20
9.93142
 30
0.0
 10
6.79594
 20
9.95184
 30
0.0
 10
6.81093
 20
9.96736
 30
0.0
 10
6.81093
 20
9.96736
 30
0.0
 10
6.82592
 20
9.98287
 30
0.0
 10
6.84471
 20
9.99063
 30
0.0
 10
6.86728
 20
9.99063
 30
0.0
 10
6.86728
 20
9.99063
 30
0.0
 10
6.88356
 20
9.99063
 30
0.0
 10
6.89843
 20
9.9862
 30
0.0
 10
6.91197
 20
9.97745
 30
0.0
 10
6.91197
 20
9.97745
 30
0.0
 10
6.92544
 20
9.9687
 30
0.0
 10
6.93571
 20
9.95616
 30
0.0
 10
6.94271
 20
9.93994
 30
0.0
 10
6.94271
 20
9.93994
 30
0.0
 10
6.94971
 20
9.92372
 30
0.0
 10
6.95321
 20
9.90021
 30
0.0
 10
6.95321
 20
9.86941
 30
0.0
 10
6.95321
 20
9.86941
 30
0.0
 10
6.95321
 20
9.83745
 30
0.0
 10
6.94977
 20
9.81196
 30
0.0
 10
6.94282
 20
9.79294
 30
0.0
 10
6.94282
 20
9.79294
 30
0.0
 10
6.93582
 20
9.77398
 30
0.0
 10
6.9255
 20
9.75957
 30
0.0
 10
6.91179
 20
9.74966
 30
0.0
 10
6.91179
 20
9.74966
 30
0.0
 10
6.89802
 20
9.73974
 30
0.0
 10
6.88198
 20
9.73478
 30
0.0
 10
6.86349
 20
9.73478
 30
0.0
 10
6.86349
 20
9.73478
 30
0.0
 10
6.84389
 20
9.73478
 30
0.0
 10
6.82791
 20
9.74021
 30
0.0
 10
6.81548
 20
9.75111
 30
0.0
 10
6.81548
 20
9.75111
 30
0.0
 10
6.80306
 20
9.76196
 30
0.0
 10
6.79559
 20
9.77725
 30
0.0
 10
6.79308
 20
9.79696
 30
0.0
  0
SPLINE
  5
18B
330
1F
100
AcDbEntity
  8
0
100
AcDbSpline
210
0.0
220
0.0
230
1.0
 70
    11
 71
     3
 72
    36
 73
    32
 74
     0
 42
0.0000000001
 43
0.0000000001
 40
0.0
 40
0.0
 40
0.0
 40
0.0
 40
0.1111111111111111
 40
0.1111111111111111
 40
0.1111111111111111
 40
0.1111111111111111
 40
0.2222222222222222
 40
0.2222222222222222
 40
0.2222222222222222
 40
0.2222222222222222
 40
0.3333333333333333
 40
0.3333333333333333
 40
0.3333333333333333
 40
0.3333333333333333
 40
0.4444444444444444
 40
0.4444444444444444
 40
0.4444444444444444
 40
0.4444444444444444
 40
0.5555555555555556
 40
0.5555555555555556
 40
0.5555555555555556
 40
0.5555555555555556
 40
0.6666666666666666
 40
0.6666666666666666
 40
0.6666666666666666
 40
0.6666666666666666
 40
0.7777777777777778
 40
0.7777777777777778
 40
0.7777777777777778
 40
0.7777777777777778
 40
1.0
 40
1.0
 40
1.0
 40
1.0
 10
6.91902
 20
9.90756
 30
0.0
 10
6.91902
 20
9.92518
 30
0.0
 10
6.91436
 20
9.93924
 30
0.0
 10
6.90497
 20
9.94956
 30
0.0
 10
6.90497
 20
9.94956
 30
0.0
 10
6.89552
 20
9.95995
 30
0.0
 10
6.88426
 20
9.96514
 30
0.0
 10
6.87102
 20
9.96514
 30
0.0
 10
6.87102
 20
9.96514
 30
0.0
 10
6.85737
 20
9.96514
 30
0.0
 10
6.84547
 20
9.95954
 30
0.0
 10
6.83532
 20
9.9484
 30
0.0
 10
6.83532
 20
9.9484
 30
0.0
 10
6.82517
 20
9.9372
 30
0.0
 10
6.82009
 20
9.92273
 30
0.0
 10
6.82009
 20
9.905
 30
0.0
 10
6.82009
 20
9.905
 30
0.0
 10
6.82009
 20
9.88901
 30
0.0
 10
6.82493
 20
9.87606
 30
0.0
 10
6.83456
 20
9.86609
 30
0.0
 10
6.83456
 20
9.86609
 30
0.0
 10
6.84418
 20
9.85611
 30
0.0
 10
6.85602
 20
9.85116
 30
0.0
 10
6.87014
 20
9.85116
 30
0.0
 10
6.87014
 20
9.85116
 30
0.0
 10
6.88443
 20
9.85116
 30
0.0
 10
6.8961
 20
9.85611
 30
0.0
 10
6.90526
 20
9.86609
 30
0.0
 10
6.90526
 20
9.86609
 30
0.0
 10
6.91447
 20
9.87606
 30
0.0
 10
6.91902
 20
9.88989
 30
0.0
 10
6.91902
 20
9.90756
 30
0.0
  0
SPLINE
  5
18C
330
1F
100
AcDbEntity
  8
0
370
    15
100
AcDbSpline
210
0.0
220
0.0
230
1.0
 70
     8
 71
     3
 72
    20
 73
    16
 74
     0
 42
0.0000000001
 43
0.0000000001
 40
0.0
 40
0.0
 40
0.0
 40
0.0
 40
0.2
 40
0.2
 40
0.2
 40
0.2
 40
0.4
 40
0.4
 40
0.4
 40
0.4
 40
0.6
 40
0.6
 40
0.6
 40
0.6
 40
1.0
 40
1.0
 40
1.0
 40
1.0
 10
-11.80279
 20
5.95297
 30
0.0
 10
-11.79403
 20
5.98473
 30
0.0
 10
-11.78527
 20
6.01649
 30
0.0
 10
-11.77993
 20
6.04886
 30
0.0
 10
-11.77993
 20
6.04886
 30
0.0
 10
-11.77462
 20
6.08104
 30
0.0
 10
-11.77268
 20
6.11384
 30
0.0
 10
-11.77306
 20
6.14661
 30
0.0
 10
-11.77306
 20
6.14661
 30
0.0
 10
-11.77344
 20
6.17939
 30
0.0
 10
-11.77613
 20
6.21214
 30
0.0
 10
-11.78219
 20
6.24421
 30
0.0
 10
-11.78219
 20
6.24421
 30
0.0
 10
-11.78829
 20
6.2765
 30
0.0
 10
-11.79779
 20
6.30809
 30
0.0
 10
-11.8073
 20
6.33968
 30
0.0
  0
SPLINE
  5
18D
330
1F
100
AcDbEntity
  8
0
370
    15
100
AcDbSpline
210
0.0
220
0.0
230
1.0
 70
     8
 71
     3
 72
    20
 73
    16
 74
     0
 42
0.0000000001
 43
0.0000000001
 40
0.0
 40
0.0
 40
0.0
 40
0.0
 40
0.2
 40
0.2
 40
0.2
 40
0.2
 40
0.4
 40
0.4
 40
0.4
 40
0.4
 40
0.6
 40
0.6
 40
0.6
 40
0.6
 40
1.0
 40
1.0
 40
1.0
 40
1.0
 10
-15.10739
 20
6.33968
 30
0.0
 10
-15.1169
 20
6.30809
 30
0.0
 10
-15.12641
 20
6.2765
 30
0.0
 10
-15.1325
 20
6.24421
 30
0.0
 10
-15.1325
 20
6.24421
 30
0.0
 10
-15.13856
 20
6.21214
 30
0.0
 10
-15.14125
 20
6.17939
 30
0.0
 10
-15.14163
 20
6.14661
 30
0.0
 10
-15.14163
 20
6.14661
 30
0.0
 10
-15.14201
 20
6.11384
 30
0.0
 10
-15.14007
 20
6.08104
 30
0.0
 10
-15.13476
 20
6.04886
 30
0.0
 10
-15.13476
 20
6.04886
 30
0.0
 10
-15.12942
 20
6.01649
 30
0.0
 10
-15.12066
 20
5.98473
 30
0.0
 10
-15.1119
 20
5.95297
 30
0.0
  0
SPLINE
  5
18E
330
1F
100
AcDbEntity
  8
0
370
    15
100
AcDbSpline
210
0.0
220
0.0
230
1.0
 70
     8
 71
     3
 72
     8
 73
     4
 74
     0
 42
0.0000000001
 43
0.0000000001
 40
0.0
 40
0.0
 40
0.0
 40
0.0
 40
1.0
 40
1.0
 40
1.0
 40
1.0
 10
-15.11297
 20
5.9563
 30
0.0
 10
-15.10976
 20
5.94632
 30
0.0
 10
-15.10066
 20
5.9394
 30
0.0
 10
-15.09018
 20
5.93897
 30
0.0
  0
SPLINE
  5
18F
330
1F
100
AcDbEntity
  8
0
370
    15
100
AcDbSpline
210
0.0
220
0.0
230
1.0
 70
     8
 71
     3
 72
     8
 73
     4
 74
     0
 42
0.0000000001
 43
0.0000000001
 40
0.0
 40
0.0
 40
0.0
 40
0.0
 40
1.0
 40
1.0
 40
1.0
 40
1.0
 10
-11.8245
 20
5.93897
 30
0.0
 10
-11.81403
 20
5.9394
 30
0.0
 10
-11.80493
 20
5.94632
 30
0.0
 10
-11.80172
 20
5.9563
 30
0.0
  0
SPLINE
  5
190
330
1F
100
AcDbEntity
  8
0
370
    15
100
AcDbSpline
210
0.0
220
0.0
230
1.0
 70
    24
 71
     3
 72
     8
 73
     4
 74
     0
 42
0.0000000001
 43
0.0000000001
 40
0.0
 40
0.0
 40
0.0
 40
0.0
 40
1.0
 40
1.0
 40
1.0
 40
1.0
 10
-13.30734
 20
-9.78532
 30
0.0
 10
-13.30734
 20
-9.78532
 30
0.0
 10
-13.30734
 20
5.43968
 30
0.0
 10
-13.30734
 20
5.43968
 30
0.0
  0
SPLINE
  5
191
330
1F
100
AcDbEntity
  8
0
370
    15
100
AcDbSpline
210
0.0
220
0.0
230
1.0
 70
    24
 71
     3
 72
     8
 73
     4
 74
     0
 42
0.0000000001
 43
0.0000000001
 40
0.0
 40
0.0
 40
0.0
 40
0.0
 40
1.0
 40
1.0
 40
1.0
 40
1.0
 10
-13.60734
 20
-9.78532
 30
0.0
 10
-13.60734
 20
-9.78532
 30
0.0
 10
-13.30734
 20
-9.78532
 30
0.0
 10
-13.30734
 20
-9.78532
 30
0.0
  0
SPLINE
  5
192
330
1F
100
AcDbEntity
  8
0
370
    15
100
AcDbSpline
210
0.0
220
0.0
230
1.0
 70
    24
 71
     3
 72
     8
 73
     4
 74
     0
 42
0.0000000001
 43
0.0000000001
 40
0.0
 40
0.0
 40
0.0
 40
0.0
 40
1.0
 40
1.0
 40
1.0
 40
1.0
 10
-13.60734
 20
-9.78532
 30
0.0
 10
-13.60734
 20
-9.78532
 30
0.0
 10
-13.60734
 20
5.43968
 30
0.0
 10
-13.60734
 20
5.43968
 30
0.0
  0
SPLINE
  5
193
330
1F
100
AcDbEntity
  8
0
370
    15
100
AcDbSpline
210
0.0
220
0.0
230
1.0
 70
    24
 71
     3
 72
     8
 73
     4
 74
     0
 42
0.0000000001
 43
0.0000000001
 40
0.0
 40
0.0
 40
0.0
 40
0.0
 40
1.0
 40
1.0
 40
1.0
 40
1.0
 10
-13.30734
 20
-9.98532
 30
0.0
 10
-13.30734
 20
-9.98532
 30
0.0
 10
-13.60734
 20
-9.98532
 30
0.0
 10
-13.60734
 20
-9.98532
 30
0.0
  0
SPLINE
  5
194
330
1F
100
AcDbEntity
  8
0
370
    15
100
AcDbSpline
210
0.0
220
0.0
230
1.0
 70
    24
 71
     3
 72
     8
 73
     4
 74
     0
 42
0.0000000001
 43
0.0000000001
 40
0.0
 40
0.0
 40
0.0
 40
0.0
 40
1.0
 40
1.0
 40
1.0
 40
1.0
 10
-13.30734
 20
-9.78532
 30
0.0
 10
-13.30734
 20
-9.78532
 30
0.0
 10
-13.30734
 20
-9.98532
 30
0.0
 10
-13.30734
 20
-9.98532
 30
0.0
  0
SPLINE
  5
195
330
1F
100
AcDbEntity
  8
0
370
    15
100
AcDbSpline
210
0.0
220
0.0
230
1.0
 70
    24
 71
     3
 72
     8
 73
     4
 74
     0
 42
0.0000000001
 43
0.0000000001
 40
0.0
 40
0.0
 40
0.0
 40
0.0
 40
1.0
 40
1.0
 40
1.0
 40
1.0
 10
-13.60734
 20
-9.98532
 30
0.0
 10
-13.60734
 20
-9.98532
 30
0.0
 10
-13.60734
 20
-9.78532
 30
0.0
 10
-13.60734
 20
-9.78532
 30
0.0
  0
SPLINE
  5
196
330
1F
100
AcDbEntity
  8
0
370
    15
100
AcDbSpline
210
0.0
220
0.0
230
1.0
 70
     8
 71
     3
 72
    16
 73
    12
 74
     0
 42
0.0000000001
 43
0.0000000001
 40
0.0
 40
0.0
 40
0.0
 40
0.0
 40
0.25
 40
0.25
 40
0.25
 40
0.25
 40
0.5
 40
0.5
 40
0.5
 40
0.5
 40
1.0
 40
1.0
 40
1.0
 40
1.0
 10
-13.75841
 20
5.9299
 30
0.0
 10
-13.70864
 20
5.96104
 30
0.0
 10
-13.65887
 20
5.99218
 30
0.0
 10
-13.60946
 20
6.02463
 30
0.0
 10
-13.60946
 20
6.02463
 30
0.0
 10
-13.55964
 20
6.05736
 30
0.0
 10
-13.51018
 20
6.09141
 30
0.0
 10
-13.45859
 20
6.12181
 30
0.0
 10
-13.45859
 20
6.12181
 30
0.0
 10
-13.45814
 20
6.12208
 30
0.0
 10
-13.45768
 20
6.12235
 30
0.0
 10
-13.45723
 20
6.12261
 30
0.0
  0
SPLINE
  5
197
330
1F
100
AcDbEntity
  8
0
370
    15
100
AcDbSpline
210
0.0
220
0.0
230
1.0
 70
    24
 71
     3
 72
     8
 73
     4
 74
     0
 42
0.0000000001
 43
0.0000000001
 40
0.0
 40
0.0
 40
0.0
 40
0.0
 40
1.0
 40
1.0
 40
1.0
 40
1.0
 10
-13.76715
 20
5.92351
 30
0.0
 10
-13.76715
 20
5.92351
 30
0.0
 10
-13.75841
 20
5.9299
 30
0.0
 10
-13.75841
 20
5.9299
 30
0.0
  0
SPLINE
  5
198
330
1F
100
AcDbEntity
  8
0
370
    15
100
AcDbSpline
210
0.0
220
0.0
230
1.0
 70
     8
 71
     3
 72
    20
 73
    16
 74
     0
 42
0.0000000001
 43
0.0000000001
 40
0.0
 40
0.0
 40
0.0
 40
0.0
 40
0.2
 40
0.2
 40
0.2
 40
0.2
 40
0.4
 40
0.4
 40
0.4
 40
0.4
 40
0.6
 40
0.6
 40
0.6
 40
0.6
 40
1.0
 40
1.0
 40
1.0
 40
1.0
 10
-14.8569
 20
5.9473
 30
0.0
 10
-14.76996
 20
5.94435
 30
0.0
 10
-14.68303
 20
5.9414
 30
0.0
 10
-14.59609
 20
5.93883
 30
0.0
 10
-14.59609
 20
5.93883
 30
0.0
 10
-14.53208
 20
5.93694
 30
0.0
 10
-14.46807
 20
5.93526
 30
0.0
 10
-14.40405
 20
5.93371
 30
0.0
 10
-14.40405
 20
5.93371
 30
0.0
 10
-14.25596
 20
5.93014
 30
0.0
 10
-14.10785
 20
5.92732
 30
0.0
 10
-13.95972
 20
5.9255
 30
0.0
 10
-13.95972
 20
5.9255
 30
0.0
 10
-13.89554
 20
5.92471
 30
0.0
 10
-13.83134
 20
5.92411
 30
0.0
 10
-13.76715
 20
5.92351
 30
0.0
  0
SPLINE
  5
199
330
1F
100
AcDbEntity
  8
0
370
    15
100
AcDbSpline
210
0.0
220
0.0
230
1.0
 70
     8
 71
     3
 72
    24
 73
    20
 74
     0
 42
0.0000000001
 43
0.0000000001
 40
0.0
 40
0.0
 40
0.0
 40
0.0
 40
0.1666666666666667
 40
0.1666666666666667
 40
0.1666666666666667
 40
0.1666666666666667
 40
0.3333333333333333
 40
0.3333333333333333
 40
0.3333333333333333
 40
0.3333333333333333
 40
0.5
 40
0.5
 40
0.5
 40
0.5
 40
0.6666666666666666
 40
0.6666666666666666
 40
0.6666666666666666
 40
0.6666666666666666
 40
1.0
 40
1.0
 40
1.0
 40
1.0
 10
-15.11295
 20
5.95631
 30
0.0
 10
-15.1121
 20
5.95638
 30
0.0
 10
-15.11126
 20
5.95645
 30
0.0
 10
-15.10873
 20
5.95653
 30
0.0
 10
-15.10873
 20
5.95653
 30
0.0
 10
-15.10374
 20
5.95668
 30
0.0
 10
-15.09216
 20
5.95689
 30
0.0
 10
-15.07641
 20
5.9567
 30
0.0
 10
-15.07641
 20
5.9567
 30
0.0
 10
-15.06115
 20
5.95651
 30
0.0
 10
-15.04196
 20
5.95595
 30
0.0
 10
-15.01956
 20
5.95498
 30
0.0
 10
-15.01956
 20
5.95498
 30
0.0
 10
-14.99693
 20
5.954
 30
0.0
 10
-14.97101
 20
5.95259
 30
0.0
 10
-14.94327
 20
5.95123
 30
0.0
 10
-14.94327
 20
5.95123
 30
0.0
 10
-14.91568
 20
5.94988
 30
0.0
 10
-14.88629
 20
5.94859
 30
0.0
 10
-14.8569
 20
5.9473
 30
0.0
  0
SPLINE
  5
19A
330
1F
100
AcDbEntity
  8
0
370
    15
100
AcDbSpline
210
0.0
220
0.0
230
1.0
 70
     8
 71
     3
 72
    12
 73
     8
 74
     0
 42
0.0000000001
 43
0.0000000001
 40
0.0
 40
0.0
 40
0.0
 40
0.0
 40
0.3333333333333333
 40
0.3333333333333333
 40
0.3333333333333333
 40
0.3333333333333333
 40
1.0
 40
1.0
 40
1.0
 40
1.0
 10
-15.11293
 20
5.95631
 30
0.0
 10
-15.11393
 20
5.95625
 30
0.0
 10
-15.11493
 20
5.9562
 30
0.0
 10
-15.11455
 20
5.95622
 30
0.0
 10
-15.11455
 20
5.95622
 30
0.0
 10
-15.11449
 20
5.95622
 30
0.0
 10
-15.11438
 20
5.95623
 30
0.0
 10
-15.11428
 20
5.95623
 30
0.0
  0
SPLINE
  5
19B
330
1F
100
AcDbEntity
  8
0
370
    15
100
AcDbSpline
210
0.0
220
0.0
230
1.0
 70
     8
 71
     3
 72
    12
 73
     8
 74
     0
 42
0.0000000001
 43
0.0000000001
 40
0.0
 40
0.0
 40
0.0
 40
0.0
 40
0.3333333333333333
 40
0.3333333333333333
 40
0.3333333333333333
 40
0.3333333333333333
 40
1.0
 40
1.0
 40
1.0
 40
1.0
 10
-15.13451
 20
6.04781
 30
0.0
 10
-15.13451
 20
6.04781
 30
0.0
 10
-15.13444
 20
6.04687
 30
0.0
 10
-15.13444
 20
6.04687
 30
0.0
 10
-15.13444
 20
6.04687
 30
0.0
 10
-15.13444
 20
6.04687
 30
0.0
 10
-15.11295
 20
5.95631
 30
0.0
 10
-15.11295
 20
5.95631
 30
0.0
  0
SPLINE
  5
19C
330
1F
100
AcDbEntity
  8
0
370
    15
100
AcDbSpline
210
0.0
220
0.0
230
1.0
 70
    24
 71
     3
 72
    24
 73
    20
 74
     0
 42
0.0000000001
 43
0.0000000001
 40
0.0
 40
0.0
 40
0.0
 40
0.0
 40
0.1666666666666667
 40
0.1666666666666667
 40
0.1666666666666667
 40
0.1666666666666667
 40
0.3333333333333333
 40
0.3333333333333333
 40
0.3333333333333333
 40
0.3333333333333333
 40
0.5
 40
0.5
 40
0.5
 40
0.5
 40
0.6666666666666666
 40
0.6666666666666666
 40
0.6666666666666666
 40
0.6666666666666666
 40
1.0
 40
1.0
 40
1.0
 40
1.0
 10
-15.10733
 20
6.33968
 30
0.0
 10
-15.10447
 20
6.33968
 30
0.0
 10
-15.1016
 20
6.33968
 30
0.0
 10
-15.09249
 20
6.33968
 30
0.0
 10
-15.09249
 20
6.33968
 30
0.0
 10
-15.08334
 20
6.33968
 30
0.0
 10
-15.06791
 20
6.33968
 30
0.0
 10
-15.04911
 20
6.33968
 30
0.0
 10
-15.04911
 20
6.33968
 30
0.0
 10
-15.0307
 20
6.33968
 30
0.0
 10
-15.00905
 20
6.33968
 30
0.0
 10
-14.98469
 20
6.33968
 30
0.0
 10
-14.98469
 20
6.33968
 30
0.0
 10
-14.96031
 20
6.33968
 30
0.0
 10
-14.93322
 20
6.33968
 30
0.0
 10
-14.90536
 20
6.33968
 30
0.0
 10
-14.90536
 20
6.33968
 30
0.0
 10
-14.88952
 20
6.33968
 30
0.0
 10
-14.87343
 20
6.33968
 30
0.0
 10
-14.85734
 20
6.33968
 30
0.0
  0
SPLINE
  5
19D
330
1F
100
AcDbEntity
  8
0
370
    15
100
AcDbSpline
210
0.0
220
0.0
230
1.0
 70
    24
 71
     3
 72
    28
 73
    24
 74
     0
 42
0.0000000001
 43
0.0000000001
 40
0.0
 40
0.0
 40
0.0
 40
0.0
 40
0.1428571428571428
 40
0.1428571428571428
 40
0.1428571428571428
 40
0.1428571428571428
 40
0.2857142857142857
 40
0.2857142857142857
 40
0.2857142857142857
 40
0.2857142857142857
 40
0.4285714285714285
 40
0.4285714285714285
 40
0.4285714285714285
 40
0.4285714285714285
 40
0.5714285714285714
 40
0.5714285714285714
 40
0.5714285714285714
 40
0.5714285714285714
 40
0.7142857142857143
 40
0.7142857142857143
 40
0.7142857142857143
 40
0.7142857142857143
 40
1.0
 40
1.0
 40
1.0
 40
1.0
 10
-12.05734
 20
6.33968
 30
0.0
 10
-12.09837
 20
6.33968
 30
0.0
 10
-12.1394
 20
6.33968
 30
0.0
 10
-12.18042
 20
6.33968
 30
0.0
 10
-12.18042
 20
6.33968
 30
0.0
 10
-12.34449
 20
6.33968
 30
0.0
 10
-12.50856
 20
6.33968
 30
0.0
 10
-12.67262
 20
6.33968
 30
0.0
 10
-12.67262
 20
6.33968
 30
0.0
 10
-12.83669
 20
6.33968
 30
0.0
 10
-13.00075
 20
6.33968
 30
0.0
 10
-13.16482
 20
6.33968
 30
0.0
 10
-13.16482
 20
6.33968
 30
0.0
 10
-13.44691
 20
6.33968
 30
0.0
 10
-13.72899
 20
6.33968
 30
0.0
 10
-14.01108
 20
6.33968
 30
0.0
 10
-14.01108
 20
6.33968
 30
0.0
 10
-14.15212
 20
6.33968
 30
0.0
 10
-14.29317
 20
6.33968
 30
0.0
 10
-14.43421
 20
6.33968
 30
0.0
 10
-14.43421
 20
6.33968
 30
0.0
 10
-14.57526
 20
6.33968
 30
0.0
 10
-14.7163
 20
6.33968
 30
0.0
 10
-14.85734
 20
6.33968
 30
0.0
  0
SPLINE
  5
19E
330
1F
100
AcDbEntity
  8
0
370
    15
100
AcDbSpline
210
0.0
220
0.0
230
1.0
 70
    24
 71
     3
 72
    24
 73
    20
 74
     0
 42
0.0000000001
 43
0.0000000001
 40
0.0
 40
0.0
 40
0.0
 40
0.0
 40
0.1666666666666667
 40
0.1666666666666667
 40
0.1666666666666667
 40
0.1666666666666667
 40
0.3333333333333333
 40
0.3333333333333333
 40
0.3333333333333333
 40
0.3333333333333333
 40
0.5
 40
0.5
 40
0.5
 40
0.5
 40
0.6666666666666666
 40
0.6666666666666666
 40
0.6666666666666666
 40
0.6666666666666666
 40
1.0
 40
1.0
 40
1.0
 40
1.0
 10
-12.05734
 20
6.33968
 30
0.0
 10
-12.02784
 20
6.33968
 30
0.0
 10
-11.99833
 20
6.33968
 30
0.0
 10
-11.97062
 20
6.33968
 30
0.0
 10
-11.97062
 20
6.33968
 30
0.0
 10
-11.94276
 20
6.33968
 30
0.0
 10
-11.91672
 20
6.33968
 30
0.0
 10
-11.89429
 20
6.33968
 30
0.0
 10
-11.89429
 20
6.33968
 30
0.0
 10
-11.8736
 20
6.33968
 30
0.0
 10
-11.85599
 20
6.33968
 30
0.0
 10
-11.84197
 20
6.33968
 30
0.0
 10
-11.84197
 20
6.33968
 30
0.0
 10
-11.82746
 20
6.33968
 30
0.0
 10
-11.81681
 20
6.33968
 30
0.0
 10
-11.81193
 20
6.33968
 30
0.0
 10
-11.81193
 20
6.33968
 30
0.0
 10
-11.80915
 20
6.33968
 30
0.0
 10
-11.80824
 20
6.33968
 30
0.0
 10
-11.80734
 20
6.33968
 30
0.0
  0
SPLINE
  5
19F
330
1F
100
AcDbEntity
  8
0
370
    15
100
AcDbSpline
210
0.0
220
0.0
230
1.0
 70
     8
 71
     3
 72
    12
 73
     8
 74
     0
 42
0.0000000001
 43
0.0000000001
 40
0.0
 40
0.0
 40
0.0
 40
0.0
 40
0.3333333333333333
 40
0.3333333333333333
 40
0.3333333333333333
 40
0.3333333333333333
 40
1.0
 40
1.0
 40
1.0
 40
1.0
 10
-11.78017
 20
6.04782
 30
0.0
 10
-11.78017
 20
6.04782
 30
0.0
 10
-11.78025
 20
6.04688
 30
0.0
 10
-11.78025
 20
6.04688
 30
0.0
 10
-11.78025
 20
6.04688
 30
0.0
 10
-11.78025
 20
6.04688
 30
0.0
 10
-11.80173
 20
5.95631
 30
0.0
 10
-11.80173
 20
5.95631
 30
0.0
  0
SPLINE
  5
1A0
330
1F
100
AcDbEntity
  8
0
370
    15
100
AcDbSpline
210
0.0
220
0.0
230
1.0
 70
    24
 71
     3
 72
     8
 73
     4
 74
     0
 42
0.0000000001
 43
0.0000000001
 40
0.0
 40
0.0
 40
0.0
 40
0.0
 40
1.0
 40
1.0
 40
1.0
 40
1.0
 10
-11.80174
 20
5.95631
 30
0.0
 10
-11.80174
 20
5.95631
 30
0.0
 10
-11.80175
 20
5.95632
 30
0.0
 10
-11.80175
 20
5.95632
 30
0.0
  0
SPLINE
  5
1A1
330
1F
100
AcDbEntity
  8
0
370
    15
100
AcDbSpline
210
0.0
220
0.0
230
1.0
 70
     8
 71
     3
 72
    24
 73
    20
 74
     0
 42
0.0000000001
 43
0.0000000001
 40
0.0
 40
0.0
 40
0.0
 40
0.0
 40
0.1666666666666667
 40
0.1666666666666667
 40
0.1666666666666667
 40
0.1666666666666667
 40
0.3333333333333333
 40
0.3333333333333333
 40
0.3333333333333333
 40
0.3333333333333333
 40
0.5
 40
0.5
 40
0.5
 40
0.5
 40
0.6666666666666666
 40
0.6666666666666666
 40
0.6666666666666666
 40
0.6666666666666666
 40
1.0
 40
1.0
 40
1.0
 40
1.0
 10
-12.05778
 20
5.9473
 30
0.0
 10
-12.04197
 20
5.94793
 30
0.0
 10
-12.02615
 20
5.94857
 30
0.0
 10
-12.01058
 20
5.94928
 30
0.0
 10
-12.01058
 20
5.94928
 30
0.0
 10
-11.98119
 20
5.95061
 30
0.0
 10
-11.95268
 20
5.9522
 30
0.0
 10
-11.92706
 20
5.95348
 30
0.0
 10
-11.92706
 20
5.95348
 30
0.0
 10
-11.90177
 20
5.95474
 30
0.0
 10
-11.8793
 20
5.9557
 30
0.0
 10
-11.86027
 20
5.95622
 30
0.0
 10
-11.86027
 20
5.95622
 30
0.0
 10
-11.84158
 20
5.95673
 30
0.0
 10
-11.82621
 20
5.95681
 30
0.0
 10
-11.81701
 20
5.95676
 30
0.0
 10
-11.81701
 20
5.95676
 30
0.0
 10
-11.80781
 20
5.9567
 30
0.0
 10
-11.80478
 20
5.95651
 30
0.0
 10
-11.80174
 20
5.95631
 30
0.0
  0
SPLINE
  5
1A2
330
1F
100
AcDbEntity
  8
0
370
    15
100
AcDbSpline
210
0.0
220
0.0
230
1.0
 70
     8
 71
     3
 72
    20
 73
    16
 74
     0
 42
0.0000000001
 43
0.0000000001
 40
0.0
 40
0.0
 40
0.0
 40
0.0
 40
0.2
 40
0.2
 40
0.2
 40
0.2
 40
0.4
 40
0.4
 40
0.4
 40
0.4
 40
0.6
 40
0.6
 40
0.6
 40
0.6
 40
1.0
 40
1.0
 40
1.0
 40
1.0
 10
-13.14754
 20
5.92351
 30
0.0
 10
-13.09712
 20
5.92397
 30
0.0
 10
-13.0467
 20
5.92443
 30
0.0
 10
-12.99629
 20
5.925
 30
0.0
 10
-12.99629
 20
5.925
 30
0.0
 10
-12.84816
 20
5.92668
 30
0.0
 10
-12.70005
 20
5.92935
 30
0.0
 10
-12.55195
 20
5.93276
 30
0.0
 10
-12.55195
 20
5.93276
 30
0.0
 10
-12.48002
 20
5.93441
 30
0.0
 10
-12.4081
 20
5.93624
 30
0.0
 10
-12.33618
 20
5.93833
 30
0.0
 10
-12.33618
 20
5.93833
 30
0.0
 10
-12.24337
 20
5.94103
 30
0.0
 10
-12.15058
 20
5.94416
 30
0.0
 10
-12.05778
 20
5.9473
 30
0.0
  0
SPLINE
  5
1A3
330
1F
100
AcDbEntity
  8
0
370
    15
100
AcDbSpline
210
0.0
220
0.0
230
1.0
 70
    24
 71
     3
 72
     8
 73
     4
 74
     0
 42
0.0000000001
 43
0.0000000001
 40
0.0
 40
0.0
 40
0.0
 40
0.0
 40
1.0
 40
1.0
 40
1.0
 40
1.0
 10
-13.15627
 20
5.9299
 30
0.0
 10
-13.15627
 20
5.9299
 30
0.0
 10
-13.14754
 20
5.92351
 30
0.0
 10
-13.14754
 20
5.92351
 30
0.0
  0
SPLINE
  5
1A4
330
1F
100
AcDbEntity
  8
0
370
    15
100
AcDbSpline
210
0.0
220
0.0
230
1.0
 70
     8
 71
     3
 72
    16
 73
    12
 74
     0
 42
0.0000000001
 43
0.0000000001
 40
0.0
 40
0.0
 40
0.0
 40
0.0
 40
0.25
 40
0.25
 40
0.25
 40
0.25
 40
0.5
 40
0.5
 40
0.5
 40
0.5
 40
1.0
 40
1.0
 40
1.0
 40
1.0
 10
-13.45723
 20
6.12261
 30
0.0
 10
-13.45678
 20
6.12235
 30
0.0
 10
-13.45633
 20
6.12208
 30
0.0
 10
-13.45587
 20
6.12181
 30
0.0
 10
-13.45587
 20
6.12181
 30
0.0
 10
-13.40474
 20
6.09167
 30
0.0
 10
-13.35573
 20
6.0579
 30
0.0
 10
-13.30636
 20
6.02544
 30
0.0
 10
-13.30636
 20
6.02544
 30
0.0
 10
-13.25657
 20
5.99271
 30
0.0
 10
-13.20642
 20
5.96131
 30
0.0
 10
-13.15627
 20
5.9299
 30
0.0
  0
SPLINE
  5
1A5
330
1F
100
AcDbEntity
  8
0
370
    15
100
AcDbSpline
210
0.0
220
0.0
230
1.0
 70
     8
 71
     3
 72
    16
 73
    12
 74
     0
 42
0.0000000001
 43
0.0000000001
 40
0.0
 40
0.0
 40
0.0
 40
0.0
 40
0.25
 40
0.25
 40
0.25
 40
0.25
 40
0.5
 40
0.5
 40
0.5
 40
0.5
 40
1.0
 40
1.0
 40
1.0
 40
1.0
 10
-13.18054
 20
5.8977
 30
0.0
 10
-13.22632
 20
5.93406
 30
0.0
 10
-13.2721
 20
5.97042
 30
0.0
 10
-13.31731
 20
6.00822
 30
0.0
 10
-13.31731
 20
6.00822
 30
0.0
 10
-13.36296
 20
6.04639
 30
0.0
 10
-13.40803
 20
6.08602
 30
0.0
 10
-13.45602
 20
6.12172
 30
0.0
 10
-13.45602
 20
6.12172
 30
0.0
 10
-13.45642
 20
6.12202
 30
0.0
 10
-13.45683
 20
6.12231
 30
0.0
 10
-13.45723
 20
6.12261
 30
0.0
  0
SPLINE
  5
1A6
330
1F
100
AcDbEntity
  8
0
370
    15
100
AcDbSpline
210
0.0
220
0.0
230
1.0
 70
     8
 71
     3
 72
     8
 73
     4
 74
     0
 42
0.0000000001
 43
0.0000000001
 40
0.0
 40
0.0
 40
0.0
 40
0.0
 40
1.0
 40
1.0
 40
1.0
 40
1.0
 10
-13.15627
 20
5.9299
 30
0.0
 10
-13.16479
 20
5.9195
 30
0.0
 10
-13.17289
 20
5.90876
 30
0.0
 10
-13.18054
 20
5.8977
 30
0.0
  0
SPLINE
  5
1A7
330
1F
100
AcDbEntity
  8
0
370
    15
100
AcDbSpline
210
0.0
220
0.0
230
1.0
 70
     8
 71
     3
 72
     8
 73
     4
 74
     0
 42
0.0000000001
 43
0.0000000001
 40
0.0
 40
0.0
 40
0.0
 40
0.0
 40
1.0
 40
1.0
 40
1.0
 40
1.0
 10
-13.73415
 20
5.89768
 30
0.0
 10
-13.7418
 20
5.90875
 30
0.0
 10
-13.74989
 20
5.9195
 30
0.0
 10
-13.75841
 20
5.9299
 30
0.0
  0
SPLINE
  5
1A8
330
1F
100
AcDbEntity
  8
0
370
    15
100
AcDbSpline
210
0.0
220
0.0
230
1.0
 70
     8
 71
     3
 72
    16
 73
    12
 74
     0
 42
0.0000000001
 43
0.0000000001
 40
0.0
 40
0.0
 40
0.0
 40
0.0
 40
0.25
 40
0.25
 40
0.25
 40
0.25
 40
0.5
 40
0.5
 40
0.5
 40
0.5
 40
1.0
 40
1.0
 40
1.0
 40
1.0
 10
-13.45723
 20
6.12261
 30
0.0
 10
-13.45763
 20
6.12231
 30
0.0
 10
-13.45804
 20
6.12202
 30
0.0
 10
-13.45844
 20
6.12172
 30
0.0
 10
-13.45844
 20
6.12172
 30
0.0
 10
-13.50601
 20
6.08636
 30
0.0
 10
-13.55069
 20
6.0471
 30
0.0
 10
-13.59593
 20
6.00929
 30
0.0
 10
-13.59593
 20
6.00929
 30
0.0
 10
-13.64162
 20
5.9711
 30
0.0
 10
-13.68789
 20
5.93439
 30
0.0
 10
-13.73415
 20
5.89768
 30
0.0
  0
SPLINE
  5
1A9
330
1F
100
AcDbEntity
  8
0
370
    15
100
AcDbSpline
210
0.0
220
0.0
230
1.0
 70
    24
 71
     3
 72
     8
 73
     4
 74
     0
 42
0.0000000001
 43
0.0000000001
 40
0.0
 40
0.0
 40
0.0
 40
0.0
 40
1.0
 40
1.0
 40
1.0
 40
1.0
 10
-13.68987
 20
5.46468
 30
0.0
 10
-13.68987
 20
5.46468
 30
0.0
 10
-13.22482
 20
5.46468
 30
0.0
 10
-13.22482
 20
5.46468
 30
0.0
  0
SPLINE
  5
1AA
330
1F
100
AcDbEntity
  8
0
370
    15
100
AcDbSpline
210
0.0
220
0.0
230
1.0
 70
     8
 71
     3
 72
    12
 73
     8
 74
     0
 42
0.0000000001
 43
0.0000000001
 40
0.0
 40
0.0
 40
0.0
 40
0.0
 40
0.3333333333333333
 40
0.3333333333333333
 40
0.3333333333333333
 40
0.3333333333333333
 40
1.0
 40
1.0
 40
1.0
 40
1.0
 10
-13.73415
 20
5.89768
 30
0.0
 10
-13.73415
 20
5.89768
 30
0.0
 10
-13.71206
 20
5.68168
 30
0.0
 10
-13.71206
 20
5.68168
 30
0.0
 10
-13.71206
 20
5.68168
 30
0.0
 10
-13.71206
 20
5.68168
 30
0.0
 10
-13.68987
 20
5.46468
 30
0.0
 10
-13.68987
 20
5.46468
 30
0.0
  0
SPLINE
  5
1AB
330
1F
100
AcDbEntity
  8
0
370
    15
100
AcDbSpline
210
0.0
220
0.0
230
1.0
 70
     8
 71
     3
 72
    12
 73
     8
 74
     0
 42
0.0000000001
 43
0.0000000001
 40
0.0
 40
0.0
 40
0.0
 40
0.0
 40
0.3333333333333333
 40
0.3333333333333333
 40
0.3333333333333333
 40
0.3333333333333333
 40
1.0
 40
1.0
 40
1.0
 40
1.0
 10
-13.22482
 20
5.46468
 30
0.0
 10
-13.22482
 20
5.46468
 30
0.0
 10
-13.20263
 20
5.68169
 30
0.0
 10
-13.20263
 20
5.68169
 30
0.0
 10
-13.20263
 20
5.68169
 30
0.0
 10
-13.20263
 20
5.68169
 30
0.0
 10
-13.18054
 20
5.8977
 30
0.0
 10
-13.18054
 20
5.8977
 30
0.0
  0
SPLINE
  5
1AC
330
1F
100
AcDbEntity
  8
0
370
    15
100
AcDbSpline
210
0.0
220
0.0
230
1.0
 70
    24
 71
     3
 72
     8
 73
     4
 74
     0
 42
0.0000000001
 43
0.0000000001
 40
0.0
 40
0.0
 40
0.0
 40
0.0
 40
1.0
 40
1.0
 40
1.0
 40
1.0
 10
-13.22997
 20
5.43968
 30
0.0
 10
-13.22997
 20
5.43968
 30
0.0
 10
-13.68472
 20
5.43968
 30
0.0
 10
-13.68472
 20
5.43968
 30
0.0
  0
SPLINE
  5
1AD
330
1F
100
AcDbEntity
  8
0
370
    15
100
AcDbSpline
210
0.0
220
0.0
230
1.0
 70
     8
 71
     3
 72
     8
 73
     4
 74
     0
 42
0.0000000001
 43
0.0000000001
 40
0.0
 40
0.0
 40
0.0
 40
0.0
 40
1.0
 40
1.0
 40
1.0
 40
1.0
 10
-13.68987
 20
5.46468
 30
0.0
 10
-13.69139
 20
5.45599
 30
0.0
 10
-13.68955
 20
5.44705
 30
0.0
 10
-13.68472
 20
5.43968
 30
0.0
  0
SPLINE
  5
1AE
330
1F
100
AcDbEntity
  8
0
370
    15
100
AcDbSpline
210
0.0
220
0.0
230
1.0
 70
     8
 71
     3
 72
     8
 73
     4
 74
     0
 42
0.0000000001
 43
0.0000000001
 40
0.0
 40
0.0
 40
0.0
 40
0.0
 40
1.0
 40
1.0
 40
1.0
 40
1.0
 10
-13.22997
 20
5.43968
 30
0.0
 10
-13.22514
 20
5.44705
 30
0.0
 10
-13.2233
 20
5.45599
 30
0.0
 10
-13.22482
 20
5.46468
 30
0.0
  0
SPLINE
  5
1AF
330
1F
100
AcDbEntity
  8
0
370
    15
100
AcDbSpline
210
0.0
220
0.0
230
1.0
 70
     8
 71
     3
 72
    24
 73
    20
 74
     0
 42
0.0000000001
 43
0.0000000001
 40
0.0
 40
0.0
 40
0.0
 40
0.0
 40
0.1666666666666667
 40
0.1666666666666667
 40
0.1666666666666667
 40
0.1666666666666667
 40
0.3333333333333333
 40
0.3333333333333333
 40
0.3333333333333333
 40
0.3333333333333333
 40
0.5
 40
0.5
 40
0.5
 40
0.5
 40
0.6666666666666666
 40
0.6666666666666666
 40
0.6666666666666666
 40
0.6666666666666666
 40
1.0
 40
1.0
 40
1.0
 40
1.0
 10
-14.85695
 20
5.93012
 30
0.0
 10
-14.88371
 20
5.93108
 30
0.0
 10
-14.91047
 20
5.93203
 30
0.0
 10
-14.93558
 20
5.93296
 30
0.0
 10
-14.93558
 20
5.93296
 30
0.0
 10
-14.96074
 20
5.93388
 30
0.0
 10
-14.98423
 20
5.93478
 30
0.0
 10
-15.00477
 20
5.93557
 30
0.0
 10
-15.00477
 20
5.93557
 30
0.0
 10
-15.02514
 20
5.93636
 30
0.0
 10
-15.04261
 20
5.93705
 30
0.0
 10
-15.05658
 20
5.93761
 30
0.0
 10
-15.05658
 20
5.93761
 30
0.0
 10
-15.07094
 20
5.93819
 30
0.0
 10
-15.08162
 20
5.93862
 30
0.0
 10
-15.08624
 20
5.93881
 30
0.0
 10
-15.08624
 20
5.93881
 30
0.0
 10
-15.0886
 20
5.93891
 30
0.0
 10
-15.08938
 20
5.93894
 30
0.0
 10
-15.09017
 20
5.93897
 30
0.0
  0
SPLINE
  5
1B0
330
1F
100
AcDbEntity
  8
0
370
    15
100
AcDbSpline
210
0.0
220
0.0
230
1.0
 70
     8
 71
     3
 72
     8
 73
     4
 74
     0
 42
0.0000000001
 43
0.0000000001
 40
0.0
 40
0.0
 40
0.0
 40
0.0
 40
1.0
 40
1.0
 40
1.0
 40
1.0
 10
-15.11295
 20
5.95631
 30
0.0
 10
-15.10974
 20
5.94633
 30
0.0
 10
-15.10065
 20
5.9394
 30
0.0
 10
-15.09017
 20
5.93897
 30
0.0
  0
SPLINE
  5
1B1
330
1F
100
AcDbEntity
  8
0
370
    15
100
AcDbSpline
210
0.0
220
0.0
230
1.0
 70
     8
 71
     3
 72
     8
 73
     4
 74
     0
 42
0.0000000001
 43
0.0000000001
 40
0.0
 40
0.0
 40
0.0
 40
0.0
 40
1.0
 40
1.0
 40
1.0
 40
1.0
 10
-14.8569
 20
5.9473
 30
0.0
 10
-14.85722
 20
5.94158
 30
0.0
 10
-14.85724
 20
5.93585
 30
0.0
 10
-14.85695
 20
5.93012
 30
0.0
  0
SPLINE
  5
1B2
330
1F
100
AcDbEntity
  8
0
370
    15
100
AcDbSpline
210
0.0
220
0.0
230
1.0
 70
     8
 71
     3
 72
     8
 73
     4
 74
     0
 42
0.0000000001
 43
0.0000000001
 40
0.0
 40
0.0
 40
0.0
 40
0.0
 40
1.0
 40
1.0
 40
1.0
 40
1.0
 10
-11.82452
 20
5.93897
 30
0.0
 10
-11.81404
 20
5.9394
 30
0.0
 10
-11.80495
 20
5.94632
 30
0.0
 10
-11.80174
 20
5.95631
 30
0.0
  0
SPLINE
  5
1B3
330
1F
100
AcDbEntity
  8
0
370
    15
100
AcDbSpline
210
0.0
220
0.0
230
1.0
 70
     8
 71
     3
 72
    24
 73
    20
 74
     0
 42
0.0000000001
 43
0.0000000001
 40
0.0
 40
0.0
 40
0.0
 40
0.0
 40
0.1666666666666667
 40
0.1666666666666667
 40
0.1666666666666667
 40
0.1666666666666667
 40
0.3333333333333333
 40
0.3333333333333333
 40
0.3333333333333333
 40
0.3333333333333333
 40
0.5
 40
0.5
 40
0.5
 40
0.5
 40
0.6666666666666666
 40
0.6666666666666666
 40
0.6666666666666666
 40
0.6666666666666666
 40
1.0
 40
1.0
 40
1.0
 40
1.0
 10
-11.82452
 20
5.93897
 30
0.0
 10
-11.8274
 20
5.93885
 30
0.0
 10
-11.83027
 20
5.93874
 30
0.0
 10
-11.83886
 20
5.93839
 30
0.0
 10
-11.83886
 20
5.93839
 30
0.0
 10
-11.84732
 20
5.93805
 30
0.0
 10
-11.86131
 20
5.93748
 30
0.0
 10
-11.87819
 20
5.93681
 30
0.0
 10
-11.87819
 20
5.93681
 30
0.0
 10
-11.89554
 20
5.93613
 30
0.0
 10
-11.91595
 20
5.93533
 30
0.0
 10
-11.93892
 20
5.93446
 30
0.0
 10
-11.93892
 20
5.93446
 30
0.0
 10
-11.9621
 20
5.93358
 30
0.0
 10
-11.9879
 20
5.93262
 30
0.0
 10
-12.01452
 20
5.93166
 30
0.0
 10
-12.01452
 20
5.93166
 30
0.0
 10
-12.02877
 20
5.93115
 30
0.0
 10
-12.04325
 20
5.93064
 30
0.0
 10
-12.05773
 20
5.93013
 30
0.0
  0
SPLINE
  5
1B4
330
1F
100
AcDbEntity
  8
0
370
    15
100
AcDbSpline
210
0.0
220
0.0
230
1.0
 70
     8
 71
     3
 72
     8
 73
     4
 74
     0
 42
0.0000000001
 43
0.0000000001
 40
0.0
 40
0.0
 40
0.0
 40
0.0
 40
1.0
 40
1.0
 40
1.0
 40
1.0
 10
-12.05773
 20
5.93013
 30
0.0
 10
-12.05744
 20
5.93585
 30
0.0
 10
-12.05746
 20
5.94158
 30
0.0
 10
-12.05778
 20
5.9473
 30
0.0
  0
SPLINE
  5
1B5
330
1F
100
AcDbEntity
  8
0
370
    15
100
AcDbSpline
210
0.0
220
0.0
230
1.0
 70
     8
 71
     3
 72
     8
 73
     4
 74
     0
 42
0.0000000001
 43
0.0000000001
 40
0.0
 40
0.0
 40
0.0
 40
0.0
 40
1.0
 40
1.0
 40
1.0
 40
1.0
 10
-13.20509
 20
5.46219
 30
0.0
 10
-13.21163
 20
5.46332
 30
0.0
 10
-13.21821
 20
5.46415
 30
0.0
 10
-13.22482
 20
5.46468
 30
0.0
  0
SPLINE
  5
1B6
330
1F
100
AcDbEntity
  8
0
370
    15
100
AcDbSpline
210
0.0
220
0.0
230
1.0
 70
     8
 71
     3
 72
     8
 73
     4
 74
     0
 42
0.0000000001
 43
0.0000000001
 40
0.0
 40
0.0
 40
0.0
 40
0.0
 40
1.0
 40
1.0
 40
1.0
 40
1.0
 10
-13.22997
 20
5.43968
 30
0.0
 10
-13.21712
 20
5.43968
 30
0.0
 10
-13.20637
 20
5.44941
 30
0.0
 10
-13.20509
 20
5.46219
 30
0.0
  0
SPLINE
  5
1B7
330
1F
100
AcDbEntity
  8
0
370
    15
100
AcDbSpline
210
0.0
220
0.0
230
1.0
 70
     8
 71
     3
 72
    12
 73
     8
 74
     0
 42
0.0000000001
 43
0.0000000001
 40
0.0
 40
0.0
 40
0.0
 40
0.0
 40
0.3333333333333333
 40
0.3333333333333333
 40
0.3333333333333333
 40
0.3333333333333333
 40
1.0
 40
1.0
 40
1.0
 40
1.0
 10
-13.16956
 20
5.81746
 30
0.0
 10
-13.16956
 20
5.81746
 30
0.0
 10
-13.18729
 20
5.64016
 30
0.0
 10
-13.18729
 20
5.64016
 30
0.0
 10
-13.18729
 20
5.64016
 30
0.0
 10
-13.18729
 20
5.64016
 30
0.0
 10
-13.20509
 20
5.46219
 30
0.0
 10
-13.20509
 20
5.46219
 30
0.0
  0
SPLINE
  5
1B8
330
1F
100
AcDbEntity
  8
0
370
    15
100
AcDbSpline
210
0.0
220
0.0
230
1.0
 70
    24
 71
     3
 72
     8
 73
     4
 74
     0
 42
0.0000000001
 43
0.0000000001
 40
0.0
 40
0.0
 40
0.0
 40
0.0
 40
1.0
 40
1.0
 40
1.0
 40
1.0
 10
-13.1793
 20
5.89105
 30
0.0
 10
-13.1793
 20
5.89105
 30
0.0
 10
-13.18054
 20
5.8977
 30
0.0
 10
-13.18054
 20
5.8977
 30
0.0
  0
SPLINE
  5
1B9
330
1F
100
AcDbEntity
  8
0
370
    15
100
AcDbSpline
210
0.0
220
0.0
230
1.0
 70
     8
 71
     3
 72
    12
 73
     8
 74
     0
 42
0.0000000001
 43
0.0000000001
 40
0.0
 40
0.0
 40
0.0
 40
0.0
 40
0.3333333333333333
 40
0.3333333333333333
 40
0.3333333333333333
 40
0.3333333333333333
 40
1.0
 40
1.0
 40
1.0
 40
1.0
 10
-13.17694
 20
5.87428
 30
0.0
 10
-13.17708
 20
5.87527
 30
0.0
 10
-13.17721
 20
5.87626
 30
0.0
 10
-13.17735
 20
5.87725
 30
0.0
 10
-13.17735
 20
5.87725
 30
0.0
 10
-13.17797
 20
5.88184
 30
0.0
 10
-13.17864
 20
5.88645
 30
0.0
 10
-13.1793
 20
5.89105
 30
0.0
  0
SPLINE
  5
1BA
330
1F
100
AcDbEntity
  8
0
370
    15
100
AcDbSpline
210
0.0
220
0.0
230
1.0
 70
     8
 71
     3
 72
    28
 73
    24
 74
     0
 42
0.0000000001
 43
0.0000000001
 40
0.0
 40
0.0
 40
0.0
 40
0.0
 40
0.1428571428571428
 40
0.1428571428571428
 40
0.1428571428571428
 40
0.1428571428571428
 40
0.2857142857142857
 40
0.2857142857142857
 40
0.2857142857142857
 40
0.2857142857142857
 40
0.4285714285714285
 40
0.4285714285714285
 40
0.4285714285714285
 40
0.4285714285714285
 40
0.5714285714285714
 40
0.5714285714285714
 40
0.5714285714285714
 40
0.5714285714285714
 40
0.7142857142857143
 40
0.7142857142857143
 40
0.7142857142857143
 40
0.7142857142857143
 40
1.0
 40
1.0
 40
1.0
 40
1.0
 10
-13.16957
 20
5.81743
 30
0.0
 10
-13.16958
 20
5.81747
 30
0.0
 10
-13.16959
 20
5.81751
 30
0.0
 10
-13.16962
 20
5.81768
 30
0.0
 10
-13.16962
 20
5.81768
 30
0.0
 10
-13.16965
 20
5.81785
 30
0.0
 10
-13.1697
 20
5.81815
 30
0.0
 10
-13.16975
 20
5.81851
 30
0.0
 10
-13.16975
 20
5.81851
 30
0.0
 10
-13.16985
 20
5.81924
 30
0.0
 10
-13.16996
 20
5.82022
 30
0.0
 10
-13.1701
 20
5.82127
 30
0.0
 10
-13.1701
 20
5.82127
 30
0.0
 10
-13.17036
 20
5.82337
 30
0.0
 10
-13.17068
 20
5.82572
 30
0.0
 10
-13.171
 20
5.82815
 30
0.0
 10
-13.171
 20
5.82815
 30
0.0
 10
-13.17163
 20
5.83297
 30
0.0
 10
-13.17226
 20
5.83808
 30
0.0
 10
-13.17291
 20
5.84323
 30
0.0
 10
-13.17291
 20
5.84323
 30
0.0
 10
-13.17419
 20
5.85347
 30
0.0
 10
-13.17557
 20
5.86387
 30
0.0
 10
-13.17694
 20
5.87428
 30
0.0
  0
SPLINE
  5
1BB
330
1F
100
AcDbEntity
  8
0
370
    15
100
AcDbSpline
210
0.0
220
0.0
230
1.0
 70
     8
 71
     3
 72
     8
 73
     4
 74
     0
 42
0.0000000001
 43
0.0000000001
 40
0.0
 40
0.0
 40
0.0
 40
0.0
 40
1.0
 40
1.0
 40
1.0
 40
1.0
 10
-13.70959
 20
5.46219
 30
0.0
 10
-13.70832
 20
5.44941
 30
0.0
 10
-13.69756
 20
5.43968
 30
0.0
 10
-13.68472
 20
5.43968
 30
0.0
  0
SPLINE
  5
1BC
330
1F
100
AcDbEntity
  8
0
370
    15
100
AcDbSpline
210
0.0
220
0.0
230
1.0
 70
     8
 71
     3
 72
     8
 73
     4
 74
     0
 42
0.0000000001
 43
0.0000000001
 40
0.0
 40
0.0
 40
0.0
 40
0.0
 40
1.0
 40
1.0
 40
1.0
 40
1.0
 10
-13.68987
 20
5.46468
 30
0.0
 10
-13.69648
 20
5.46415
 30
0.0
 10
-13.70306
 20
5.46332
 30
0.0
 10
-13.70959
 20
5.46219
 30
0.0
  0
SPLINE
  5
1BD
330
1F
100
AcDbEntity
  8
0
370
    15
100
AcDbSpline
210
0.0
220
0.0
230
1.0
 70
     8
 71
     3
 72
    12
 73
     8
 74
     0
 42
0.0000000001
 43
0.0000000001
 40
0.0
 40
0.0
 40
0.0
 40
0.0
 40
0.3333333333333333
 40
0.3333333333333333
 40
0.3333333333333333
 40
0.3333333333333333
 40
1.0
 40
1.0
 40
1.0
 40
1.0
 10
-13.70959
 20
5.46219
 30
0.0
 10
-13.70959
 20
5.46219
 30
0.0
 10
-13.72739
 20
5.64016
 30
0.0
 10
-13.72739
 20
5.64016
 30
0.0
 10
-13.72739
 20
5.64016
 30
0.0
 10
-13.72739
 20
5.64016
 30
0.0
 10
-13.74512
 20
5.81746
 30
0.0
 10
-13.74512
 20
5.81746
 30
0.0
  0
SPLINE
  5
1BE
330
1F
100
AcDbEntity
  8
0
370
    15
100
AcDbSpline
210
0.0
220
0.0
230
1.0
 70
     8
 71
     3
 72
    28
 73
    24
 74
     0
 42
0.0000000001
 43
0.0000000001
 40
0.0
 40
0.0
 40
0.0
 40
0.0
 40
0.1428571428571428
 40
0.1428571428571428
 40
0.1428571428571428
 40
0.1428571428571428
 40
0.2857142857142857
 40
0.2857142857142857
 40
0.2857142857142857
 40
0.2857142857142857
 40
0.4285714285714285
 40
0.4285714285714285
 40
0.4285714285714285
 40
0.4285714285714285
 40
0.5714285714285714
 40
0.5714285714285714
 40
0.5714285714285714
 40
0.5714285714285714
 40
0.7142857142857143
 40
0.7142857142857143
 40
0.7142857142857143
 40
0.7142857142857143
 40
1.0
 40
1.0
 40
1.0
 40
1.0
 10
-13.73776
 20
5.87418
 30
0.0
 10
-13.73913
 20
5.86377
 30
0.0
 10
-13.74051
 20
5.85336
 30
0.0
 10
-13.7418
 20
5.84312
 30
0.0
 10
-13.7418
 20
5.84312
 30
0.0
 10
-13.74244
 20
5.83799
 30
0.0
 10
-13.74306
 20
5.8329
 30
0.0
 10
-13.74369
 20
5.8281
 30
0.0
 10
-13.74369
 20
5.8281
 30
0.0
 10
-13.74401
 20
5.82569
 30
0.0
 10
-13.74433
 20
5.82335
 30
0.0
 10
-13.74459
 20
5.82126
 30
0.0
 10
-13.74459
 20
5.82126
 30
0.0
 10
-13.74472
 20
5.82022
 30
0.0
 10
-13.74484
 20
5.81924
 30
0.0
 10
-13.74494
 20
5.81851
 30
0.0
 10
-13.74494
 20
5.81851
 30
0.0
 10
-13.74499
 20
5.81815
 30
0.0
 10
-13.74503
 20
5.81786
 30
0.0
 10
-13.74506
 20
5.81769
 30
0.0
 10
-13.74506
 20
5.81769
 30
0.0
 10
-13.74509
 20
5.81751
 30
0.0
 10
-13.74511
 20
5.81747
 30
0.0
 10
-13.74512
 20
5.81743
 30
0.0
  0
SPLINE
  5
1BF
330
1F
100
AcDbEntity
  8
0
370
    15
100
AcDbSpline
210
0.0
220
0.0
230
1.0
 70
     8
 71
     3
 72
    12
 73
     8
 74
     0
 42
0.0000000001
 43
0.0000000001
 40
0.0
 40
0.0
 40
0.0
 40
0.0
 40
0.3333333333333333
 40
0.3333333333333333
 40
0.3333333333333333
 40
0.3333333333333333
 40
1.0
 40
1.0
 40
1.0
 40
1.0
 10
-13.73539
 20
5.89102
 30
0.0
 10
-13.73544
 20
5.89067
 30
0.0
 10
-13.73549
 20
5.89032
 30
0.0
 10
-13.73554
 20
5.88997
 30
0.0
 10
-13.73554
 20
5.88997
 30
0.0
 10
-13.73632
 20
5.88471
 30
0.0
 10
-13.73704
 20
5.87945
 30
0.0
 10
-13.73776
 20
5.87418
 30
0.0
  0
SPLINE
  5
1C0
330
1F
100
AcDbEntity
  8
0
370
    15
100
AcDbSpline
210
0.0
220
0.0
230
1.0
 70
    24
 71
     3
 72
     8
 73
     4
 74
     0
 42
0.0000000001
 43
0.0000000001
 40
0.0
 40
0.0
 40
0.0
 40
0.0
 40
1.0
 40
1.0
 40
1.0
 40
1.0
 10
-13.73415
 20
5.89768
 30
0.0
 10
-13.73415
 20
5.89768
 30
0.0
 10
-13.73539
 20
5.89102
 30
0.0
 10
-13.73539
 20
5.89102
 30
0.0
  0
SPLINE
  5
1C1
330
1F
100
AcDbEntity
  8
0
370
    15
100
AcDbSpline
210
0.0
220
0.0
230
1.0
 70
     8
 71
     3
 72
    20
 73
    16
 74
     0
 42
0.0000000001
 43
0.0000000001
 40
0.0
 40
0.0
 40
0.0
 40
0.0
 40
0.2
 40
0.2
 40
0.2
 40
0.2
 40
0.4
 40
0.4
 40
0.4
 40
0.4
 40
0.6
 40
0.6
 40
0.6
 40
0.6
 40
1.0
 40
1.0
 40
1.0
 40
1.0
 10
-12.05773
 20
5.93013
 30
0.0
 10
-12.15038
 20
5.92706
 30
0.0
 10
-12.24304
 20
5.924
 30
0.0
 10
-12.3357
 20
5.92136
 30
0.0
 10
-12.3357
 20
5.92136
 30
0.0
 10
-12.40765
 20
5.91931
 30
0.0
 10
-12.4796
 20
5.91751
 30
0.0
 10
-12.55156
 20
5.91589
 30
0.0
 10
-12.55156
 20
5.91589
 30
0.0
 10
-12.69973
 20
5.91255
 30
0.0
 10
-12.84791
 20
5.90996
 30
0.0
 10
-12.9961
 20
5.90829
 30
0.0
 10
-12.9961
 20
5.90829
 30
0.0
 10
-13.02107
 20
5.90801
 30
0.0
 10
-13.04605
 20
5.90775
 30
0.0
 10
-13.07103
 20
5.9075
 30
0.0
  0
SPLINE
  5
1C2
330
1F
100
AcDbEntity
  8
0
370
    15
100
AcDbSpline
210
0.0
220
0.0
230
1.0
 70
     8
 71
     3
 72
    28
 73
    24
 74
     0
 42
0.0000000001
 43
0.0000000001
 40
0.0
 40
0.0
 40
0.0
 40
0.0
 40
0.1428571428571428
 40
0.1428571428571428
 40
0.1428571428571428
 40
0.1428571428571428
 40
0.2857142857142857
 40
0.2857142857142857
 40
0.2857142857142857
 40
0.2857142857142857
 40
0.4285714285714285
 40
0.4285714285714285
 40
0.4285714285714285
 40
0.4285714285714285
 40
0.5714285714285714
 40
0.5714285714285714
 40
0.5714285714285714
 40
0.5714285714285714
 40
0.7142857142857143
 40
0.7142857142857143
 40
0.7142857142857143
 40
0.7142857142857143
 40
1.0
 40
1.0
 40
1.0
 40
1.0
 10
-13.12936
 20
5.91992
 30
0.0
 10
-13.11696
 20
5.91733
 30
0.0
 10
-13.10457
 20
5.91475
 30
0.0
 10
-13.09262
 20
5.91217
 30
0.0
 10
-13.09262
 20
5.91217
 30
0.0
 10
-13.08808
 20
5.91119
 30
0.0
 10
-13.0836
 20
5.91021
 30
0.0
 10
-13.07942
 20
5.9093
 30
0.0
 10
-13.07942
 20
5.9093
 30
0.0
 10
-13.07755
 20
5.9089
 30
0.0
 10
-13.07575
 20
5.90851
 30
0.0
 10
-13.0742
 20
5.90817
 30
0.0
 10
-13.0742
 20
5.90817
 30
0.0
 10
-13.07351
 20
5.90802
 30
0.0
 10
-13.07287
 20
5.90789
 30
0.0
 10
-13.07233
 20
5.90777
 30
0.0
 10
-13.07233
 20
5.90777
 30
0.0
 10
-13.07198
 20
5.9077
 30
0.0
 10
-13.07166
 20
5.90763
 30
0.0
 10
-13.07146
 20
5.90759
 30
0.0
 10
-13.07146
 20
5.90759
 30
0.0
 10
-13.07121
 20
5.90753
 30
0.0
 10
-13.07112
 20
5.90752
 30
0.0
 10
-13.07103
 20
5.9075
 30
0.0
  0
SPLINE
  5
1C3
330
1F
100
AcDbEntity
  8
0
370
    15
100
AcDbSpline
210
0.0
220
0.0
230
1.0
 70
    24
 71
     3
 72
     8
 73
     4
 74
     0
 42
0.0000000001
 43
0.0000000001
 40
0.0
 40
0.0
 40
0.0
 40
0.0
 40
1.0
 40
1.0
 40
1.0
 40
1.0
 10
-13.14754
 20
5.92351
 30
0.0
 10
-13.14754
 20
5.92351
 30
0.0
 10
-13.12936
 20
5.91992
 30
0.0
 10
-13.12936
 20
5.91992
 30
0.0
  0
SPLINE
  5
1C4
330
1F
100
AcDbEntity
  8
0
370
    15
100
AcDbSpline
210
0.0
220
0.0
230
1.0
 70
    24
 71
     3
 72
     8
 73
     4
 74
     0
 42
0.0000000001
 43
0.0000000001
 40
0.0
 40
0.0
 40
0.0
 40
0.0
 40
1.0
 40
1.0
 40
1.0
 40
1.0
 10
-13.78542
 20
5.9199
 30
0.0
 10
-13.78542
 20
5.9199
 30
0.0
 10
-13.76715
 20
5.92351
 30
0.0
 10
-13.76715
 20
5.92351
 30
0.0
  0
SPLINE
  5
1C5
330
1F
100
AcDbEntity
  8
0
370
    15
100
AcDbSpline
210
0.0
220
0.0
230
1.0
 70
     8
 71
     3
 72
    28
 73
    24
 74
     0
 42
0.0000000001
 43
0.0000000001
 40
0.0
 40
0.0
 40
0.0
 40
0.0
 40
0.1428571428571428
 40
0.1428571428571428
 40
0.1428571428571428
 40
0.1428571428571428
 40
0.2857142857142857
 40
0.2857142857142857
 40
0.2857142857142857
 40
0.2857142857142857
 40
0.4285714285714285
 40
0.4285714285714285
 40
0.4285714285714285
 40
0.4285714285714285
 40
0.5714285714285714
 40
0.5714285714285714
 40
0.5714285714285714
 40
0.5714285714285714
 40
0.7142857142857143
 40
0.7142857142857143
 40
0.7142857142857143
 40
0.7142857142857143
 40
1.0
 40
1.0
 40
1.0
 40
1.0
 10
-13.84366
 20
5.9075
 30
0.0
 10
-13.84357
 20
5.90752
 30
0.0
 10
-13.84348
 20
5.90753
 30
0.0
 10
-13.84323
 20
5.90759
 30
0.0
 10
-13.84323
 20
5.90759
 30
0.0
 10
-13.84302
 20
5.90763
 30
0.0
 10
-13.84271
 20
5.9077
 30
0.0
 10
-13.84236
 20
5.90777
 30
0.0
 10
-13.84236
 20
5.90777
 30
0.0
 10
-13.84181
 20
5.90789
 30
0.0
 10
-13.84117
 20
5.90802
 30
0.0
 10
-13.84049
 20
5.90817
 30
0.0
 10
-13.84049
 20
5.90817
 30
0.0
 10
-13.83894
 20
5.9085
 30
0.0
 10
-13.83714
 20
5.90889
 30
0.0
 10
-13.83528
 20
5.9093
 30
0.0
 10
-13.83528
 20
5.9093
 30
0.0
 10
-13.8311
 20
5.9102
 30
0.0
 10
-13.82663
 20
5.91118
 30
0.0
 10
-13.8221
 20
5.91216
 30
0.0
 10
-13.8221
 20
5.91216
 30
0.0
 10
-13.81017
 20
5.91474
 30
0.0
 10
-13.79779
 20
5.91732
 30
0.0
 10
-13.78542
 20
5.9199
 30
0.0
  0
SPLINE
  5
1C6
330
1F
100
AcDbEntity
  8
0
370
    15
100
AcDbSpline
210
0.0
220
0.0
230
1.0
 70
     8
 71
     3
 72
    20
 73
    16
 74
     0
 42
0.0000000001
 43
0.0000000001
 40
0.0
 40
0.0
 40
0.0
 40
0.0
 40
0.2
 40
0.2
 40
0.2
 40
0.2
 40
0.4
 40
0.4
 40
0.4
 40
0.4
 40
0.6
 40
0.6
 40
0.6
 40
0.6
 40
1.0
 40
1.0
 40
1.0
 40
1.0
 10
-13.84366
 20
5.9075
 30
0.0
 10
-13.88241
 20
5.90791
 30
0.0
 10
-13.92117
 20
5.90832
 30
0.0
 10
-13.95992
 20
5.90879
 30
0.0
 10
-13.95992
 20
5.90879
 30
0.0
 10
-14.10811
 20
5.9106
 30
0.0
 10
-14.25629
 20
5.91335
 30
0.0
 10
-14.40445
 20
5.91685
 30
0.0
 10
-14.40445
 20
5.91685
 30
0.0
 10
-14.4685
 20
5.91836
 30
0.0
 10
-14.53255
 20
5.92001
 30
0.0
 10
-14.5966
 20
5.92186
 30
0.0
 10
-14.5966
 20
5.92186
 30
0.0
 10
-14.68339
 20
5.92437
 30
0.0
 10
-14.77017
 20
5.92725
 30
0.0
 10
-14.85695
 20
5.93012
 30
0.0
  0
SPLINE
  5
1C7
330
1F
100
AcDbEntity
  8
0
370
    15
100
AcDbSpline
210
0.0
220
0.0
230
1.0
 70
     8
 71
     3
 72
     8
 73
     4
 74
     0
 42
0.0000000001
 43
0.0000000001
 40
0.0
 40
0.0
 40
0.0
 40
0.0
 40
1.0
 40
1.0
 40
1.0
 40
1.0
 10
-13.14754
 20
5.92351
 30
0.0
 10
-13.15872
 20
5.91329
 30
0.0
 10
-13.16933
 20
5.90245
 30
0.0
 10
-13.1793
 20
5.89105
 30
0.0
  0
SPLINE
  5
1C8
330
1F
100
AcDbEntity
  8
0
370
    15
100
AcDbSpline
210
0.0
220
0.0
230
1.0
 70
     8
 71
     3
 72
     8
 73
     4
 74
     0
 42
0.0000000001
 43
0.0000000001
 40
0.0
 40
0.0
 40
0.0
 40
0.0
 40
1.0
 40
1.0
 40
1.0
 40
1.0
 10
-13.73539
 20
5.89102
 30
0.0
 10
-13.74537
 20
5.90243
 30
0.0
 10
-13.75597
 20
5.91328
 30
0.0
 10
-13.76715
 20
5.92351
 30
0.0
  0
SPLINE
  5
1C9
330
1F
100
AcDbEntity
  8
0
370
    15
100
AcDbSpline
210
0.0
220
0.0
230
1.0
 70
     8
 71
     3
 72
    12
 73
     8
 74
     0
 42
0.0000000001
 43
0.0000000001
 40
0.0
 40
0.0
 40
0.0
 40
0.0
 40
0.3333333333333333
 40
0.3333333333333333
 40
0.3333333333333333
 40
0.3333333333333333
 40
1.0
 40
1.0
 40
1.0
 40
1.0
 10
-13.73776
 20
5.87418
 30
0.0
 10
-13.74498
 20
5.88256
 30
0.0
 10
-13.7522
 20
5.89094
 30
0.0
 10
-13.76014
 20
5.89855
 30
0.0
 10
-13.76014
 20
5.89855
 30
0.0
 10
-13.76809
 20
5.90617
 30
0.0
 10
-13.77675
 20
5.91303
 30
0.0
 10
-13.78542
 20
5.9199
 30
0.0
  0
SPLINE
  5
1CA
330
1F
100
AcDbEntity
  8
0
370
    15
100
AcDbSpline
210
0.0
220
0.0
230
1.0
 70
     8
 71
     3
 72
    12
 73
     8
 74
     0
 42
0.0000000001
 43
0.0000000001
 40
0.0
 40
0.0
 40
0.0
 40
0.0
 40
0.3333333333333333
 40
0.3333333333333333
 40
0.3333333333333333
 40
0.3333333333333333
 40
1.0
 40
1.0
 40
1.0
 40
1.0
 10
-13.17694
 20
5.87428
 30
0.0
 10
-13.16973
 20
5.88264
 30
0.0
 10
-13.16251
 20
5.891
 30
0.0
 10
-13.15458
 20
5.8986
 30
0.0
 10
-13.15458
 20
5.8986
 30
0.0
 10
-13.14665
 20
5.90621
 30
0.0
 10
-13.138
 20
5.91306
 30
0.0
 10
-13.12936
 20
5.91992
 30
0.0
  0
SPLINE
  5
1CB
330
1F
100
AcDbEntity
  8
0
370
    15
100
AcDbSpline
210
0.0
220
0.0
230
1.0
 70
    27
 71
     3
 72
     8
 73
     4
 74
     0
 42
0.0000000001
 43
0.0000000001
 40
0.0
 40
0.0
 40
0.0
 40
0.0
 40
1.0
 40
1.0
 40
1.0
 40
1.0
 10
-13.07103
 20
5.9075
 30
0.0
 10
-13.07103
 20
5.9075
 30
0.0
 10
-13.07103
 20
5.9075
 30
0.0
 10
-13.07103
 20
5.9075
 30
0.0
  0
SPLINE
  5
1CC
330
1F
100
AcDbEntity
  8
0
370
    15
100
AcDbSpline
210
0.0
220
0.0
230
1.0
 70
     8
 71
     3
 72
    20
 73
    16
 74
     0
 42
0.0000000001
 43
0.0000000001
 40
0.0
 40
0.0
 40
0.0
 40
0.0
 40
0.2
 40
0.2
 40
0.2
 40
0.2
 40
0.4
 40
0.4
 40
0.4
 40
0.4
 40
0.6
 40
0.6
 40
0.6
 40
0.6
 40
1.0
 40
1.0
 40
1.0
 40
1.0
 10
-13.16957
 20
5.81745
 30
0.0
 10
-13.16706
 20
5.82945
 30
0.0
 10
-13.16456
 20
5.84145
 30
0.0
 10
-13.15944
 20
5.85235
 30
0.0
 10
-13.15944
 20
5.85235
 30
0.0
 10
-13.15433
 20
5.86324
 30
0.0
 10
-13.1466
 20
5.87302
 30
0.0
 10
-13.13752
 20
5.88132
 30
0.0
 10
-13.13752
 20
5.88132
 30
0.0
 10
-13.12844
 20
5.88962
 30
0.0
 10
-13.118
 20
5.89644
 30
0.0
 10
-13.10669
 20
5.90055
 30
0.0
 10
-13.10669
 20
5.90055
 30
0.0
 10
-13.09538
 20
5.90467
 30
0.0
 10
-13.08321
 20
5.90608
 30
0.0
 10
-13.07103
 20
5.9075
 30
0.0
  0
SPLINE
  5
1CD
330
1F
100
AcDbEntity
  8
0
370
    15
100
AcDbSpline
210
0.0
220
0.0
230
1.0
 70
     8
 71
     3
 72
    20
 73
    16
 74
     0
 42
0.0000000001
 43
0.0000000001
 40
0.0
 40
0.0
 40
0.0
 40
0.0
 40
0.2
 40
0.2
 40
0.2
 40
0.2
 40
0.4
 40
0.4
 40
0.4
 40
0.4
 40
0.6
 40
0.6
 40
0.6
 40
0.6
 40
1.0
 40
1.0
 40
1.0
 40
1.0
 10
-13.84366
 20
5.9075
 30
0.0
 10
-13.83148
 20
5.90608
 30
0.0
 10
-13.8193
 20
5.90467
 30
0.0
 10
-13.80799
 20
5.90055
 30
0.0
 10
-13.80799
 20
5.90055
 30
0.0
 10
-13.79669
 20
5.89644
 30
0.0
 10
-13.78625
 20
5.88962
 30
0.0
 10
-13.77717
 20
5.88132
 30
0.0
 10
-13.77717
 20
5.88132
 30
0.0
 10
-13.76808
 20
5.87302
 30
0.0
 10
-13.76036
 20
5.86324
 30
0.0
 10
-13.75524
 20
5.85235
 30
0.0
 10
-13.75524
 20
5.85235
 30
0.0
 10
-13.75013
 20
5.84145
 30
0.0
 10
-13.74762
 20
5.82945
 30
0.0
 10
-13.74512
 20
5.81745
 30
0.0
  0
SPLINE
  5
1CE
330
1F
100
AcDbEntity
  8
0
370
    15
100
AcDbSpline
210
0.0
220
0.0
230
1.0
 70
    24
 71
     3
 72
     8
 73
     4
 74
     0
 42
0.0000000001
 43
0.0000000001
 40
0.0
 40
0.0
 40
0.0
 40
0.0
 40
1.0
 40
1.0
 40
1.0
 40
1.0
 10
-13.26985
 20
6.43968
 30
0.0
 10
-13.26985
 20
6.43968
 30
0.0
 10
-13.64483
 20
6.43968
 30
0.0
 10
-13.64483
 20
6.43968
 30
0.0
  0
SPLINE
  5
1CF
330
1F
100
AcDbEntity
  8
0
370
    15
100
AcDbSpline
210
0.0
220
0.0
230
1.0
 70
    24
 71
     3
 72
     8
 73
     4
 74
     0
 42
0.0000000001
 43
0.0000000001
 40
0.0
 40
0.0
 40
0.0
 40
0.0
 40
1.0
 40
1.0
 40
1.0
 40
1.0
 10
-13.26985
 20
6.33968
 30
0.0
 10
-13.26985
 20
6.33968
 30
0.0
 10
-13.26985
 20
6.43968
 30
0.0
 10
-13.26985
 20
6.43968
 30
0.0
  0
SPLINE
  5
1D0
330
1F
100
AcDbEntity
  8
0
370
    15
100
AcDbSpline
210
0.0
220
0.0
230
1.0
 70
    24
 71
     3
 72
     8
 73
     4
 74
     0
 42
0.0000000001
 43
0.0000000001
 40
0.0
 40
0.0
 40
0.0
 40
0.0
 40
1.0
 40
1.0
 40
1.0
 40
1.0
 10
-13.64483
 20
6.43968
 30
0.0
 10
-13.64483
 20
6.43968
 30
0.0
 10
-13.64483
 20
6.33968
 30
0.0
 10
-13.64483
 20
6.33968
 30
0.0
  0
SPLINE
  5
1D1
330
1F
100
AcDbEntity
  8
0
370
    15
100
AcDbSpline
210
0.0
220
0.0
230
1.0
 70
    24
 71
     3
 72
     8
 73
     4
 74
     0
 42
0.0000000001
 43
0.0000000001
 40
0.0
 40
0.0
 40
0.0
 40
0.0
 40
1.0
 40
1.0
 40
1.0
 40
1.0
 10
-12.00734
 20
6.33968
 30
0.0
 10
-12.00734
 20
6.33968
 30
0.0
 10
-12.00734
 20
6.43968
 30
0.0
 10
-12.00734
 20
6.43968
 30
0.0
  0
SPLINE
  5
1D2
330
1F
100
AcDbEntity
  8
0
370
    15
100
AcDbSpline
210
0.0
220
0.0
230
1.0
 70
    24
 71
     3
 72
     8
 73
     4
 74
     0
 42
0.0000000001
 43
0.0000000001
 40
0.0
 40
0.0
 40
0.0
 40
0.0
 40
1.0
 40
1.0
 40
1.0
 40
1.0
 10
-12.00734
 20
6.43968
 30
0.0
 10
-12.00734
 20
6.43968
 30
0.0
 10
-11.85734
 20
6.43968
 30
0.0
 10
-11.85734
 20
6.43968
 30
0.0
  0
SPLINE
  5
1D3
330
1F
100
AcDbEntity
  8
0
370
    15
100
AcDbSpline
210
0.0
220
0.0
230
1.0
 70
    24
 71
     3
 72
     8
 73
     4
 74
     0
 42
0.0000000001
 43
0.0000000001
 40
0.0
 40
0.0
 40
0.0
 40
0.0
 40
1.0
 40
1.0
 40
1.0
 40
1.0
 10
-11.85734
 20
6.43968
 30
0.0
 10
-11.85734
 20
6.43968
 30
0.0
 10
-11.85734
 20
6.33968
 30
0.0
 10
-11.85734
 20
6.33968
 30
0.0
  0
SPLINE
  5
1D4
330
1F
100
AcDbEntity
  8
0
370
    15
100
AcDbSpline
210
0.0
220
0.0
230
1.0
 70
    24
 71
     3
 72
     8
 73
     4
 74
     0
 42
0.0000000001
 43
0.0000000001
 40
0.0
 40
0.0
 40
0.0
 40
0.0
 40
1.0
 40
1.0
 40
1.0
 40
1.0
 10
-14.90734
 20
6.43968
 30
0.0
 10
-14.90734
 20
6.43968
 30
0.0
 10
-14.90734
 20
6.33968
 30
0.0
 10
-14.90734
 20
6.33968
 30
0.0
  0
SPLINE
  5
1D5
330
1F
100
AcDbEntity
  8
0
370
    15
100
AcDbSpline
210
0.0
220
0.0
230
1.0
 70
    24
 71
     3
 72
     8
 73
     4
 74
     0
 42
0.0000000001
 43
0.0000000001
 40
0.0
 40
0.0
 40
0.0
 40
0.0
 40
1.0
 40
1.0
 40
1.0
 40
1.0
 10
-14.90734
 20
6.43968
 30
0.0
 10
-14.90734
 20
6.43968
 30
0.0
 10
-13.64483
 20
6.43968
 30
0.0
 10
-13.64483
 20
6.43968
 30
0.0
  0
SPLINE
  5
1D6
330
1F
100
AcDbEntity
  8
0
370
    15
100
AcDbSpline
210
0.0
220
0.0
230
1.0
 70
    24
 71
     3
 72
     8
 73
     4
 74
     0
 42
0.0000000001
 43
0.0000000001
 40
0.0
 40
0.0
 40
0.0
 40
0.0
 40
1.0
 40
1.0
 40
1.0
 40
1.0
 10
-15.05734
 20
6.33968
 30
0.0
 10
-15.05734
 20
6.33968
 30
0.0
 10
-15.05734
 20
6.43968
 30
0.0
 10
-15.05734
 20
6.43968
 30
0.0
  0
SPLINE
  5
1D7
330
1F
100
AcDbEntity
  8
0
370
    15
100
AcDbSpline
210
0.0
220
0.0
230
1.0
 70
    24
 71
     3
 72
     8
 73
     4
 74
     0
 42
0.0000000001
 43
0.0000000001
 40
0.0
 40
0.0
 40
0.0
 40
0.0
 40
1.0
 40
1.0
 40
1.0
 40
1.0
 10
-15.05734
 20
6.43968
 30
0.0
 10
-15.05734
 20
6.43968
 30
0.0
 10
-14.90734
 20
6.43968
 30
0.0
 10
-14.90734
 20
6.43968
 30
0.0
  0
SPLINE
  5
1D8
330
1F
100
AcDbEntity
  8
0
370
    15
100
AcDbSpline
210
0.0
220
0.0
230
1.0
 70
    24
 71
     3
 72
     8
 73
     4
 74
     0
 42
0.0000000001
 43
0.0000000001
 40
0.0
 40
0.0
 40
0.0
 40
0.0
 40
1.0
 40
1.0
 40
1.0
 40
1.0
 10
-13.26985
 20
6.43968
 30
0.0
 10
-13.26985
 20
6.43968
 30
0.0
 10
-12.00734
 20
6.43968
 30
0.0
 10
-12.00734
 20
6.43968
 30
0.0
  0
SPLINE
  5
1D9
330
1F
100
AcDbEntity
  8
0
370
    15
100
AcDbSpline
210
0.0
220
0.0
230
1.0
 70
    27
 71
     3
 72
     8
 73
     4
 74
     0
 42
0.0000000001
 43
0.0000000001
 40
0.0
 40
0.0
 40
0.0
 40
0.0
 40
1.0
 40
1.0
 40
1.0
 40
1.0
 10
-14.73132
 20
6.33616
 30
0.0
 10
-14.73132
 20
6.33616
 30
0.0
 10
-14.73132
 20
6.33616
 30
0.0
 10
-14.73132
 20
6.33616
 30
0.0
  0
SPLINE
  5
1DA
330
1F
100
AcDbEntity
  8
0
370
    15
100
AcDbSpline
210
0.0
220
0.0
230
1.0
 70
    24
 71
     3
 72
     8
 73
     4
 74
     0
 42
0.0000000001
 43
0.0000000001
 40
0.0
 40
0.0
 40
0.0
 40
0.0
 40
1.0
 40
1.0
 40
1.0
 40
1.0
 10
-14.73131
 20
6.45469
 30
0.0
 10
-14.73131
 20
6.45469
 30
0.0
 10
-14.74484
 20
6.45469
 30
0.0
 10
-14.74484
 20
6.45469
 30
0.0
  0
SPLINE
  5
1DB
330
1F
100
AcDbEntity
  8
0
370
    15
100
AcDbSpline
210
0.0
220
0.0
230
1.0
 70
    24
 71
     3
 72
     8
 73
     4
 74
     0
 42
0.0000000001
 43
0.0000000001
 40
0.0
 40
0.0
 40
0.0
 40
0.0
 40
1.0
 40
1.0
 40
1.0
 40
1.0
 10
-14.73131
 20
6.45469
 30
0.0
 10
-14.73131
 20
6.45469
 30
0.0
 10
-14.73131
 20
6.43968
 30
0.0
 10
-14.73131
 20
6.43968
 30
0.0
  0
SPLINE
  5
1DC
330
1F
100
AcDbEntity
  8
0
370
    15
100
AcDbSpline
210
0.0
220
0.0
230
1.0
 70
    24
 71
     3
 72
     8
 73
     4
 74
     0
 42
0.0000000001
 43
0.0000000001
 40
0.0
 40
0.0
 40
0.0
 40
0.0
 40
1.0
 40
1.0
 40
1.0
 40
1.0
 10
-14.74484
 20
6.45469
 30
0.0
 10
-14.74484
 20
6.45469
 30
0.0
 10
-14.74484
 20
6.43968
 30
0.0
 10
-14.74484
 20
6.43968
 30
0.0
  0
SPLINE
  5
1DD
330
1F
100
AcDbEntity
  8
0
370
    15
100
AcDbSpline
210
0.0
220
0.0
230
1.0
 70
    24
 71
     3
 72
     8
 73
     4
 74
     0
 42
0.0000000001
 43
0.0000000001
 40
0.0
 40
0.0
 40
0.0
 40
0.0
 40
1.0
 40
1.0
 40
1.0
 40
1.0
 10
-12.18338
 20
6.45469
 30
0.0
 10
-12.18338
 20
6.45469
 30
0.0
 10
-14.73131
 20
6.45469
 30
0.0
 10
-14.73131
 20
6.45469
 30
0.0
  0
SPLINE
  5
1DE
330
1F
100
AcDbEntity
  8
0
370
    15
100
AcDbSpline
210
0.0
220
0.0
230
1.0
 70
    24
 71
     3
 72
     8
 73
     4
 74
     0
 42
0.0000000001
 43
0.0000000001
 40
0.0
 40
0.0
 40
0.0
 40
0.0
 40
1.0
 40
1.0
 40
1.0
 40
1.0
 10
-12.18338
 20
6.43968
 30
0.0
 10
-12.18338
 20
6.43968
 30
0.0
 10
-12.18338
 20
6.45469
 30
0.0
 10
-12.18338
 20
6.45469
 30
0.0
  0
SPLINE
  5
1DF
330
1F
100
AcDbEntity
  8
0
370
    15
100
AcDbSpline
210
0.0
220
0.0
230
1.0
 70
    24
 71
     3
 72
     8
 73
     4
 74
     0
 42
0.0000000001
 43
0.0000000001
 40
0.0
 40
0.0
 40
0.0
 40
0.0
 40
1.0
 40
1.0
 40
1.0
 40
1.0
 10
-12.18338
 20
6.45469
 30
0.0
 10
-12.18338
 20
6.45469
 30
0.0
 10
-12.16984
 20
6.45469
 30
0.0
 10
-12.16984
 20
6.45469
 30
0.0
  0
SPLINE
  5
1E0
330
1F
100
AcDbEntity
  8
0
370
    15
100
AcDbSpline
210
0.0
220
0.0
230
1.0
 70
    24
 71
     3
 72
     8
 73
     4
 74
     0
 42
0.0000000001
 43
0.0000000001
 40
0.0
 40
0.0
 40
0.0
 40
0.0
 40
1.0
 40
1.0
 40
1.0
 40
1.0
 10
-12.16984
 20
6.43968
 30
0.0
 10
-12.16984
 20
6.43968
 30
0.0
 10
-12.16984
 20
6.45469
 30
0.0
 10
-12.16984
 20
6.45469
 30
0.0
  0
SPLINE
  5
1E1
330
1F
100
AcDbEntity
  8
0
 62
     8
370
    15
100
AcDbSpline
210
0.0
220
0.0
230
1.0
 70
    24
 71
     3
 72
     8
 73
     4
 74
     0
 42
0.0000000001
 43
0.0000000001
 40
0.0
 40
0.0
 40
0.0
 40
0.0
 40
1.0
 40
1.0
 40
1.0
 40
1.0
 10
-15.11312
 20
5.9563
 30
0.0
 10
-15.11312
 20
5.9563
 30
0.0
 10
-15.11295
 20
5.95631
 30
0.0
 10
-15.11295
 20
5.95631
 30
0.0
  0
SPLINE
  5
1E2
330
1F
100
AcDbEntity
  8
0
 62
     8
370
    15
100
AcDbSpline
210
0.0
220
0.0
230
1.0
 70
     8
 71
     3
 72
    12
 73
     8
 74
     0
 42
0.0000000001
 43
0.0000000001
 40
0.0
 40
0.0
 40
0.0
 40
0.0
 40
0.3333333333333333
 40
0.3333333333333333
 40
0.3333333333333333
 40
0.3333333333333333
 40
1.0
 40
1.0
 40
1.0
 40
1.0
 10
-11.80176
 20
5.9563
 30
0.0
 10
-11.80176
 20
5.9563
 30
0.0
 10
-11.80172
 20
5.95631
 30
0.0
 10
-11.80172
 20
5.95631
 30
0.0
 10
-11.80172
 20
5.95631
 30
0.0
 10
-11.80172
 20
5.95631
 30
0.0
 10
-11.80173
 20
5.95631
 30
0.0
 10
-11.80173
 20
5.95631
 30
0.0
  0
SPLINE
  5
1E3
330
1F
100
AcDbEntity
  8
0
 62
     8
370
    15
100
AcDbSpline
210
0.0
220
0.0
230
1.0
 70
    24
 71
     3
 72
     8
 73
     4
 74
     0
 42
0.0000000001
 43
0.0000000001
 40
0.0
 40
0.0
 40
0.0
 40
0.0
 40
1.0
 40
1.0
 40
1.0
 40
1.0
 10
-11.98407
 20
6.33795
 30
0.0
 10
-11.98407
 20
6.33795
 30
0.0
 10
-11.98281
 20
6.33922
 30
0.0
 10
-11.98281
 20
6.33922
 30
0.0
  0
SPLINE
  5
1E4
330
1F
100
AcDbEntity
  8
0
100
AcDbSpline
210
0.0
220
0.0
230
1.0
 70
    27
 71
     3
 72
    12
 73
     8
 74
     0
 42
0.0000000001
 43
0.0000000001
 40
0.0
 40
0.0
 40
0.0
 40
0.0
 40
0.3333333333333333
 40
0.3333333333333333
 40
0.3333333333333333
 40
0.3333333333333333
 40
1.0
 40
1.0
 40
1.0
 40
1.0
 10
-13.60734
 20
0.09612
 30
0.0
 10
-13.60734
 20
0.09612
 30
0.0
 10
-13.93754
 20
0.04532
 30
0.0
 10
-13.93754
 20
0.04532
 30
0.0
 10
-13.93754
 20
0.04532
 30
0.0
 10
-13.93754
 20
0.04532
 30
0.0
 10
-13.60734
 20
0.09612
 30
0.0
 10
-13.60734
 20
0.09612
 30
0.0
  0
SPLINE
  5
1E5
330
1F
100
AcDbEntity
  8
0
100
AcDbSpline
210
0.0
220
0.0
230
1.0
 70
     8
 71
     3
 72
    12
 73
     8
 74
     0
 42
0.0000000001
 43
0.0000000001
 40
0.0
 40
0.0
 40
0.0
 40
0.0
 40
0.3333333333333333
 40
0.3333333333333333
 40
0.3333333333333333
 40
0.3333333333333333
 40
1.0
 40
1.0
 40
1.0
 40
1.0
 10
-13.93754
 20
0.04532
 30
0.0
 10
-13.93754
 20
0.04532
 30
0.0
 10
-13.93754
 20
0.14692
 30
0.0
 10
-13.93754
 20
0.14692
 30
0.0
 10
-13.93754
 20
0.14692
 30
0.0
 10
-13.93754
 20
0.14692
 30
0.0
 10
-13.60734
 20
0.09612
 30
0.0
 10
-13.60734
 20
0.09612
 30
0.0
  0
SPLINE
  5
1E6
330
1F
100
AcDbEntity
  8
0
370
     9
100
AcDbSpline
210
0.0
220
0.0
230
1.0
 70
    24
 71
     3
 72
     8
 73
     4
 74
     0
 42
0.0000000001
 43
0.0000000001
 40
0.0
 40
0.0
 40
0.0
 40
0.0
 40
1.0
 40
1.0
 40
1.0
 40
1.0
 10
-13.60734
 20
0.09612
 30
0.0
 10
-13.60734
 20
0.09612
 30
0.0
 10
-13.93754
 20
0.04532
 30
0.0
 10
-13.93754
 20
0.04532
 30
0.0
  0
SPLINE
  5
1E7
330
1F
100
AcDbEntity
  8
0
370
     9
100
AcDbSpline
210
0.0
220
0.0
230
1.0
 70
     8
 71
     3
 72
    12
 73
     8
 74
     0
 42
0.0000000001
 43
0.0000000001
 40
0.0
 40
0.0
 40
0.0
 40
0.0
 40
0.3333333333333333
 40
0.3333333333333333
 40
0.3333333333333333
 40
0.3333333333333333
 40
1.0
 40
1.0
 40
1.0
 40
1.0
 10
-13.93754
 20
0.04532
 30
0.0
 10
-13.93754
 20
0.04532
 30
0.0
 10
-13.93754
 20
0.14692
 30
0.0
 10
-13.93754
 20
0.14692
 30
0.0
 10
-13.93754
 20
0.14692
 30
0.0
 10
-13.93754
 20
0.14692
 30
0.0
 10
-13.60734
 20
0.09612
 30
0.0
 10
-13.60734
 20
0.09612
 30
0.0
  0
SPLINE
  5
1E8
330
1F
100
AcDbEntity
  8
0
100
AcDbSpline
210
0.0
220
0.0
230
1.0
 70
    27
 71
     3
 72
    12
 73
     8
 74
     0
 42
0.0000000001
 43
0.0000000001
 40
0.0
 40
0.0
 40
0.0
 40
0.0
 40
0.3333333333333333
 40
0.3333333333333333
 40
0.3333333333333333
 40
0.3333333333333333
 40
1.0
 40
1.0
 40
1.0
 40
1.0
 10
-13.30734
 20
0.09612
 30
0.0
 10
-13.30734
 20
0.09612
 30
0.0
 10
-12.97714
 20
0.14692
 30
0.0
 10
-12.97714
 20
0.14692
 30
0.0
 10
-12.97714
 20
0.14692
 30
0.0
 10
-12.97714
 20
0.14692
 30
0.0
 10
-13.30734
 20
0.09612
 30
0.0
 10
-13.30734
 20
0.09612
 30
0.0
  0
SPLINE
  5
1E9
330
1F
100
AcDbEntity
  8
0
100
AcDbSpline
210
0.0
220
0.0
230
1.0
 70
     8
 71
     3
 72
    12
 73
     8
 74
     0
 42
0.0000000001
 43
0.0000000001
 40
0.0
 40
0.0
 40
0.0
 40
0.0
 40
0.3333333333333333
 40
0.3333333333333333
 40
0.3333333333333333
 40
0.3333333333333333
 40
1.0
 40
1.0
 40
1.0
 40
1.0
 10
-12.97714
 20
0.14692
 30
0.0
 10
-12.97714
 20
0.14692
 30
0.0
 10
-12.97714
 20
0.04532
 30
0.0
 10
-12.97714
 20
0.04532
 30
0.0
 10
-12.97714
 20
0.04532
 30
0.0
 10
-12.97714
 20
0.04532
 30
0.0
 10
-13.30734
 20
0.09612
 30
0.0
 10
-13.30734
 20
0.09612
 30
0.0
  0
SPLINE
  5
1EA
330
1F
100
AcDbEntity
  8
0
370
     9
100
AcDbSpline
210
0.0
220
0.0
230
1.0
 70
    24
 71
     3
 72
     8
 73
     4
 74
     0
 42
0.0000000001
 43
0.0000000001
 40
0.0
 40
0.0
 40
0.0
 40
0.0
 40
1.0
 40
1.0
 40
1.0
 40
1.0
 10
-13.30734
 20
0.09612
 30
0.0
 10
-13.30734
 20
0.09612
 30
0.0
 10
-12.97714
 20
0.14692
 30
0.0
 10
-12.97714
 20
0.14692
 30
0.0
  0
SPLINE
  5
1EB
330
1F
100
AcDbEntity
  8
0
370
     9
100
AcDbSpline
210
0.0
220
0.0
230
1.0
 70
     8
 71
     3
 72
    12
 73
     8
 74
     0
 42
0.0000000001
 43
0.0000000001
 40
0.0
 40
0.0
 40
0.0
 40
0.0
 40
0.3333333333333333
 40
0.3333333333333333
 40
0.3333333333333333
 40
0.3333333333333333
 40
1.0
 40
1.0
 40
1.0
 40
1.0
 10
-12.97714
 20
0.14692
 30
0.0
 10
-12.97714
 20
0.14692
 30
0.0
 10
-12.97714
 20
0.04532
 30
0.0
 10
-12.97714
 20
0.04532
 30
0.0
 10
-12.97714
 20
0.04532
 30
0.0
 10
-12.97714
 20
0.04532
 30
0.0
 10
-13.30734
 20
0.09612
 30
0.0
 10
-13.30734
 20
0.09612
 30
0.0
  0
SPLINE
  5
1EC
330
1F
100
AcDbEntity
  8
0
370
     9
100
AcDbSpline
210
0.0
220
0.0
230
1.0
 70
    24
 71
     3
 72
     8
 73
     4
 74
     0
 42
0.0000000001
 43
0.0000000001
 40
0.0
 40
0.0
 40
0.0
 40
0.0
 40
1.0
 40
1.0
 40
1.0
 40
1.0
 10
-13.60734
 20
0.09612
 30
0.0
 10
-13.60734
 20
0.09612
 30
0.0
 10
-14.24234
 20
0.09612
 30
0.0
 10
-14.24234
 20
0.09612
 30
0.0
  0
SPLINE
  5
1ED
330
1F
100
AcDbEntity
  8
0
370
     9
100
AcDbSpline
210
0.0
220
0.0
230
1.0
 70
    24
 71
     3
 72
     8
 73
     4
 74
     0
 42
0.0000000001
 43
0.0000000001
 40
0.0
 40
0.0
 40
0.0
 40
0.0
 40
1.0
 40
1.0
 40
1.0
 40
1.0
 10
-13.60734
 20
0.09612
 30
0.0
 10
-13.60734
 20
0.09612
 30
0.0
 10
-13.30734
 20
0.09612
 30
0.0
 10
-13.30734
 20
0.09612
 30
0.0
  0
SPLINE
  5
1EE
330
1F
100
AcDbEntity
  8
0
370
     9
100
AcDbSpline
210
0.0
220
0.0
230
1.0
 70
    24
 71
     3
 72
     8
 73
     4
 74
     0
 42
0.0000000001
 43
0.0000000001
 40
0.0
 40
0.0
 40
0.0
 40
0.0
 40
1.0
 40
1.0
 40
1.0
 40
1.0
 10
-13.30734
 20
0.09612
 30
0.0
 10
-13.30734
 20
0.09612
 30
0.0
 10
-12.24505
 20
0.09612
 30
0.0
 10
-12.24505
 20
0.09612
 30
0.0
  0
SPLINE
  5
1EF
330
1F
100
AcDbEntity
  8
0
100
AcDbSpline
210
0.0
220
0.0
230
1.0
 70
    11
 71
     3
 72
    80
 73
    76
 74
     0
 42
0.0000000001
 43
0.0000000001
 40
0.0
 40
0.0
 40
0.0
 40
0.0
 40
0.05
 40
0.05
 40
0.05
 40
0.05
 40
0.1
 40
0.1
 40
0.1
 40
0.1
 40
0.15
 40
0.15
 40
0.15
 40
0.15
 40
0.2
 40
0.2
 40
0.2
 40
0.2
 40
0.25
 40
0.25
 40
0.25
 40
0.25
 40
0.3
 40
0.3
 40
0.3
 40
0.3
 40
0.35
 40
0.35
 40
0.35
 40
0.35
 40
0.4
 40
0.4
 40
0.4
 40
0.4
 40
0.45
 40
0.45
 40
0.45
 40
0.45
 40
0.5
 40
0.5
 40
0.5
 40
0.5
 40
0.55
 40
0.55
 40
0.55
 40
0.55
 40
0.6
 40
0.6
 40
0.6
 40
0.6
 40
0.65
 40
0.65
 40
0.65
 40
0.65
 40
0.7
 40
0.7
 40
0.7
 40
0.7
 40
0.75
 40
0.75
 40
0.75
 40
0.75
 40
0.8
 40
0.8
 40
0.8
 40
0.8
 40
0.85
 40
0.85
 40
0.85
 40
0.85
 40
0.9
 40
0.9
 40
0.9
 40
0.9
 40
1.0
 40
1.0
 40
1.0
 40
1.0
 10
-12.61392
 20
0.41959
 30
0.0
 10
-12.61392
 20
0.41959
 30
0.0
 10
-12.64448
 20
0.4172
 30
0.0
 10
-12.64448
 20
0.4172
 30
0.0
 10
-12.64448
 20
0.4172
 30
0.0
 10
-12.64722
 20
0.42928
 30
0.0
 10
-12.65107
 20
0.43809
 30
0.0
 10
-12.65609
 20
0.44351
 30
0.0
 10
-12.65609
 20
0.44351
 30
0.0
 10
-12.66443
 20
0.45232
 30
0.0
 10
-12.6747
 20
0.45669
 30
0.0
 10
-12.68689
 20
0.45669
 30
0.0
 10
-12.68689
 20
0.45669
 30
0.0
 10
-12.69669
 20
0.45669
 30
0.0
 10
-12.70527
 20
0.45395
 30
0.0
 10
-12.71267
 20
0.44847
 30
0.0
 10
-12.71267
 20
0.44847
 30
0.0
 10
-12.72236
 20
0.44141
 30
0.0
 10
-12.73
 20
0.43109
 30
0.0
 10
-12.7356
 20
0.41755
 30
0.0
 10
-12.7356
 20
0.41755
 30
0.0
 10
-12.74114
 20
0.40402
 30
0.0
 10
-12.74406
 20
0.38471
 30
0.0
 10
-12.74429
 20
0.35963
 30
0.0
 10
-12.74429
 20
0.35963
 30
0.0
 10
-12.73688
 20
0.37089
 30
0.0
 10
-12.72784
 20
0.37929
 30
0.0
 10
-12.71711
 20
0.38477
 30
0.0
 10
-12.71711
 20
0.38477
 30
0.0
 10
-12.70643
 20
0.39019
 30
0.0
 10
-12.69517
 20
0.39294
 30
0.0
 10
-12.68345
 20
0.39294
 30
0.0
 10
-12.68345
 20
0.39294
 30
0.0
 10
-12.66292
 20
0.39294
 30
0.0
 10
-12.64547
 20
0.38541
 30
0.0
 10
-12.63107
 20
0.3703
 30
0.0
 10
-12.63107
 20
0.3703
 30
0.0
 10
-12.61666
 20
0.35519
 30
0.0
 10
-12.60942
 20
0.33571
 30
0.0
 10
-12.60942
 20
0.31179
 30
0.0
 10
-12.60942
 20
0.31179
 30
0.0
 10
-12.60942
 20
0.29604
 30
0.0
 10
-12.61287
 20
0.28146
 30
0.0
 10
-12.61963
 20
0.26793
 30
0.0
 10
-12.61963
 20
0.26793
 30
0.0
 10
-12.6264
 20
0.25445
 30
0.0
 10
-12.63573
 20
0.24407
 30
0.0
 10
-12.64757
 20
0.23689
 30
0.0
 10
-12.64757
 20
0.23689
 30
0.0
 10
-12.65942
 20
0.22972
 30
0.0
 10
-12.67283
 20
0.22616
 30
0.0
 10
-12.68788
 20
0.22616
 30
0.0
 10
-12.68788
 20
0.22616
 30
0.0
 10
-12.71355
 20
0.22616
 30
0.0
 10
-12.73443
 20
0.23555
 30
0.0
 10
-12.75059
 20
0.25445
 30
0.0
 10
-12.75059
 20
0.25445
 30
0.0
 10
-12.76681
 20
0.27329
 30
0.0
 10
-12.77486
 20
0.30439
 30
0.0
 10
-12.77486
 20
0.34767
 30
0.0
 10
-12.77486
 20
0.34767
 30
0.0
 10
-12.77486
 20
0.39609
 30
0.0
 10
-12.76593
 20
0.43126
 30
0.0
 10
-12.74802
 20
0.45325
 30
0.0
 10
-12.74802
 20
0.45325
 30
0.0
 10
-12.73245
 20
0.47239
 30
0.0
 10
-12.71145
 20
0.48201
 30
0.0
 10
-12.68497
 20
0.48201
 30
0.0
 10
-12.68497
 20
0.48201
 30
0.0
 10
-12.66531
 20
0.48201
 30
0.0
 10
-12.64915
 20
0.47647
 30
0.0
 10
-12.63655
 20
0.46539
 30
0.0
 10
-12.63655
 20
0.46539
 30
0.0
 10
-12.62395
 20
0.45436
 30
0.0
 10
-12.61642
 20
0.43908
 30
0.0
 10
-12.61392
 20
0.41959
 30
0.0
  0
SPLINE
  5
1F0
330
1F
100
AcDbEntity
  8
0
100
AcDbSpline
210
0.0
220
0.0
230
1.0
 70
    11
 71
     3
 72
    40
 73
    36
 74
     0
 42
0.0000000001
 43
0.0000000001
 40
0.0
 40
0.0
 40
0.0
 40
0.0
 40
0.1
 40
0.1
 40
0.1
 40
0.1
 40
0.2
 40
0.2
 40
0.2
 40
0.2
 40
0.3
 40
0.3
 40
0.3
 40
0.3
 40
0.4
 40
0.4
 40
0.4
 40
0.4
 40
0.5
 40
0.5
 40
0.5
 40
0.5
 40
0.6
 40
0.6
 40
0.6
 40
0.6
 40
0.7
 40
0.7
 40
0.7
 40
0.7
 40
0.8
 40
0.8
 40
0.8
 40
0.8
 40
1.0
 40
1.0
 40
1.0
 40
1.0
 10
-12.73951
 20
0.31162
 30
0.0
 10
-12.73951
 20
0.301
 30
0.0
 10
-12.73723
 20
0.29085
 30
0.0
 10
-12.73274
 20
0.28117
 30
0.0
 10
-12.73274
 20
0.28117
 30
0.0
 10
-12.72825
 20
0.27149
 30
0.0
 10
-12.72195
 20
0.26414
 30
0.0
 10
-12.7139
 20
0.25906
 30
0.0
 10
-12.7139
 20
0.25906
 30
0.0
 10
-12.70579
 20
0.25399
 30
0.0
 10
-12.69727
 20
0.25142
 30
0.0
 10
-12.68841
 20
0.25142
 30
0.0
 10
-12.68841
 20
0.25142
 30
0.0
 10
-12.6754
 20
0.25142
 30
0.0
 10
-12.66426
 20
0.25667
 30
0.0
 10
-12.65492
 20
0.26717
 30
0.0
 10
-12.65492
 20
0.26717
 30
0.0
 10
-12.64559
 20
0.27767
 30
0.0
 10
-12.64092
 20
0.2919
 30
0.0
 10
-12.64092
 20
0.30987
 30
0.0
 10
-12.64092
 20
0.30987
 30
0.0
 10
-12.64092
 20
0.32719
 30
0.0
 10
-12.64553
 20
0.34084
 30
0.0
 10
-12.65475
 20
0.35082
 30
0.0
 10
-12.65475
 20
0.35082
 30
0.0
 10
-12.66397
 20
0.36079
 30
0.0
 10
-12.67557
 20
0.36575
 30
0.0
 10
-12.68957
 20
0.36575
 30
0.0
 10
-12.68957
 20
0.36575
 30
0.0
 10
-12.70352
 20
0.36575
 30
0.0
 10
-12.7153
 20
0.36079
 30
0.0
 10
-12.72498
 20
0.35082
 30
0.0
 10
-12.72498
 20
0.35082
 30
0.0
 10
-12.73467
 20
0.34084
 30
0.0
 10
-12.73951
 20
0.32778
 30
0.0
 10
-12.73951
 20
0.31162
 30
0.0
  0
SPLINE
  5
1F1
330
1F
100
AcDbEntity
  8
0
100
AcDbSpline
210
0.0
220
0.0
230
1.0
 70
    27
 71
     3
 72
    12
 73
     8
 74
     0
 42
0.0000000001
 43
0.0000000001
 40
0.0
 40
0.0
 40
0.0
 40
0.0
 40
0.3333333333333333
 40
0.3333333333333333
 40
0.3333333333333333
 40
0.3333333333333333
 40
1.0
 40
1.0
 40
1.0
 40
1.0
 10
-15.7546
 20
5.9075
 30
0.0
 10
-15.7546
 20
5.9075
 30
0.0
 10
-15.7038
 20
5.5773
 30
0.0
 10
-15.7038
 20
5.5773
 30
0.0
 10
-15.7038
 20
5.5773
 30
0.0
 10
-15.7038
 20
5.5773
 30
0.0
 10
-15.7546
 20
5.9075
 30
0.0
 10
-15.7546
 20
5.9075
 30
0.0
  0
SPLINE
  5
1F2
330
1F
100
AcDbEntity
  8
0
100
AcDbSpline
210
0.0
220
0.0
230
1.0
 70
     8
 71
     3
 72
    12
 73
     8
 74
     0
 42
0.0000000001
 43
0.0000000001
 40
0.0
 40
0.0
 40
0.0
 40
0.0
 40
0.3333333333333333
 40
0.3333333333333333
 40
0.3333333333333333
 40
0.3333333333333333
 40
1.0
 40
1.0
 40
1.0
 40
1.0
 10
-15.7038
 20
5.5773
 30
0.0
 10
-15.7038
 20
5.5773
 30
0.0
 10
-15.8054
 20
5.5773
 30
0.0
 10
-15.8054
 20
5.5773
 30
0.0
 10
-15.8054
 20
5.5773
 30
0.0
 10
-15.8054
 20
5.5773
 30
0.0
 10
-15.7546
 20
5.9075
 30
0.0
 10
-15.7546
 20
5.9075
 30
0.0
  0
SPLINE
  5
1F3
330
1F
100
AcDbEntity
  8
0
370
     9
100
AcDbSpline
210
0.0
220
0.0
230
1.0
 70
    24
 71
     3
 72
     8
 73
     4
 74
     0
 42
0.0000000001
 43
0.0000000001
 40
0.0
 40
0.0
 40
0.0
 40
0.0
 40
1.0
 40
1.0
 40
1.0
 40
1.0
 10
-15.7546
 20
5.9075
 30
0.0
 10
-15.7546
 20
5.9075
 30
0.0
 10
-15.7038
 20
5.5773
 30
0.0
 10
-15.7038
 20
5.5773
 30
0.0
  0
SPLINE
  5
1F4
330
1F
100
AcDbEntity
  8
0
370
     9
100
AcDbSpline
210
0.0
220
0.0
230
1.0
 70
     8
 71
     3
 72
    12
 73
     8
 74
     0
 42
0.0000000001
 43
0.0000000001
 40
0.0
 40
0.0
 40
0.0
 40
0.0
 40
0.3333333333333333
 40
0.3333333333333333
 40
0.3333333333333333
 40
0.3333333333333333
 40
1.0
 40
1.0
 40
1.0
 40
1.0
 10
-15.7038
 20
5.5773
 30
0.0
 10
-15.7038
 20
5.5773
 30
0.0
 10
-15.8054
 20
5.5773
 30
0.0
 10
-15.8054
 20
5.5773
 30
0.0
 10
-15.8054
 20
5.5773
 30
0.0
 10
-15.8054
 20
5.5773
 30
0.0
 10
-15.7546
 20
5.9075
 30
0.0
 10
-15.7546
 20
5.9075
 30
0.0
  0
SPLINE
  5
1F5
330
1F
100
AcDbEntity
  8
0
100
AcDbSpline
210
0.0
220
0.0
230
1.0
 70
    27
 71
     3
 72
    12
 73
     8
 74
     0
 42
0.0000000001
 43
0.0000000001
 40
0.0
 40
0.0
 40
0.0
 40
0.0
 40
0.3333333333333333
 40
0.3333333333333333
 40
0.3333333333333333
 40
0.3333333333333333
 40
1.0
 40
1.0
 40
1.0
 40
1.0
 10
-15.7546
 20
-9.98532
 30
0.0
 10
-15.7546
 20
-9.98532
 30
0.0
 10
-15.8054
 20
-9.65512
 30
0.0
 10
-15.8054
 20
-9.65512
 30
0.0
 10
-15.8054
 20
-9.65512
 30
0.0
 10
-15.8054
 20
-9.65512
 30
0.0
 10
-15.7546
 20
-9.98532
 30
0.0
 10
-15.7546
 20
-9.98532
 30
0.0
  0
SPLINE
  5
1F6
330
1F
100
AcDbEntity
  8
0
100
AcDbSpline
210
0.0
220
0.0
230
1.0
 70
     8
 71
     3
 72
    12
 73
     8
 74
     0
 42
0.0000000001
 43
0.0000000001
 40
0.0
 40
0.0
 40
0.0
 40
0.0
 40
0.3333333333333333
 40
0.3333333333333333
 40
0.3333333333333333
 40
0.3333333333333333
 40
1.0
 40
1.0
 40
1.0
 40
1.0
 10
-15.8054
 20
-9.65512
 30
0.0
 10
-15.8054
 20
-9.65512
 30
0.0
 10
-15.7038
 20
-9.65512
 30
0.0
 10
-15.7038
 20
-9.65512
 30
0.0
 10
-15.7038
 20
-9.65512
 30
0.0
 10
-15.7038
 20
-9.65512
 30
0.0
 10
-15.7546
 20
-9.98532
 30
0.0
 10
-15.7546
 20
-9.98532
 30
0.0
  0
SPLINE
  5
1F7
330
1F
100
AcDbEntity
  8
0
370
     9
100
AcDbSpline
210
0.0
220
0.0
230
1.0
 70
    24
 71
     3
 72
     8
 73
     4
 74
     0
 42
0.0000000001
 43
0.0000000001
 40
0.0
 40
0.0
 40
0.0
 40
0.0
 40
1.0
 40
1.0
 40
1.0
 40
1.0
 10
-15.7546
 20
-9.98532
 30
0.0
 10
-15.7546
 20
-9.98532
 30
0.0
 10
-15.8054
 20
-9.65512
 30
0.0
 10
-15.8054
 20
-9.65512
 30
0.0
  0
SPLINE
  5
1F8
330
1F
100
AcDbEntity
  8
0
370
     9
100
AcDbSpline
210
0.0
220
0.0
230
1.0
 70
     8
 71
     3
 72
    12
 73
     8
 74
     0
 42
0.0000000001
 43
0.0000000001
 40
0.0
 40
0.0
 40
0.0
 40
0.0
 40
0.3333333333333333
 40
0.3333333333333333
 40
0.3333333333333333
 40
0.3333333333333333
 40
1.0
 40
1.0
 40
1.0
 40
1.0
 10
-15.8054
 20
-9.65512
 30
0.0
 10
-15.8054
 20
-9.65512
 30
0.0
 10
-15.7038
 20
-9.65512
 30
0.0
 10
-15.7038
 20
-9.65512
 30
0.0
 10
-15.7038
 20
-9.65512
 30
0.0
 10
-15.7038
 20
-9.65512
 30
0.0
 10
-15.7546
 20
-9.98532
 30
0.0
 10
-15.7546
 20
-9.98532
 30
0.0
  0
SPLINE
  5
1F9
330
1F
100
AcDbEntity
  8
0
370
     9
100
AcDbSpline
210
0.0
220
0.0
230
1.0
 70
    24
 71
     3
 72
     8
 73
     4
 74
     0
 42
0.0000000001
 43
0.0000000001
 40
0.0
 40
0.0
 40
0.0
 40
0.0
 40
1.0
 40
1.0
 40
1.0
 40
1.0
 10
-13.94366
 20
5.9075
 30
0.0
 10
-13.94366
 20
5.9075
 30
0.0
 10
-15.8546
 20
5.9075
 30
0.0
 10
-15.8546
 20
5.9075
 30
0.0
  0
SPLINE
  5
1FA
330
1F
100
AcDbEntity
  8
0
370
     9
100
AcDbSpline
210
0.0
220
0.0
230
1.0
 70
    24
 71
     3
 72
     8
 73
     4
 74
     0
 42
0.0000000001
 43
0.0000000001
 40
0.0
 40
0.0
 40
0.0
 40
0.0
 40
1.0
 40
1.0
 40
1.0
 40
1.0
 10
-13.70734
 20
-9.98532
 30
0.0
 10
-13.70734
 20
-9.98532
 30
0.0
 10
-15.8546
 20
-9.98532
 30
0.0
 10
-15.8546
 20
-9.98532
 30
0.0
  0
SPLINE
  5
1FB
330
1F
100
AcDbEntity
  8
0
370
     9
100
AcDbSpline
210
0.0
220
0.0
230
1.0
 70
    24
 71
     3
 72
     8
 73
     4
 74
     0
 42
0.0000000001
 43
0.0000000001
 40
0.0
 40
0.0
 40
0.0
 40
0.0
 40
1.0
 40
1.0
 40
1.0
 40
1.0
 10
-15.7546
 20
5.9075
 30
0.0
 10
-15.7546
 20
5.9075
 30
0.0
 10
-15.7546
 20
-9.98532
 30
0.0
 10
-15.7546
 20
-9.98532
 30
0.0
  0
SPLINE
  5
1FC
330
1F
100
AcDbEntity
  8
0
100
AcDbSpline
210
0.0
220
0.0
230
1.0
 70
    11
 71
     3
 72
   124
 73
   120
 74
     0
 42
0.0000000001
 43
0.0000000001
 40
0.0
 40
0.0
 40
0.0
 40
0.0
 40
0.032258064516129
 40
0.032258064516129
 40
0.032258064516129
 40
0.032258064516129
 40
0.0645161290322581
 40
0.0645161290322581
 40
0.0645161290322581
 40
0.0645161290322581
 40
0.0967741935483871
 40
0.0967741935483871
 40
0.0967741935483871
 40
0.0967741935483871
 40
0.1290322580645161
 40
0.1290322580645161
 40
0.1290322580645161
 40
0.1290322580645161
 40
0.1612903225806452
 40
0.1612903225806452
 40
0.1612903225806452
 40
0.1612903225806452
 40
0.1935483870967742
 40
0.1935483870967742
 40
0.1935483870967742
 40
0.1935483870967742
 40
0.2258064516129032
 40
0.2258064516129032
 40
0.2258064516129032
 40
0.2258064516129032
 40
0.2580645161290323
 40
0.2580645161290323
 40
0.2580645161290323
 40
0.2580645161290323
 40
0.2903225806451613
 40
0.2903225806451613
 40
0.2903225806451613
 40
0.2903225806451613
 40
0.3225806451612903
 40
0.3225806451612903
 40
0.3225806451612903
 40
0.3225806451612903
 40
0.3548387096774194
 40
0.3548387096774194
 40
0.3548387096774194
 40
0.3548387096774194
 40
0.3870967741935484
 40
0.3870967741935484
 40
0.3870967741935484
 40
0.3870967741935484
 40
0.4193548387096774
 40
0.4193548387096774
 40
0.4193548387096774
 40
0.4193548387096774
 40
0.4516129032258064
 40
0.4516129032258064
 40
0.4516129032258064
 40
0.4516129032258064
 40
0.4838709677419355
 40
0.4838709677419355
 40
0.4838709677419355
 40
0.4838709677419355
 40
0.5161290322580645
 40
0.5161290322580645
 40
0.5161290322580645
 40
0.5161290322580645
 40
0.5483870967741935
 40
0.5483870967741935
 40
0.5483870967741935
 40
0.5483870967741935
 40
0.5806451612903226
 40
0.5806451612903226
 40
0.5806451612903226
 40
0.5806451612903226
 40
0.6129032258064516
 40
0.6129032258064516
 40
0.6129032258064516
 40
0.6129032258064516
 40
0.6451612903225806
 40
0.6451612903225806
 40
0.6451612903225806
 40
0.6451612903225806
 40
0.6774193548387096
 40
0.6774193548387096
 40
0.6774193548387096
 40
0.6774193548387096
 40
0.7096774193548387
 40
0.7096774193548387
 40
0.7096774193548387
 40
0.7096774193548387
 40
0.7419354838709677
 40
0.7419354838709677
 40
0.7419354838709677
 40
0.7419354838709677
 40
0.7741935483870968
 40
0.7741935483870968
 40
0.7741935483870968
 40
0.7741935483870968
 40
0.8064516129032258
 40
0.8064516129032258
 40
0.8064516129032258
 40
0.8064516129032258
 40
0.8387096774193549
 40
0.8387096774193549
 40
0.8387096774193549
 40
0.8387096774193549
 40
0.8709677419354839
 40
0.8709677419354839
 40
0.8709677419354839
 40
0.8709677419354839
 40
0.9032258064516129
 40
0.9032258064516129
 40
0.9032258064516129
 40
0.9032258064516129
 40
0.9354838709677419
 40
0.9354838709677419
 40
0.9354838709677419
 40
0.9354838709677419
 40
1.0
 40
1.0
 40
1.0
 40
1.0
 10
-15.95505
 20
-0.41928
 30
0.0
 10
-15.95505
 20
-0.41928
 30
0.0
 10
-15.95913
 20
-0.38854
 30
0.0
 10
-15.95913
 20
-0.38854
 30
0.0
 10
-15.95913
 20
-0.38854
 30
0.0
 10
-15.94169
 20
-0.38498
 30
0.0
 10
-15.92915
 20
-0.37897
 30
0.0
 10
-15.92145
 20
-0.37051
 30
0.0
 10
-15.92145
 20
-0.37051
 30
0.0
 10
-15.91375
 20
-0.362
 30
0.0
 10
-15.9099
 20
-0.35167
 30
0.0
 10
-15.9099
 20
-0.33948
 30
0.0
 10
-15.9099
 20
-0.33948
 30
0.0
 10
-15.9099
 20
-0.32501
 30
0.0
 10
-15.91492
 20
-0.31276
 30
0.0
 10
-15.92495
 20
-0.30279
 30
0.0
 10
-15.92495
 20
-0.30279
 30
0.0
 10
-15.93498
 20
-0.29287
 30
0.0
 10
-15.94741
 20
-0.28786
 30
0.0
 10
-15.96222
 20
-0.28786
 30
0.0
 10
-15.96222
 20
-0.28786
 30
0.0
 10
-15.97634
 20
-0.28786
 30
0.0
 10
-15.98801
 20
-0.29246
 30
0.0
 10
-15.99717
 20
-0.30168
 30
0.0
 10
-15.99717
 20
-0.30168
 30
0.0
 10
-16.00632
 20
-0.31096
 30
0.0
 10
-16.01093
 20
-0.32268
 30
0.0
 10
-16.01093
 20
-0.33691
 30
0.0
 10
-16.01093
 20
-0.33691
 30
0.0
 10
-16.01093
 20
-0.34275
 30
0.0
 10
-16.00977
 20
-0.34998
 30
0.0
 10
-16.00749
 20
-0.35861
 30
0.0
 10
-16.00749
 20
-0.35861
 30
0.0
 10
-16.00749
 20
-0.35861
 30
0.0
 10
-16.0345
 20
-0.35517
 30
0.0
 10
-16.0345
 20
-0.35517
 30
0.0
 10
-16.0345
 20
-0.35517
 30
0.0
 10
-16.03427
 20
-0.35313
 30
0.0
 10
-16.03415
 20
-0.3515
 30
0.0
 10
-16.03415
 20
-0.35021
 30
0.0
 10
-16.03415
 20
-0.35021
 30
0.0
 10
-16.03415
 20
-0.33715
 30
0.0
 10
-16.03759
 20
-0.32536
 30
0.0
 10
-16.04442
 20
-0.31486
 30
0.0
 10
-16.04442
 20
-0.31486
 30
0.0
 10
-16.05124
 20
-0.30436
 30
0.0
 10
-16.0618
 20
-0.29911
 30
0.0
 10
-16.07603
 20
-0.29911
 30
0.0
 10
-16.07603
 20
-0.29911
 30
0.0
 10
-16.08729
 20
-0.29911
 30
0.0
 10
-16.09668
 20
-0.30296
 30
0.0
 10
-16.10403
 20
-0.31061
 30
0.0
 10
-16.10403
 20
-0.31061
 30
0.0
 10
-16.11144
 20
-0.31825
 30
0.0
 10
-16.11517
 20
-0.32811
 30
0.0
 10
-16.11517
 20
-0.34018
 30
0.0
 10
-16.11517
 20
-0.34018
 30
0.0
 10
-16.11517
 20
-0.35214
 30
0.0
 10
-16.11138
 20
-0.36211
 30
0.0
 10
-16.10392
 20
-0.37005
 30
0.0
 10
-16.10392
 20
-0.37005
 30
0.0
 10
-16.09639
 20
-0.37804
 30
0.0
 10
-16.08507
 20
-0.38317
 30
0.0
 10
-16.07002
 20
-0.38545
 30
0.0
 10
-16.07002
 20
-0.38545
 30
0.0
 10
-16.07002
 20
-0.38545
 30
0.0
 10
-16.07551
 20
-0.41619
 30
0.0
 10
-16.07551
 20
-0.41619
 30
0.0
 10
-16.07551
 20
-0.41619
 30
0.0
 10
-16.09616
 20
-0.41246
 30
0.0
 10
-16.11214
 20
-0.40388
 30
0.0
 10
-16.12346
 20
-0.39058
 30
0.0
 10
-16.12346
 20
-0.39058
 30
0.0
 10
-16.13477
 20
-0.37722
 30
0.0
 10
-16.14043
 20
-0.36066
 30
0.0
 10
-16.14043
 20
-0.34082
 30
0.0
 10
-16.14043
 20
-0.34082
 30
0.0
 10
-16.14043
 20
-0.32717
 30
0.0
 10
-16.13752
 20
-0.31457
 30
0.0
 10
-16.13168
 20
-0.30308
 30
0.0
 10
-16.13168
 20
-0.30308
 30
0.0
 10
-16.12579
 20
-0.29159
 30
0.0
 10
-16.1178
 20
-0.28278
 30
0.0
 10
-16.10765
 20
-0.27666
 30
0.0
 10
-16.10765
 20
-0.27666
 30
0.0
 10
-16.0975
 20
-0.27059
 30
0.0
 10
-16.08677
 20
-0.2675
 30
0.0
 10
-16.07533
 20
-0.2675
 30
0.0
 10
-16.07533
 20
-0.2675
 30
0.0
 10
-16.06454
 20
-0.2675
 30
0.0
 10
-16.05468
 20
-0.27041
 30
0.0
 10
-16.04576
 20
-0.27625
 30
0.0
 10
-16.04576
 20
-0.27625
 30
0.0
 10
-16.03689
 20
-0.28208
 30
0.0
 10
-16.02983
 20
-0.29066
 30
0.0
 10
-16.02458
 20
-0.30203
 30
0.0
 10
-16.02458
 20
-0.30203
 30
0.0
 10
-16.0212
 20
-0.28721
 30
0.0
 10
-16.01408
 20
-0.27572
 30
0.0
 10
-16.00329
 20
-0.2675
 30
0.0
 10
-16.00329
 20
-0.2675
 30
0.0
 10
-15.99256
 20
-0.25933
 30
0.0
 10
-15.97908
 20
-0.25525
 30
0.0
 10
-15.96292
 20
-0.25525
 30
0.0
 10
-15.96292
 20
-0.25525
 30
0.0
 10
-15.94105
 20
-0.25525
 30
0.0
 10
-15.9225
 20
-0.26318
 30
0.0
 10
-15.90727
 20
-0.27916
 30
0.0
 10
-15.90727
 20
-0.27916
 30
0.0
 10
-15.89205
 20
-0.29509
 30
0.0
 10
-15.88447
 20
-0.31527
 30
0.0
 10
-15.88447
 20
-0.33966
 30
0.0
 10
-15.88447
 20
-0.33966
 30
0.0
 10
-15.88447
 20
-0.36165
 30
0.0
 10
-15.891
 20
-0.37991
 30
0.0
 10
-15.90412
 20
-0.39443
 30
0.0
 10
-15.90412
 20
-0.39443
 30
0.0
 10
-15.91719
 20
-0.40896
 30
0.0
 10
-15.93417
 20
-0.41724
 30
0.0
 10
-15.95505
 20
-0.41928
 30
0.0
  0
SPLINE
  5
1FD
330
1F
100
AcDbEntity
  8
0
100
AcDbSpline
210
0.0
220
0.0
230
1.0
 70
    11
 71
     3
 72
    40
 73
    36
 74
     0
 42
0.0000000001
 43
0.0000000001
 40
0.0
 40
0.0
 40
0.0
 40
0.0
 40
0.1
 40
0.1
 40
0.1
 40
0.1
 40
0.2
 40
0.2
 40
0.2
 40
0.2
 40
0.3
 40
0.3
 40
0.3
 40
0.3
 40
0.4
 40
0.4
 40
0.4
 40
0.4
 40
0.5
 40
0.5
 40
0.5
 40
0.5
 40
0.6
 40
0.6
 40
0.6
 40
0.6
 40
0.7
 40
0.7
 40
0.7
 40
0.7
 40
0.8
 40
0.8
 40
0.8
 40
0.8
 40
1.0
 40
1.0
 40
1.0
 40
1.0
 10
-15.8889
 20
-0.10895
 30
0.0
 10
-15.8889
 20
-0.10895
 30
0.0
 10
-15.8889
 20
-0.13969
 30
0.0
 10
-15.8889
 20
-0.13969
 30
0.0
 10
-15.8889
 20
-0.13969
 30
0.0
 10
-15.8889
 20
-0.13969
 30
0.0
 10
-16.0849
 20
-0.13969
 30
0.0
 10
-16.0849
 20
-0.13969
 30
0.0
 10
-16.0849
 20
-0.13969
 30
0.0
 10
-16.07784
 20
-0.1471
 30
0.0
 10
-16.07078
 20
-0.15678
 30
0.0
 10
-16.06372
 20
-0.1688
 30
0.0
 10
-16.06372
 20
-0.1688
 30
0.0
 10
-16.05667
 20
-0.18087
 30
0.0
 10
-16.05136
 20
-0.19166
 30
0.0
 10
-16.04786
 20
-0.20123
 30
0.0
 10
-16.04786
 20
-0.20123
 30
0.0
 10
-16.04786
 20
-0.20123
 30
0.0
 10
-16.07755
 20
-0.20123
 30
0.0
 10
-16.07755
 20
-0.20123
 30
0.0
 10
-16.07755
 20
-0.20123
 30
0.0
 10
-16.08566
 20
-0.18402
 30
0.0
 10
-16.09546
 20
-0.16897
 30
0.0
 10
-16.10695
 20
-0.15608
 30
0.0
 10
-16.10695
 20
-0.15608
 30
0.0
 10
-16.1185
 20
-0.14325
 30
0.0
 10
-16.12964
 20
-0.13409
 30
0.0
 10
-16.14043
 20
-0.12872
 30
0.0
 10
-16.14043
 20
-0.12872
 30
0.0
 10
-16.14043
 20
-0.12872
 30
0.0
 10
-16.14043
 20
-0.10895
 30
0.0
 10
-16.14043
 20
-0.10895
 30
0.0
 10
-16.14043
 20
-0.10895
 30
0.0
 10
-16.14043
 20
-0.10895
 30
0.0
 10
-15.8889
 20
-0.10895
 30
0.0
 10
-15.8889
 20
-0.10895
 30
0.0
  0
SPLINE
  5
1FE
330
1F
100
AcDbEntity
  8
0
100
AcDbSpline
210
0.0
220
0.0
230
1.0
 70
    11
 71
     3
 72
    68
 73
    64
 74
     0
 42
0.0000000001
 43
0.0000000001
 40
0.0
 40
0.0
 40
0.0
 40
0.0
 40
0.0588235294117647
 40
0.0588235294117647
 40
0.0588235294117647
 40
0.0588235294117647
 40
0.1176470588235294
 40
0.1176470588235294
 40
0.1176470588235294
 40
0.1176470588235294
 40
0.1764705882352941
 40
0.1764705882352941
 40
0.1764705882352941
 40
0.1764705882352941
 40
0.2352941176470588
 40
0.2352941176470588
 40
0.2352941176470588
 40
0.2352941176470588
 40
0.2941176470588235
 40
0.2941176470588235
 40
0.2941176470588235
 40
0.2941176470588235
 40
0.3529411764705883
 40
0.3529411764705883
 40
0.3529411764705883
 40
0.3529411764705883
 40
0.4117647058823529
 40
0.4117647058823529
 40
0.4117647058823529
 40
0.4117647058823529
 40
0.4705882352941176
 40
0.4705882352941176
 40
0.4705882352941176
 40
0.4705882352941176
 40
0.5294117647058824
 40
0.5294117647058824
 40
0.5294117647058824
 40
0.5294117647058824
 40
0.5882352941176471
 40
0.5882352941176471
 40
0.5882352941176471
 40
0.5882352941176471
 40
0.6470588235294118
 40
0.6470588235294118
 40
0.6470588235294118
 40
0.6470588235294118
 40
0.7058823529411765
 40
0.7058823529411765
 40
0.7058823529411765
 40
0.7058823529411765
 40
0.7647058823529411
 40
0.7647058823529411
 40
0.7647058823529411
 40
0.7647058823529411
 40
0.8235294117647058
 40
0.8235294117647058
 40
0.8235294117647058
 40
0.8235294117647058
 40
0.8823529411764706
 40
0.8823529411764706
 40
0.8823529411764706
 40
0.8823529411764706
 40
1.0
 40
1.0
 40
1.0
 40
1.0
 10
-16.02476
 20
0.01723
 30
0.0
 10
-16.02942
 20
0.00446
 30
0.0
 10
-16.03607
 20
-0.00499
 30
0.0
 10
-16.04477
 20
-0.01118
 30
0.0
 10
-16.04477
 20
-0.01118
 30
0.0
 10
-16.0534
 20
-0.0173
 30
0.0
 10
-16.06378
 20
-0.02039
 30
0.0
 10
-16.07586
 20
-0.02039
 30
0.0
 10
-16.07586
 20
-0.02039
 30
0.0
 10
-16.09412
 20
-0.02039
 30
0.0
 10
-16.1094
 20
-0.01386
 30
0.0
 10
-16.12182
 20
-0.00074
 30
0.0
 10
-16.12182
 20
-0.00074
 30
0.0
 10
-16.13425
 20
0.01239
 30
0.0
 10
-16.14043
 20
0.02977
 30
0.0
 10
-16.14043
 20
0.05153
 30
0.0
 10
-16.14043
 20
0.05153
 30
0.0
 10
-16.14043
 20
0.07341
 30
0.0
 10
-16.13413
 20
0.09102
 30
0.0
 10
-16.12142
 20
0.10438
 30
0.0
 10
-16.12142
 20
0.10438
 30
0.0
 10
-16.1087
 20
0.11768
 30
0.0
 10
-16.09324
 20
0.12433
 30
0.0
 10
-16.07498
 20
0.12433
 30
0.0
 10
-16.07498
 20
0.12433
 30
0.0
 10
-16.06337
 20
0.12433
 30
0.0
 10
-16.05328
 20
0.1213
 30
0.0
 10
-16.04465
 20
0.11523
 30
0.0
 10
-16.04465
 20
0.11523
 30
0.0
 10
-16.03607
 20
0.10911
 30
0.0
 10
-16.02942
 20
0.09989
 30
0.0
 10
-16.02476
 20
0.08746
 30
0.0
 10
-16.02476
 20
0.08746
 30
0.0
 10
-16.01974
 20
0.10281
 30
0.0
 10
-16.01163
 20
0.11453
 30
0.0
 10
-16.00049
 20
0.12258
 30
0.0
 10
-16.00049
 20
0.12258
 30
0.0
 10
-15.98935
 20
0.13057
 30
0.0
 10
-15.97599
 20
0.1346
 30
0.0
 10
-15.96053
 20
0.1346
 30
0.0
 10
-15.96053
 20
0.1346
 30
0.0
 10
-15.93907
 20
0.1346
 30
0.0
 10
-15.9211
 20
0.12701
 30
0.0
 10
-15.90652
 20
0.11191
 30
0.0
 10
-15.90652
 20
0.11191
 30
0.0
 10
-15.89193
 20
0.09674
 30
0.0
 10
-15.88464
 20
0.07679
 30
0.0
 10
-15.88464
 20
0.05206
 30
0.0
 10
-15.88464
 20
0.05206
 30
0.0
 10
-15.88464
 20
0.02732
 30
0.0
 10
-15.89193
 20
0.00743
 30
0.0
 10
-15.90657
 20
-0.00774
 30
0.0
 10
-15.90657
 20
-0.00774
 30
0.0
 10
-15.92122
 20
-0.0229
 30
0.0
 10
-15.93947
 20
-0.03049
 30
0.0
 10
-15.96135
 20
-0.03049
 30
0.0
 10
-15.96135
 20
-0.03049
 30
0.0
 10
-15.97762
 20
-0.03049
 30
0.0
 10
-15.99127
 20
-0.02634
 30
0.0
 10
-16.0023
 20
-0.01806
 30
0.0
 10
-16.0023
 20
-0.01806
 30
0.0
 10
-16.01327
 20
-0.00984
 30
0.0
 10
-16.02079
 20
0.00195
 30
0.0
 10
-16.02476
 20
0.01723
 30
0.0
  0
SPLINE
  5
1FF
330
1F
100
AcDbEntity
  8
0
100
AcDbSpline
210
0.0
220
0.0
230
1.0
 70
    11
 71
     3
 72
    36
 73
    32
 74
     0
 42
0.0000000001
 43
0.0000000001
 40
0.0
 40
0.0
 40
0.0
 40
0.0
 40
0.1111111111111111
 40
0.1111111111111111
 40
0.1111111111111111
 40
0.1111111111111111
 40
0.2222222222222222
 40
0.2222222222222222
 40
0.2222222222222222
 40
0.2222222222222222
 40
0.3333333333333333
 40
0.3333333333333333
 40
0.3333333333333333
 40
0.3333333333333333
 40
0.4444444444444444
 40
0.4444444444444444
 40
0.4444444444444444
 40
0.4444444444444444
 40
0.5555555555555556
 40
0.5555555555555556
 40
0.5555555555555556
 40
0.5555555555555556
 40
0.6666666666666666
 40
0.6666666666666666
 40
0.6666666666666666
 40
0.6666666666666666
 40
0.7777777777777778
 40
0.7777777777777778
 40
0.7777777777777778
 40
0.7777777777777778
 40
1.0
 40
1.0
 40
1.0
 40
1.0
 10
-16.07691
 20
0.01105
 30
0.0
 10
-16.06507
 20
0.01105
 30
0.0
 10
-16.05538
 20
0.0149
 30
0.0
 10
-16.04786
 20
0.02248
 30
0.0
 10
-16.04786
 20
0.02248
 30
0.0
 10
-16.04033
 20
0.03012
 30
0.0
 10
-16.03654
 20
0.04004
 30
0.0
 10
-16.03654
 20
0.05223
 30
0.0
 10
-16.03654
 20
0.05223
 30
0.0
 10
-16.03654
 20
0.06407
 30
0.0
 10
-16.04027
 20
0.07381
 30
0.0
 10
-16.04774
 20
0.0814
 30
0.0
 10
-16.04774
 20
0.0814
 30
0.0
 10
-16.05521
 20
0.08898
 30
0.0
 10
-16.06437
 20
0.09271
 30
0.0
 10
-16.07516
 20
0.09271
 30
0.0
 10
-16.07516
 20
0.09271
 30
0.0
 10
-16.08647
 20
0.09271
 30
0.0
 10
-16.09592
 20
0.08886
 30
0.0
 10
-16.10362
 20
0.08105
 30
0.0
 10
-16.10362
 20
0.08105
 30
0.0
 10
-16.11132
 20
0.07323
 30
0.0
 10
-16.11517
 20
0.06355
 30
0.0
 10
-16.11517
 20
0.05188
 30
0.0
 10
-16.11517
 20
0.05188
 30
0.0
 10
-16.11517
 20
0.04016
 30
0.0
 10
-16.11138
 20
0.03041
 30
0.0
 10
-16.10392
 20
0.02266
 30
0.0
 10
-16.10392
 20
0.02266
 30
0.0
 10
-16.09639
 20
0.0149
 30
0.0
 10
-16.08735
 20
0.01105
 30
0.0
 10
-16.07691
 20
0.01105
 30
0.0
  0
SPLINE
  5
200
330
1F
100
AcDbEntity
  8
0
100
AcDbSpline
210
0.0
220
0.0
230
1.0
 70
    11
 71
     3
 72
    40
 73
    36
 74
     0
 42
0.0000000001
 43
0.0000000001
 40
0.0
 40
0.0
 40
0.0
 40
0.0
 40
0.1
 40
0.1
 40
0.1
 40
0.1
 40
0.2
 40
0.2
 40
0.2
 40
0.2
 40
0.3
 40
0.3
 40
0.3
 40
0.3
 40
0.4
 40
0.4
 40
0.4
 40
0.4
 40
0.5
 40
0.5
 40
0.5
 40
0.5
 40
0.6
 40
0.6
 40
0.6
 40
0.6
 40
0.7
 40
0.7
 40
0.7
 40
0.7
 40
0.8
 40
0.8
 40
0.8
 40
0.8
 40
1.0
 40
1.0
 40
1.0
 40
1.0
 10
-15.96117
 20
0.00113
 30
0.0
 10
-15.95242
 20
0.00113
 30
0.0
 10
-15.94391
 20
0.00323
 30
0.0
 10
-15.93574
 20
0.00737
 30
0.0
 10
-15.93574
 20
0.00737
 30
0.0
 10
-15.92752
 20
0.01151
 30
0.0
 10
-15.92116
 20
0.0177
 30
0.0
 10
-15.91667
 20
0.02592
 30
0.0
 10
-15.91667
 20
0.02592
 30
0.0
 10
-15.91217
 20
0.03415
 30
0.0
 10
-15.9099
 20
0.04296
 30
0.0
 10
-15.9099
 20
0.05241
 30
0.0
 10
-15.9099
 20
0.05241
 30
0.0
 10
-15.9099
 20
0.06711
 30
0.0
 10
-15.91462
 20
0.07924
 30
0.0
 10
-15.92413
 20
0.08881
 30
0.0
 10
-15.92413
 20
0.08881
 30
0.0
 10
-15.93358
 20
0.09837
 30
0.0
 10
-15.9456
 20
0.10316
 30
0.0
 10
-15.96018
 20
0.10316
 30
0.0
 10
-15.96018
 20
0.10316
 30
0.0
 10
-15.975
 20
0.10316
 30
0.0
 10
-15.98725
 20
0.09826
 30
0.0
 10
-15.99693
 20
0.0884
 30
0.0
 10
-15.99693
 20
0.0884
 30
0.0
 10
-16.00662
 20
0.07854
 30
0.0
 10
-16.01146
 20
0.06617
 30
0.0
 10
-16.01146
 20
0.05136
 30
0.0
 10
-16.01146
 20
0.05136
 30
0.0
 10
-16.01146
 20
0.03689
 30
0.0
 10
-16.00667
 20
0.02493
 30
0.0
 10
-15.99705
 20
0.01542
 30
0.0
 10
-15.99705
 20
0.01542
 30
0.0
 10
-15.98748
 20
0.00591
 30
0.0
 10
-15.97552
 20
0.00113
 30
0.0
 10
-15.96117
 20
0.00113
 30
0.0
  0
ENDSEC
  0
SECTION
  2
OBJECTS
  0
DICTIONARY
  5
C
330
0
100
AcDbDictionary
281
     1
  3
ACAD_GROUP
350
D
  3
ACAD_LAYOUT
350
1A
  3
ACAD_MATERIAL
350
3B
  3
ACAD_MLEADERSTYLE
350
222
  3
ACAD_MLINESTYLE
350
17
  3
ACAD_PLOTSETTINGS
350
19
  3
ACAD_PLOTSTYLENAME
350
E
  3
ACAD_TABLESTYLE
350
221
  3
ACAD_VISUALSTYLE
350
2A
  0
DICTIONARY
  5
D
102
{ACAD_REACTORS
330
C
102
}
330
C
100
AcDbDictionary
281
     1
  0
DICTIONARY
  5
1A
102
{ACAD_REACTORS
330
C
102
}
330
C
100
AcDbDictionary
281
     1
  3
Layout1
350
1E
  3
Layout2
350
26
  3
Model
350
22
  0
DICTIONARY
  5
3B
102
{ACAD_REACTORS
330
C
102
}
330
C
100
AcDbDictionary
281
     1
  3
ByBlock
350
3D
  3
ByLayer
350
3C
  3
Global
350
3E
  0
DICTIONARY
  5
222
102
{ACAD_REACTORS
330
C
102
}
330
C
100
AcDbDictionary
281
     1
  0
DICTIONARY
  5
17
102
{ACAD_REACTORS
330
C
102
}
330
C
100
AcDbDictionary
281
     1
  3
Standard
350
18
  0
DICTIONARY
  5
19
102
{ACAD_REACTORS
330
C
102
}
330
C
100
AcDbDictionary
281
     1
  0
ACDBDICTIONARYWDFLT
  5
E
102
{ACAD_REACTORS
330
C
102
}
330
C
100
AcDbDictionary
281
     1
  3
Normal
350
F
100
AcDbDictionaryWithDefault
340
F
  0
DICTIONARY
  5
221
102
{ACAD_REACTORS
330
C
102
}
330
C
100
AcDbDictionary
281
     1
  0
DICTIONARY
  5
2A
102
{ACAD_REACTORS
330
C
102
}
330
C
100
AcDbDictionary
281
     1
  3
2dWireframe
350
2F
  3
3D Hidden
350
31
  3
3dWireframe
350
30
  3
Basic
350
32
  3
Brighten
350
36
  3
ColorChange
350
3A
  3
Conceptual
350
34
  3
Dim
350
35
  3
Facepattern
350
39
  3
Flat
350
2B
  3
FlatWithEdges
350
2C
  3
Gouraud
350
2D
  3
GouraudWithEdges
350
2E
  3
Linepattern
350
38
  3
Realistic
350
33
  3
Thicken
350
37
  0
LAYOUT
  5
1E
102
{ACAD_REACTORS
330
1A
102
}
330
1A
100
AcDbPlotSettings
  1

  2
none_device
  4

  6

 40
0.0
 41
0.0
 42
0.0
 43
0.0
 44
0.0
 45
0.0
 46
0.0
 47
0.0
 48
0.0
 49
0.0
140
0.0
141
0.0
142
1.0
143
1.0
 70
   688
 72
     0
 73
     0
 74
     5
  7

 75
    16
 76
     0
 77
     2
 78
   300
147
1.0
148
0.0
149
0.0
100
AcDbLayout
  1
Layout1
 70
     1
 71
     1
 10
0.0
 20
0.0
 11
12.0
 21
9.0
 12
0.0
 22
0.0
 32
0.0
 14
1.000000000000000E+20
 24
1.000000000000000E+20
 34
1.000000000000000E+20
 15
-1.000000000000000E+20
 25
-1.000000000000000E+20
 35
-1.000000000000000E+20
146
0.0
 13
0.0
 23
0.0
 33
0.0
 16
1.0
 26
0.0
 36
0.0
 17
0.0
 27
1.0
 37
0.0
 76
     0
330
1B
  0
LAYOUT
  5
26
102
{ACAD_REACTORS
330
1A
102
}
330
1A
100
AcDbPlotSettings
  1

  2
none_device
  4

  6

 40
0.0
 41
0.0
 42
0.0
 43
0.0
 44
0.0
 45
0.0
 46
0.0
 47
0.0
 48
0.0
 49
0.0
140
0.0
141
0.0
142
1.0
143
1.0
 70
   688
 72
     0
 73
     0
 74
     5
  7

 75
    16
 76
     0
 77
     2
 78
   300
147
1.0
148
0.0
149
0.0
100
AcDbLayout
  1
Layout2
 70
     1
 71
     2
 10
0.0
 20
0.0
 11
0.0
 21
0.0
 12
0.0
 22
0.0
 32
0.0
 14
0.0
 24
0.0
 34
0.0
 15
0.0
 25
0.0
 35
0.0
146
0.0
 13
0.0
 23
0.0
 33
0.0
 16
1.0
 26
0.0
 36
0.0
 17
0.0
 27
1.0
 37
0.0
 76
     0
330
23
  0
LAYOUT
  5
22
102
{ACAD_REACTORS
330
1A
102
}
330
1A
100
AcDbPlotSettings
  1

  2
none_device
  4

  6

 40
0.0
 41
0.0
 42
0.0
 43
0.0
 44
0.0
 45
0.0
 46
0.0
 47
0.0
 48
0.0
 49
0.0
140
0.0
141
0.0
142
1.0
143
1.0
 70
  1712
 72
     0
 73
     0
 74
     0
  7

 75
     0
 76
     0
 77
     2
 78
   300
147
1.0
148
0.0
149
0.0
100
AcDbLayout
  1
Model
 70
     1
 71
     0
 10
0.0
 20
0.0
 11
12.0
 21
9.0
 12
0.0
 22
0.0
 32
0.0
 14
-16.20577
 24
-9.99282
 34
0.0
 15
16.41021
 25
12.89034
 35
0.0
146
0.0
 13
0.0
 23
0.0
 33
0.0
 16
1.0
 26
0.0
 36
0.0
 17
0.0
 27
1.0
 37
0.0
 76
     0
330
1F
331
29
  0
MATERIAL
  5
3D
102
{ACAD_REACTORS
330
3B
102
}
330
3B
100
AcDbMaterial
  1
ByBlock
 72
     1
 94
      127
  0
MATERIAL
  5
3C
102
{ACAD_REACTORS
330
3B
102
}
330
3B
100
AcDbMaterial
  1
ByLayer
 72
     1
 94
      127
  0
MATERIAL
  5
3E
102
{ACAD_REACTORS
330
3B
102
}
330
3B
100
AcDbMaterial
  1
Global
 72
     1
 94
      127
  0
MLINESTYLE
  5
18
102
{ACAD_REACTORS
330
17
102
}
330
17
100
AcDbMlineStyle
  2
Standard
 70
     0
  3

 62
   256
 51
90.0
 52
90.0
 71
     2
 49
0.5
 62
   256
  6
BYLAYER
 49
-0.5
 62
   256
  6
BYLAYER
  0
ACDBPLACEHOLDER
  5
F
102
{ACAD_REACTORS
330
E
102
}
330
E
  0
VISUALSTYLE
  5
2F
102
{ACAD_REACTORS
330
2A
102
}
102
{ACAD_XDICTIONARY
360
209
102
}
330
2A
100
AcDbVisualStyle
  2
2dWireframe
 70
     4
 71
     0
 72
     2
 73
     0
 90
        0
 40
-0.6
 41
-30.0
 62
     5
 63
     7
421
 16777215
 74
     1
 91
        4
 64
     7
 65
   257
 75
     1
175
     1
 42
1.0
 92
        0
 66
   257
 43
1.0
 76
     1
 77
     6
 78
     2
 67
     7
 79
     5
170
     0
171
     0
290
     0
174
     0
 93
        1
 44
0.0
173
     0
291
     0
 45
0.0
  0
VISUALSTYLE
  5
31
102
{ACAD_REACTORS
330
2A
102
}
102
{ACAD_XDICTIONARY
360
20D
102
}
330
2A
100
AcDbVisualStyle
  2
3D Hidden
 70
     6
 71
     1
 72
     2
 73
     2
 90
        0
 40
-0.6
 41
-30.0
 62
     5
 63
     7
421
 16777215
 74
     2
 91
        2
 64
     7
 65
   257
 75
     2
175
     1
 42
40.0
 92
        0
 66
   257
 43
1.0
 76
     1
 77
     6
 78
     2
 67
     7
 79
     3
170
     0
171
     0
290
     0
174
     0
 93
        1
 44
0.0
173
     0
291
     0
 45
0.0
  0
VISUALSTYLE
  5
30
102
{ACAD_REACTORS
330
2A
102
}
102
{ACAD_XDICTIONARY
360
20B
102
}
330
2A
100
AcDbVisualStyle
  2
3dWireframe
 70
     5
 71
     0
 72
     2
 73
     0
 90
        0
 40
-0.6
 41
-30.0
 62
     5
 63
     7
421
 16777215
 74
     1
 91
        4
 64
     7
 65
   257
 75
     1
175
     1
 42
1.0
 92
        0
 66
   257
 43
1.0
 76
     1
 77
     6
 78
     2
 67
     7
 79
     5
170
     0
171
     0
290
     0
174
     0
 93
        1
 44
0.0
173
     0
291
     0
 45
0.0
  0
VISUALSTYLE
  5
32
102
{ACAD_REACTORS
330
2A
102
}
102
{ACAD_XDICTIONARY
360
20F
102
}
330
2A
100
AcDbVisualStyle
  2
Basic
 70
     7
 71
     1
 72
     0
 73
     1
 90
        0
 40
-0.6
 41
-30.0
 62
     5
 63
     7
421
 16777215
 74
     0
 91
        4
 64
     7
 65
   257
 75
     1
175
     1
 42
1.0
 92
        8
 66
     7
 43
1.0
 76
     1
 77
     6
 78
     2
 67
     7
 79
     5
170
     0
171
     0
290
     0
174
     0
 93
        1
 44
0.0
173
     0
291
     1
 45
0.0
  0
VISUALSTYLE
  5
36
102
{ACAD_REACTORS
330
2A
102
}
102
{ACAD_XDICTIONARY
360
217
102
}
330
2A
100
AcDbVisualStyle
  2
Brighten
 70
    12
 71
     2
 72
     2
 73
     0
 90
        0
 40
-0.6
 41
-30.0
 62
     5
 63
     7
421
 16777215
 74
     1
 91
        4
 64
     7
 65
   257
 75
     1
175
     1
 42
1.0
 92
        8
 66
     7
 43
1.0
 76
     1
 77
     6
 78
     2
 67
     7
 79
     5
170
     0
171
     0
290
     0
174
     0
 93
        1
 44
50.0
173
     0
291
     1
 45
0.0
  0
VISUALSTYLE
  5
3A
102
{ACAD_REACTORS
330
2A
102
}
102
{ACAD_XDICTIONARY
360
21F
102
}
330
2A
100
AcDbVisualStyle
  2
ColorChange
 70
    16
 71
     2
 72
     2
 73
     3
 90
        0
 40
-0.6
 41
-30.0
 62
     5
 63
     8
421
  8421504
 74
     1
 91
        4
 64
     7
 65
   257
 75
     1
175
     1
 42
1.0
 92
        8
 66
     8
424
  8421504
 43
1.0
 76
     1
 77
     6
 78
     2
 67
     7
 79
     5
170
     0
171
     0
290
     0
174
     0
 93
        1
 44
0.0
173
     0
291
     1
 45
0.0
  0
VISUALSTYLE
  5
34
102
{ACAD_REACTORS
330
2A
102
}
102
{ACAD_XDICTIONARY
360
213
102
}
330
2A
100
AcDbVisualStyle
  2
Conceptual
 70
     9
 71
     3
 72
     2
 73
     0
 90
        0
 40
-0.6
 41
-30.0
 62
     5
 63
     7
421
 16777215
 74
     2
 91
        2
 64
     7
 65
   257
 75
     1
175
     1
 42
40.0
 92
        8
 66
     7
 43
1.0
 76
     1
 77
     6
 78
     2
 67
     7
 79
     3
170
     0
171
     0
290
     0
174
     0
 93
        1
 44
0.0
173
     0
291
     0
 45
0.0
  0
VISUALSTYLE
  5
35
102
{ACAD_REACTORS
330
2A
102
}
102
{ACAD_XDICTIONARY
360
215
102
}
330
2A
100
AcDbVisualStyle
  2
Dim
 70
    11
 71
     2
 72
     2
 73
     0
 90
        0
 40
-0.6
 41
-30.0
 62
     5
 63
     7
421
 16777215
 74
     1
 91
        4
 64
     7
 65
   257
 75
     1
175
     1
 42
1.0
 92
        8
 66
     7
 43
1.0
 76
     1
 77
     6
 78
     2
 67
     7
 79
     5
170
     0
171
     0
290
     0
174
     0
 93
        1
 44
-50.0
173
     0
291
     1
 45
0.0
  0
VISUALSTYLE
  5
39
102
{ACAD_REACTORS
330
2A
102
}
102
{ACAD_XDICTIONARY
360
21D
102
}
330
2A
100
AcDbVisualStyle
  2
Facepattern
 70
    15
 71
     2
 72
     2
 73
     0
 90
        0
 40
-0.6
 41
-30.0
 62
     5
 63
     7
421
 16777215
 74
     1
 91
        4
 64
     7
 65
   257
 75
     1
175
     1
 42
1.0
 92
        8
 66
     7
 43
1.0
 76
     1
 77
     6
 78
     2
 67
     7
 79
     5
170
     0
171
     0
290
     0
174
     0
 93
        1
 44
0.0
173
     0
291
     1
 45
0.0
  0
VISUALSTYLE
  5
2B
102
{ACAD_REACTORS
330
2A
102
}
102
{ACAD_XDICTIONARY
360
201
102
}
330
2A
100
AcDbVisualStyle
  2
Flat
 70
     0
 71
     2
 72
     1
 73
     1
 90
        2
 40
-0.6
 41
30.0
 62
     5
 63
     7
421
 16777215
 74
     0
 91
        4
 64
     7
 65
   257
 75
     1
175
     1
 42
1.0
 92
        8
 66
     7
 43
1.0
 76
     1
 77
     6
 78
     2
 67
     7
 79
     5
170
     0
171
     0
290
     0
174
     0
 93
       13
 44
0.0
173
     0
291
     1
 45
0.0
  0
VISUALSTYLE
  5
2C
102
{ACAD_REACTORS
330
2A
102
}
102
{ACAD_XDICTIONARY
360
203
102
}
330
2A
100
AcDbVisualStyle
  2
FlatWithEdges
 70
     1
 71
     2
 72
     1
 73
     1
 90
        2
 40
-0.6
 41
30.0
 62
     5
 63
     7
421
 16777215
 74
     1
 91
        4
 64
     7
 65
   257
 75
     1
175
     1
 42
1.0
 92
        0
 66
   257
 43
1.0
 76
     1
 77
     6
 78
     2
 67
     7
 79
     5
170
     0
171
     0
290
     0
174
     0
 93
       13
 44
0.0
173
     0
291
     1
 45
0.0
  0
VISUALSTYLE
  5
2D
102
{ACAD_REACTORS
330
2A
102
}
102
{ACAD_XDICTIONARY
360
205
102
}
330
2A
100
AcDbVisualStyle
  2
Gouraud
 70
     2
 71
     2
 72
     2
 73
     1
 90
        2
 40
-0.6
 41
30.0
 62
     5
 63
     7
421
 16777215
 74
     0
 91
        4
 64
     7
 65
   257
 75
     1
175
     1
 42
1.0
 92
        0
 66
     7
 43
1.0
 76
     1
 77
     6
 78
     2
 67
     7
 79
     5
170
     0
171
     0
290
     0
174
     0
 93
       13
 44
0.0
173
     0
291
     1
 45
0.0
  0
VISUALSTYLE
  5
2E
102
{ACAD_REACTORS
330
2A
102
}
102
{ACAD_XDICTIONARY
360
207
102
}
330
2A
100
AcDbVisualStyle
  2
GouraudWithEdges
 70
     3
 71
     2
 72
     2
 73
     1
 90
        2
 40
-0.6
 41
30.0
 62
     5
 63
     7
421
 16777215
 74
     1
 91
        4
 64
     7
 65
   257
 75
     1
175
     1
 42
1.0
 92
        0
 66
   257
 43
1.0
 76
     1
 77
     6
 78
     2
 67
     7
 79
     5
170
     0
171
     0
290
     0
174
     0
 93
       13
 44
0.0
173
     0
291
     1
 45
0.0
  0
VISUALSTYLE
  5
38
102
{ACAD_REACTORS
330
2A
102
}
102
{ACAD_XDICTIONARY
360
21B
102
}
330
2A
100
AcDbVisualStyle
  2
Linepattern
 70
    14
 71
     2
 72
     2
 73
     0
 90
        0
 40
-0.6
 41
-30.0
 62
     5
 63
     7
421
 16777215
 74
     1
 91
        4
 64
     7
 65
   257
 75
     7
175
     7
 42
1.0
 92
        8
 66
     7
 43
1.0
 76
     1
 77
     6
 78
     2
 67
     7
 79
     5
170
     0
171
     0
290
     0
174
     0
 93
        1
 44
0.0
173
     0
291
     1
 45
0.0
  0
VISUALSTYLE
  5
33
102
{ACAD_REACTORS
330
2A
102
}
102
{ACAD_XDICTIONARY
360
211
102
}
330
2A
100
AcDbVisualStyle
  2
Realistic
 70
     8
 71
     2
 72
     2
 73
     0
 90
        0
 40
-0.6
 41
-30.0
 62
     5
 63
     7
421
 16777215
 74
     1
 91
        0
 64
     7
 65
   257
 75
     1
175
     1
 42
1.0
 92
        8
 66
     8
424
  7895160
 43
1.0
 76
     1
 77
     6
 78
     2
 67
     7
 79
     5
170
     0
171
     0
290
     0
174
     0
 93
       13
 44
0.0
173
     0
291
     0
 45
0.0
  0
VISUALSTYLE
  5
37
102
{ACAD_REACTORS
330
2A
102
}
102
{ACAD_XDICTIONARY
360
219
102
}
330
2A
100
AcDbVisualStyle
  2
Thicken
 70
    13
 71
     2
 72
     2
 73
     0
 90
        0
 40
-0.6
 41
-30.0
 62
     5
 63
     7
421
 16777215
 74
     1
 91
        4
 64
     7
 65
   257
 75
     1
175
     1
 42
1.0
 92
       12
 66
     7
 43
1.0
 76
     1
 77
     6
 78
     2
 67
     7
 79
     5
170
     0
171
     0
290
     0
174
     0
 93
        1
 44
0.0
173
     0
291
     1
 45
0.0
  0
DICTIONARY
  5
209
330
2F
100
AcDbDictionary
280
     1
281
     1
  3
ACAD_XREC_ROUNDTRIP
360
20A
  0
DICTIONARY
  5
20D
330
31
100
AcDbDictionary
280
     1
281
     1
  3
ACAD_XREC_ROUNDTRIP
360
20E
  0
DICTIONARY
  5
20B
330
30
100
AcDbDictionary
280
     1
281
     1
  3
ACAD_XREC_ROUNDTRIP
360
20C
  0
DICTIONARY
  5
20F
330
32
100
AcDbDictionary
280
     1
281
     1
  3
ACAD_XREC_ROUNDTRIP
360
210
  0
DICTIONARY
  5
217
330
36
100
AcDbDictionary
280
     1
281
     1
  3
ACAD_XREC_ROUNDTRIP
360
218
  0
DICTIONARY
  5
21F
330
3A
100
AcDbDictionary
280
     1
281
     1
  3
ACAD_XREC_ROUNDTRIP
360
220
  0
DICTIONARY
  5
213
330
34
100
AcDbDictionary
280
     1
281
     1
  3
ACAD_XREC_ROUNDTRIP
360
214
  0
DICTIONARY
  5
215
330
35
100
AcDbDictionary
280
     1
281
     1
  3
ACAD_XREC_ROUNDTRIP
360
216
  0
DICTIONARY
  5
21D
330
39
100
AcDbDictionary
280
     1
281
     1
  3
ACAD_XREC_ROUNDTRIP
360
21E
  0
DICTIONARY
  5
201
330
2B
100
AcDbDictionary
280
     1
281
     1
  3
ACAD_XREC_ROUNDTRIP
360
202
  0
DICTIONARY
  5
203
330
2C
100
AcDbDictionary
280
     1
281
     1
  3
ACAD_XREC_ROUNDTRIP
360
204
  0
DICTIONARY
  5
205
330
2D
100
AcDbDictionary
280
     1
281
     1
  3
ACAD_XREC_ROUNDTRIP
360
206
  0
DICTIONARY
  5
207
330
2E
100
AcDbDictionary
280
     1
281
     1
  3
ACAD_XREC_ROUNDTRIP
360
208
  0
DICTIONARY
  5
21B
330
38
100
AcDbDictionary
280
     1
281
     1
  3
ACAD_XREC_ROUNDTRIP
360
21C
  0
DICTIONARY
  5
211
330
33
100
AcDbDictionary
280
     1
281
     1
  3
ACAD_XREC_ROUNDTRIP
360
212
  0
DICTIONARY
  5
219
330
37
100
AcDbDictionary
280
     1
281
     1
  3
ACAD_XREC_ROUNDTRIP
360
21A
  0
XRECORD
  5
20A
102
{ACAD_REACTORS
330
209
102
}
330
209
100
AcDbXrecord
280
     1
102
RTVSPropertyOp0
 70
     1
102
RTVSPropertyOp1
 70
     1
102
RTVSPropertyOp2
 70
     1
102
RTVSPropertyOp3
 70
     1
102
RTVSPropertyOp4
 70
     1
102
RTVSPropertyOp5
 70
     1
102
RTVSPropertyOp6
 70
     1
102
RTVSPropertyOp7
 70
     1
102
RTVSPropertyOp8
 70
     1
102
RTVSPropertyOp9
 70
     1
102
RTVSPropertyOp10
 70
     1
102
RTVSPropertyOp11
 70
     1
102
RTVSPropertyOp12
 70
     1
102
RTVSPropertyOp13
 70
     1
102
RTVSPropertyOp14
 70
     1
102
RTVSPropertyOp15
 70
     1
102
RTVSPropertyOp16
 70
     1
102
RTVSPropertyOp17
 70
     1
102
RTVSPropertyOp18
 70
     1
102
RTVSPropertyOp19
 70
     1
102
RTVSPropertyOp20
 70
     1
102
RTVSPropertyOp21
 70
     1
102
RTVSPropertyOp22
 70
     1
102
RTVSPropertyOp23
 70
     1
102
RTVSPropertyOp24
 70
     1
102
RTVSPropertyOp25
 70
     1
102
RTVSPropertyOp26
 70
     1
102
RTVSPropertyOp27
 70
     1
  0
XRECORD
  5
20E
102
{ACAD_REACTORS
330
20D
102
}
330
20D
100
AcDbXrecord
280
     1
102
RTVSPropertyOp0
 70
     1
102
RTVSPropertyOp1
 70
     1
102
RTVSPropertyOp2
 70
     1
102
RTVSPropertyOp3
 70
     1
102
RTVSPropertyOp4
 70
     1
102
RTVSPropertyOp5
 70
     1
102
RTVSPropertyOp6
 70
     1
102
RTVSPropertyOp7
 70
     1
102
RTVSPropertyOp8
 70
     1
102
RTVSPropertyOp9
 70
     1
102
RTVSPropertyOp10
 70
     1
102
RTVSPropertyOp11
 70
     1
102
RTVSPropertyOp12
 70
     1
102
RTVSPropertyOp13
 70
     1
102
RTVSPropertyOp14
 70
     1
102
RTVSPropertyOp15
 70
     1
102
RTVSPropertyOp16
 70
     1
102
RTVSPropertyOp17
 70
     1
102
RTVSPropertyOp18
 70
     1
102
RTVSPropertyOp19
 70
     1
102
RTVSPropertyOp20
 70
     1
102
RTVSPropertyOp21
 70
     1
102
RTVSPropertyOp22
 70
     1
102
RTVSPropertyOp23
 70
     1
102
RTVSPropertyOp24
 70
     1
102
RTVSPropertyOp25
 70
     1
102
RTVSPropertyOp26
 70
     1
102
RTVSPropertyOp27
 70
     1
  0
XRECORD
  5
20C
102
{ACAD_REACTORS
330
20B
102
}
330
20B
100
AcDbXrecord
280
     1
102
RTVSPropertyOp0
 70
     1
102
RTVSPropertyOp1
 70
     1
102
RTVSPropertyOp2
 70
     1
102
RTVSPropertyOp3
 70
     1
102
RTVSPropertyOp4
 70
     1
102
RTVSPropertyOp5
 70
     1
102
RTVSPropertyOp6
 70
     1
102
RTVSPropertyOp7
 70
     1
102
RTVSPropertyOp8
 70
     1
102
RTVSPropertyOp9
 70
     1
102
RTVSPropertyOp10
 70
     1
102
RTVSPropertyOp11
 70
     1
102
RTVSPropertyOp12
 70
     1
102
RTVSPropertyOp13
 70
     1
102
RTVSPropertyOp14
 70
     1
102
RTVSPropertyOp15
 70
     1
102
RTVSPropertyOp16
 70
     1
102
RTVSPropertyOp17
 70
     1
102
RTVSPropertyOp18
 70
     1
102
RTVSPropertyOp19
 70
     1
102
RTVSPropertyOp20
 70
     1
102
RTVSPropertyOp21
 70
     1
102
RTVSPropertyOp22
 70
     1
102
RTVSPropertyOp23
 70
     1
102
RTVSPropertyOp24
 70
     1
102
RTVSPropertyOp25
 70
     1
102
RTVSPropertyOp26
 70
     1
102
RTVSPropertyOp27
 70
     1
  0
XRECORD
  5
210
102
{ACAD_REACTORS
330
20F
102
}
330
20F
100
AcDbXrecord
280
     1
102
RTVSPropertyOp0
 70
     1
102
RTVSPropertyOp1
 70
     1
102
RTVSPropertyOp2
 70
     1
102
RTVSPropertyOp3
 70
     1
102
RTVSPropertyOp4
 70
     1
102
RTVSPropertyOp5
 70
     1
102
RTVSPropertyOp6
 70
     1
102
RTVSPropertyOp7
 70
     1
102
RTVSPropertyOp8
 70
     1
102
RTVSPropertyOp9
 70
     1
102
RTVSPropertyOp10
 70
     1
102
RTVSPropertyOp11
 70
     1
102
RTVSPropertyOp12
 70
     1
102
RTVSPropertyOp13
 70
     1
102
RTVSPropertyOp14
 70
     1
102
RTVSPropertyOp15
 70
     1
102
RTVSPropertyOp16
 70
     1
102
RTVSPropertyOp17
 70
     1
102
RTVSPropertyOp18
 70
     1
102
RTVSPropertyOp19
 70
     1
102
RTVSPropertyOp20
 70
     1
102
RTVSPropertyOp21
 70
     1
102
RTVSPropertyOp22
 70
     1
102
RTVSPropertyOp23
 70
     1
102
RTVSPropertyOp24
 70
     1
102
RTVSPropertyOp25
 70
     1
102
RTVSPropertyOp26
 70
     1
102
RTVSPropertyOp27
 70
     1
  0
XRECORD
  5
218
102
{ACAD_REACTORS
330
217
102
}
330
217
100
AcDbXrecord
280
     1
102
RTVSPropertyOp0
 70
     1
102
RTVSPropertyOp1
 70
     1
102
RTVSPropertyOp2
 70
     1
102
RTVSPropertyOp3
 70
     1
102
RTVSPropertyOp4
 70
     1
102
RTVSPropertyOp5
 70
     1
102
RTVSPropertyOp6
 70
     1
102
RTVSPropertyOp7
 70
     1
102
RTVSPropertyOp8
 70
     1
102
RTVSPropertyOp9
 70
     1
102
RTVSPropertyOp10
 70
     1
102
RTVSPropertyOp11
 70
     1
102
RTVSPropertyOp12
 70
     1
102
RTVSPropertyOp13
 70
     1
102
RTVSPropertyOp14
 70
     1
102
RTVSPropertyOp15
 70
     1
102
RTVSPropertyOp16
 70
     1
102
RTVSPropertyOp17
 70
     1
102
RTVSPropertyOp18
 70
     1
102
RTVSPropertyOp19
 70
     1
102
RTVSPropertyOp20
 70
     1
102
RTVSPropertyOp21
 70
     1
102
RTVSPropertyOp22
 70
     1
102
RTVSPropertyOp23
 70
     1
102
RTVSPropertyOp24
 70
     1
102
RTVSPropertyOp25
 70
     1
102
RTVSPropertyOp26
 70
     1
102
RTVSPropertyOp27
 70
     1
  0
XRECORD
  5
220
102
{ACAD_REACTORS
330
21F
102
}
330
21F
100
AcDbXrecord
280
     1
102
RTVSPropertyOp0
 70
     1
102
RTVSPropertyOp1
 70
     1
102
RTVSPropertyOp2
 70
     1
102
RTVSPropertyOp3
 70
     1
102
RTVSPropertyOp4
 70
     1
102
RTVSPropertyOp5
 70
     1
102
RTVSPropertyOp6
 70
     1
102
RTVSPropertyOp7
 70
     1
102
RTVSPropertyOp8
 70
     1
102
RTVSPropertyOp9
 70
     1
102
RTVSPropertyOp10
 70
     1
102
RTVSPropertyOp11
 70
     1
102
RTVSPropertyOp12
 70
     1
102
RTVSPropertyOp13
 70
     1
102
RTVSPropertyOp14
 70
     1
102
RTVSPropertyOp15
 70
     1
102
RTVSPropertyOp16
 70
     1
102
RTVSPropertyOp17
 70
     1
102
RTVSPropertyOp18
 70
     1
102
RTVSPropertyOp19
 70
     1
102
RTVSPropertyOp20
 70
     1
102
RTVSPropertyOp21
 70
     1
102
RTVSPropertyOp22
 70
     1
102
RTVSPropertyOp23
 70
     1
102
RTVSPropertyOp24
 70
     1
102
RTVSPropertyOp25
 70
     1
102
RTVSPropertyOp26
 70
     1
102
RTVSPropertyOp27
 70
     1
  0
XRECORD
  5
214
102
{ACAD_REACTORS
330
213
102
}
330
213
100
AcDbXrecord
280
     1
102
RTVSPropertyOp0
 70
     1
102
RTVSPropertyOp1
 70
     1
102
RTVSPropertyOp2
 70
     1
102
RTVSPropertyOp3
 70
     1
102
RTVSPropertyOp4
 70
     1
102
RTVSPropertyOp5
 70
     1
102
RTVSPropertyOp6
 70
     1
102
RTVSPropertyOp7
 70
     1
102
RTVSPropertyOp8
 70
     1
102
RTVSPropertyOp9
 70
     1
102
RTVSPropertyOp10
 70
     1
102
RTVSPropertyOp11
 70
     1
102
RTVSPropertyOp12
 70
     1
102
RTVSPropertyOp13
 70
     1
102
RTVSPropertyOp14
 70
     1
102
RTVSPropertyOp15
 70
     1
102
RTVSPropertyOp16
 70
     1
102
RTVSPropertyOp17
 70
     1
102
RTVSPropertyOp18
 70
     1
102
RTVSPropertyOp19
 70
     1
102
RTVSPropertyOp20
 70
     1
102
RTVSPropertyOp21
 70
     1
102
RTVSPropertyOp22
 70
     1
102
RTVSPropertyOp23
 70
     1
102
RTVSPropertyOp24
 70
     1
102
RTVSPropertyOp25
 70
     1
102
RTVSPropertyOp26
 70
     1
102
RTVSPropertyOp27
 70
     1
  0
XRECORD
  5
216
102
{ACAD_REACTORS
330
215
102
}
330
215
100
AcDbXrecord
280
     1
102
RTVSPropertyOp0
 70
     1
102
RTVSPropertyOp1
 70
     1
102
RTVSPropertyOp2
 70
     1
102
RTVSPropertyOp3
 70
     1
102
RTVSPropertyOp4
 70
     1
102
RTVSPropertyOp5
 70
     1
102
RTVSPropertyOp6
 70
     1
102
RTVSPropertyOp7
 70
     1
102
RTVSPropertyOp8
 70
     1
102
RTVSPropertyOp9
 70
     1
102
RTVSPropertyOp10
 70
     1
102
RTVSPropertyOp11
 70
     1
102
RTVSPropertyOp12
 70
     1
102
RTVSPropertyOp13
 70
     1
102
RTVSPropertyOp14
 70
     1
102
RTVSPropertyOp15
 70
     1
102
RTVSPropertyOp16
 70
     1
102
RTVSPropertyOp17
 70
     1
102
RTVSPropertyOp18
 70
     1
102
RTVSPropertyOp19
 70
     1
102
RTVSPropertyOp20
 70
     1
102
RTVSPropertyOp21
 70
     1
102
RTVSPropertyOp22
 70
     1
102
RTVSPropertyOp23
 70
     1
102
RTVSPropertyOp24
 70
     1
102
RTVSPropertyOp25
 70
     1
102
RTVSPropertyOp26
 70
     1
102
RTVSPropertyOp27
 70
     1
  0
XRECORD
  5
21E
102
{ACAD_REACTORS
330
21D
102
}
330
21D
100
AcDbXrecord
280
     1
102
RTVSPropertyOp0
 70
     1
102
RTVSPropertyOp1
 70
     1
102
RTVSPropertyOp2
 70
     1
102
RTVSPropertyOp3
 70
     1
102
RTVSPropertyOp4
 70
     1
102
RTVSPropertyOp5
 70
     1
102
RTVSPropertyOp6
 70
     1
102
RTVSPropertyOp7
 70
     1
102
RTVSPropertyOp8
 70
     1
102
RTVSPropertyOp9
 70
     1
102
RTVSPropertyOp10
 70
     1
102
RTVSPropertyOp11
 70
     1
102
RTVSPropertyOp12
 70
     1
102
RTVSPropertyOp13
 70
     1
102
RTVSPropertyOp14
 70
     1
102
RTVSPropertyOp15
 70
     1
102
RTVSPropertyOp16
 70
     1
102
RTVSPropertyOp17
 70
     1
102
RTVSPropertyOp18
 70
     1
102
RTVSPropertyOp19
 70
     1
102
RTVSPropertyOp20
 70
     1
102
RTVSPropertyOp21
 70
     1
102
RTVSPropertyOp22
 70
     1
102
RTVSPropertyOp23
 70
     1
102
RTVSPropertyOp24
 70
     1
102
RTVSPropertyOp25
 70
     1
102
RTVSPropertyOp26
 70
     1
102
RTVSPropertyOp27
 70
     1
  0
XRECORD
  5
202
102
{ACAD_REACTORS
330
201
102
}
330
201
100
AcDbXrecord
280
     1
102
RTVSPropertyOp0
 70
     1
102
RTVSPropertyOp1
 70
     1
102
RTVSPropertyOp2
 70
     1
102
RTVSPropertyOp3
 70
     1
102
RTVSPropertyOp4
 70
     1
102
RTVSPropertyOp5
 70
     1
102
RTVSPropertyOp6
 70
     1
102
RTVSPropertyOp7
 70
     1
102
RTVSPropertyOp8
 70
     1
102
RTVSPropertyOp9
 70
     1
102
RTVSPropertyOp10
 70
     1
102
RTVSPropertyOp11
 70
     1
102
RTVSPropertyOp12
 70
     1
102
RTVSPropertyOp13
 70
     1
102
RTVSPropertyOp14
 70
     1
102
RTVSPropertyOp15
 70
     1
102
RTVSPropertyOp16
 70
     1
102
RTVSPropertyOp17
 70
     1
102
RTVSPropertyOp18
 70
     1
102
RTVSPropertyOp19
 70
     1
102
RTVSPropertyOp20
 70
     1
102
RTVSPropertyOp21
 70
     1
102
RTVSPropertyOp22
 70
     1
102
RTVSPropertyOp23
 70
     1
102
RTVSPropertyOp24
 70
     1
102
RTVSPropertyOp25
 70
     1
102
RTVSPropertyOp26
 70
     1
102
RTVSPropertyOp27
 70
     1
  0
XRECORD
  5
204
102
{ACAD_REACTORS
330
203
102
}
330
203
100
AcDbXrecord
280
     1
102
RTVSPropertyOp0
 70
     1
102
RTVSPropertyOp1
 70
     1
102
RTVSPropertyOp2
 70
     1
102
RTVSPropertyOp3
 70
     1
102
RTVSPropertyOp4
 70
     1
102
RTVSPropertyOp5
 70
     1
102
RTVSPropertyOp6
 70
     1
102
RTVSPropertyOp7
 70
     1
102
RTVSPropertyOp8
 70
     1
102
RTVSPropertyOp9
 70
     1
102
RTVSPropertyOp10
 70
     1
102
RTVSPropertyOp11
 70
     1
102
RTVSPropertyOp12
 70
     1
102
RTVSPropertyOp13
 70
     1
102
RTVSPropertyOp14
 70
     1
102
RTVSPropertyOp15
 70
     1
102
RTVSPropertyOp16
 70
     1
102
RTVSPropertyOp17
 70
     1
102
RTVSPropertyOp18
 70
     1
102
RTVSPropertyOp19
 70
     1
102
RTVSPropertyOp20
 70
     1
102
RTVSPropertyOp21
 70
     1
102
RTVSPropertyOp22
 70
     1
102
RTVSPropertyOp23
 70
     1
102
RTVSPropertyOp24
 70
     1
102
RTVSPropertyOp25
 70
     1
102
RTVSPropertyOp26
 70
     1
102
RTVSPropertyOp27
 70
     1
  0
XRECORD
  5
206
102
{ACAD_REACTORS
330
205
102
}
330
205
100
AcDbXrecord
280
     1
102
RTVSPropertyOp0
 70
     1
102
RTVSPropertyOp1
 70
     1
102
RTVSPropertyOp2
 70
     1
102
RTVSPropertyOp3
 70
     1
102
RTVSPropertyOp4
 70
     1
102
RTVSPropertyOp5
 70
     1
102
RTVSPropertyOp6
 70
     1
102
RTVSPropertyOp7
 70
     1
102
RTVSPropertyOp8
 70
     1
102
RTVSPropertyOp9
 70
     1
102
RTVSPropertyOp10
 70
     1
102
RTVSPropertyOp11
 70
     1
102
RTVSPropertyOp12
 70
     1
102
RTVSPropertyOp13
 70
     1
102
RTVSPropertyOp14
 70
     1
102
RTVSPropertyOp15
 70
     1
102
RTVSPropertyOp16
 70
     1
102
RTVSPropertyOp17
 70
     1
102
RTVSPropertyOp18
 70
     1
102
RTVSPropertyOp19
 70
     1
102
RTVSPropertyOp20
 70
     1
102
RTVSPropertyOp21
 70
     1
102
RTVSPropertyOp22
 70
     1
102
RTVSPropertyOp23
 70
     1
102
RTVSPropertyOp24
 70
     1
102
RTVSPropertyOp25
 70
     1
102
RTVSPropertyOp26
 70
     1
102
RTVSPropertyOp27
 70
     1
  0
XRECORD
  5
208
102
{ACAD_REACTORS
330
207
102
}
330
207
100
AcDbXrecord
280
     1
102
RTVSPropertyOp0
 70
     1
102
RTVSPropertyOp1
 70
     1
102
RTVSPropertyOp2
 70
     1
102
RTVSPropertyOp3
 70
     1
102
RTVSPropertyOp4
 70
     1
102
RTVSPropertyOp5
 70
     1
102
RTVSPropertyOp6
 70
     1
102
RTVSPropertyOp7
 70
     1
102
RTVSPropertyOp8
 70
     1
102
RTVSPropertyOp9
 70
     1
102
RTVSPropertyOp10
 70
     1
102
RTVSPropertyOp11
 70
     1
102
RTVSPropertyOp12
 70
     1
102
RTVSPropertyOp13
 70
     1
102
RTVSPropertyOp14
 70
     1
102
RTVSPropertyOp15
 70
     1
102
RTVSPropertyOp16
 70
     1
102
RTVSPropertyOp17
 70
     1
102
RTVSPropertyOp18
 70
     1
102
RTVSPropertyOp19
 70
     1
102
RTVSPropertyOp20
 70
     1
102
RTVSPropertyOp21
 70
     1
102
RTVSPropertyOp22
 70
     1
102
RTVSPropertyOp23
 70
     1
102
RTVSPropertyOp24
 70
     1
102
RTVSPropertyOp25
 70
     1
102
RTVSPropertyOp26
 70
     1
102
RTVSPropertyOp27
 70
     1
  0
XRECORD
  5
21C
102
{ACAD_REACTORS
330
21B
102
}
330
21B
100
AcDbXrecord
280
     1
102
RTVSPropertyOp0
 70
     1
102
RTVSPropertyOp1
 70
     1
102
RTVSPropertyOp2
 70
     1
102
RTVSPropertyOp3
 70
     1
102
RTVSPropertyOp4
 70
     1
102
RTVSPropertyOp5
 70
     1
102
RTVSPropertyOp6
 70
     1
102
RTVSPropertyOp7
 70
     1
102
RTVSPropertyOp8
 70
     1
102
RTVSPropertyOp9
 70
     1
102
RTVSPropertyOp10
 70
     1
102
RTVSPropertyOp11
 70
     1
102
RTVSPropertyOp12
 70
     1
102
RTVSPropertyOp13
 70
     1
102
RTVSPropertyOp14
 70
     1
102
RTVSPropertyOp15
 70
     1
102
RTVSPropertyOp16
 70
     1
102
RTVSPropertyOp17
 70
     1
102
RTVSPropertyOp18
 70
     1
102
RTVSPropertyOp19
 70
     1
102
RTVSPropertyOp20
 70
     1
102
RTVSPropertyOp21
 70
     1
102
RTVSPropertyOp22
 70
     1
102
RTVSPropertyOp23
 70
     1
102
RTVSPropertyOp24
 70
     1
102
RTVSPropertyOp25
 70
     1
102
RTVSPropertyOp26
 70
     1
102
RTVSPropertyOp27
 70
     1
  0
XRECORD
  5
212
102
{ACAD_REACTORS
330
211
102
}
330
211
100
AcDbXrecord
280
     1
102
RTVSPropertyOp0
 70
     1
102
RTVSPropertyOp1
 70
     1
102
RTVSPropertyOp2
 70
     1
102
RTVSPropertyOp3
 70
     1
102
RTVSPropertyOp4
 70
     1
102
RTVSPropertyOp5
 70
     1
102
RTVSPropertyOp6
 70
     1
102
RTVSPropertyOp7
 70
     1
102
RTVSPropertyOp8
 70
     1
102
RTVSPropertyOp9
 70
     1
102
RTVSPropertyOp10
 70
     1
102
RTVSPropertyOp11
 70
     1
102
RTVSPropertyOp12
 70
     1
102
RTVSPropertyOp13
 70
     1
102
RTVSPropertyOp14
 70
     1
102
RTVSPropertyOp15
 70
     1
102
RTVSPropertyOp16
 70
     1
102
RTVSPropertyOp17
 70
     1
102
RTVSPropertyOp18
 70
     1
102
RTVSPropertyOp19
 70
     1
102
RTVSPropertyOp20
 70
     1
102
RTVSPropertyOp21
 70
     1
102
RTVSPropertyOp22
 70
     1
102
RTVSPropertyOp23
 70
     1
102
RTVSPropertyOp24
 70
     1
102
RTVSPropertyOp25
 70
     1
102
RTVSPropertyOp26
 70
     1
102
RTVSPropertyOp27
 70
     1
  0
XRECORD
  5
21A
102
{ACAD_REACTORS
330
219
102
}
330
219
100
AcDbXrecord
280
     1
102
RTVSPropertyOp0
 70
     1
102
RTVSPropertyOp1
 70
     1
102
RTVSPropertyOp2
 70
     1
102
RTVSPropertyOp3
 70
     1
102
RTVSPropertyOp4
 70
     1
102
RTVSPropertyOp5
 70
     1
102
RTVSPropertyOp6
 70
     1
102
RTVSPropertyOp7
 70
     1
102
RTVSPropertyOp8
 70
     1
102
RTVSPropertyOp9
 70
     1
102
RTVSPropertyOp10
 70
     1
102
RTVSPropertyOp11
 70
     1
102
RTVSPropertyOp12
 70
     1
102
RTVSPropertyOp13
 70
     1
102
RTVSPropertyOp14
 70
     1
102
RTVSPropertyOp15
 70
     1
102
RTVSPropertyOp16
 70
     1
102
RTVSPropertyOp17
 70
     1
102
RTVSPropertyOp18
 70
     1
102
RTVSPropertyOp19
 70
     1
102
RTVSPropertyOp20
 70
     1
102
RTVSPropertyOp21
 70
     1
102
RTVSPropertyOp22
 70
     1
102
RTVSPropertyOp23
 70
     1
102
RTVSPropertyOp24
 70
     1
102
RTVSPropertyOp25
 70
     1
102
RTVSPropertyOp26
 70
     1
102
RTVSPropertyOp27
 70
     1
  0
ENDSEC
  0
EOF
