  0
SECTION
  2
HEADER
  9
$ACADVER
  1
AC1021
  9
$ACADMAINTVER
 70
    25
  9
$DWGCODEPAGE
  3
ANSI_1252
  9
$INSBASE
 10
0.0
 20
0.0
 30
0.0
  9
$EXTMIN
 10
-9.05778
 20
-4.68287
 30
0.0
  9
$EXTMAX
 10
7.77435
 20
12.23456
 30
0.0
  9
$LIMMIN
 10
0.0
 20
0.0
  9
$LIMMAX
 10
12.0
 20
9.0
  9
$ORTHOMODE
 70
     0
  9
$REGENMODE
 70
     1
  9
$FILLMODE
 70
     1
  9
$QTEXTMODE
 70
     0
  9
$MIRRTEXT
 70
     1
  9
$LTSCALE
 40
1.0
  9
$ATTMODE
 70
     1
  9
$TEXTSIZE
 40
0.2
  9
$TRACEWID
 40
0.05
  9
$TEXTSTYLE
  7
Standard
  9
$CLAYER
  8
0
  9
$CELTYPE
  6
ByLayer
  9
$CECOLOR
 62
   256
  9
$CELTSCALE
 40
1.0
  9
$DISPSILH
 70
     0
  9
$DIMSCALE
 40
1.0
  9
$DIMASZ
 40
0.18
  9
$DIMEXO
 40
0.0625
  9
$DIMDLI
 40
0.38
  9
$DIMRND
 40
0.0
  9
$DIMDLE
 40
0.0
  9
$DIMEXE
 40
0.18
  9
$DIMTP
 40
0.0
  9
$DIMTM
 40
0.0
  9
$DIMTXT
 40
0.18
  9
$DIMCEN
 40
0.09
  9
$DIMTSZ
 40
0.0
  9
$DIMTOL
 70
     0
  9
$DIMLIM
 70
     0
  9
$DIMTIH
 70
     1
  9
$DIMTOH
 70
     1
  9
$DIMSE1
 70
     0
  9
$DIMSE2
 70
     0
  9
$DIMTAD
 70
     0
  9
$DIMZIN
 70
     0
  9
$DIMBLK
  1

  9
$DIMASO
 70
     1
  9
$DIMSHO
 70
     1
  9
$DIMPOST
  1

  9
$DIMAPOST
  1

  9
$DIMALT
 70
     0
  9
$DIMALTD
 70
     2
  9
$DIMALTF
 40
25.4
  9
$DIMLFAC
 40
1.0
  9
$DIMTOFL
 70
     0
  9
$DIMTVP
 40
0.0
  9
$DIMTIX
 70
     0
  9
$DIMSOXD
 70
     0
  9
$DIMSAH
 70
     0
  9
$DIMBLK1
  1

  9
$DIMBLK2
  1

  9
$DIMSTYLE
  2
Standard
  9
$DIMCLRD
 70
     0
  9
$DIMCLRE
 70
     0
  9
$DIMCLRT
 70
     0
  9
$DIMTFAC
 40
1.0
  9
$DIMGAP
 40
0.09
  9
$DIMJUST
 70
     0
  9
$DIMSD1
 70
     0
  9
$DIMSD2
 70
     0
  9
$DIMTOLJ
 70
     1
  9
$DIMTZIN
 70
     0
  9
$DIMALTZ
 70
     0
  9
$DIMALTTZ
 70
     0
  9
$DIMUPT
 70
     0
  9
$DIMDEC
 70
     4
  9
$DIMTDEC
 70
     4
  9
$DIMALTU
 70
     2
  9
$DIMALTTD
 70
     2
  9
$DIMTXSTY
  7
Standard
  9
$DIMAUNIT
 70
     0
  9
$DIMADEC
 70
     0
  9
$DIMALTRND
 40
0.0
  9
$DIMAZIN
 70
     0
  9
$DIMDSEP
 70
    46
  9
$DIMATFIT
 70
     3
  9
$DIMFRAC
 70
     0
  9
$DIMLDRBLK
  1

  9
$DIMLUNIT
 70
     2
  9
$DIMLWD
 70
    -2
  9
$DIMLWE
 70
    -2
  9
$DIMTMOVE
 70
     0
  9
$DIMFXL
 40
1.0
  9
$DIMFXLON
 70
     0
  9
$DIMJOGANG
 40
0.7853981633974483
  9
$DIMTFILL
 70
     0
  9
$DIMTFILLCLR
 70
     0
  9
$DIMARCSYM
 70
     0
  9
$DIMLTYPE
  6

  9
$DIMLTEX1
  6

  9
$DIMLTEX2
  6

  9
$LUNITS
 70
     2
  9
$LUPREC
 70
     4
  9
$SKETCHINC
 40
0.1
  9
$FILLETRAD
 40
0.5
  9
$AUNITS
 70
     0
  9
$AUPREC
 70
     0
  9
$MENU
  1
.
  9
$ELEVATION
 40
0.0
  9
$PELEVATION
 40
0.0
  9
$THICKNESS
 40
0.0
  9
$LIMCHECK
 70
     0
  9
$CHAMFERA
 40
0.5
  9
$CHAMFERB
 40
0.5
  9
$CHAMFERC
 40
1.0
  9
$CHAMFERD
 40
0.0
  9
$SKPOLY
 70
     0
  9
$TDCREATE
 40
2456615.365258264
  9
$TDUCREATE
 40
2456615.323591597
  9
$TDUPDATE
 40
2456615.365258276
  9
$TDUUPDATE
 40
2456615.323591609
  9
$TDINDWG
 40
0.0000000116
  9
$TDUSRTIMER
 40
0.0000000116
  9
$USRTIMER
 70
     1
  9
$ANGBASE
 50
0.0
  9
$ANGDIR
 70
     0
  9
$PDMODE
 70
     0
  9
$PDSIZE
 40
0.0
  9
$PLINEWID
 40
0.0
  9
$SPLFRAME
 70
     0
  9
$SPLINETYPE
 70
     6
  9
$SPLINESEGS
 70
     8
  9
$HANDSEED
  5
1DC
  9
$SURFTAB1
 70
     6
  9
$SURFTAB2
 70
     6
  9
$SURFTYPE
 70
     6
  9
$SURFU
 70
     6
  9
$SURFV
 70
     6
  9
$UCSBASE
  2

  9
$UCSNAME
  2

  9
$UCSORG
 10
0.0
 20
0.0
 30
0.0
  9
$UCSXDIR
 10
1.0
 20
0.0
 30
0.0
  9
$UCSYDIR
 10
0.0
 20
1.0
 30
0.0
  9
$UCSORTHOREF
  2

  9
$UCSORTHOVIEW
 70
     0
  9
$UCSORGTOP
 10
0.0
 20
0.0
 30
0.0
  9
$UCSORGBOTTOM
 10
0.0
 20
0.0
 30
0.0
  9
$UCSORGLEFT
 10
0.0
 20
0.0
 30
0.0
  9
$UCSORGRIGHT
 10
0.0
 20
0.0
 30
0.0
  9
$UCSORGFRONT
 10
0.0
 20
0.0
 30
0.0
  9
$UCSORGBACK
 10
0.0
 20
0.0
 30
0.0
  9
$PUCSBASE
  2

  9
$PUCSNAME
  2

  9
$PUCSORG
 10
0.0
 20
0.0
 30
0.0
  9
$PUCSXDIR
 10
1.0
 20
0.0
 30
0.0
  9
$PUCSYDIR
 10
0.0
 20
1.0
 30
0.0
  9
$PUCSORTHOREF
  2

  9
$PUCSORTHOVIEW
 70
     0
  9
$PUCSORGTOP
 10
0.0
 20
0.0
 30
0.0
  9
$PUCSORGBOTTOM
 10
0.0
 20
0.0
 30
0.0
  9
$PUCSORGLEFT
 10
0.0
 20
0.0
 30
0.0
  9
$PUCSORGRIGHT
 10
0.0
 20
0.0
 30
0.0
  9
$PUCSORGFRONT
 10
0.0
 20
0.0
 30
0.0
  9
$PUCSORGBACK
 10
0.0
 20
0.0
 30
0.0
  9
$USERI1
 70
     0
  9
$USERI2
 70
     0
  9
$USERI3
 70
     0
  9
$USERI4
 70
     0
  9
$USERI5
 70
     0
  9
$USERR1
 40
0.0
  9
$USERR2
 40
0.0
  9
$USERR3
 40
0.0
  9
$USERR4
 40
0.0
  9
$USERR5
 40
0.0
  9
$WORLDVIEW
 70
     1
  9
$SHADEDGE
 70
     3
  9
$SHADEDIF
 70
    70
  9
$TILEMODE
 70
     1
  9
$MAXACTVP
 70
    64
  9
$PINSBASE
 10
0.0
 20
0.0
 30
0.0
  9
$PLIMCHECK
 70
     0
  9
$PEXTMIN
 10
1.000000000000000E+20
 20
1.000000000000000E+20
 30
1.000000000000000E+20
  9
$PEXTMAX
 10
-1.000000000000000E+20
 20
-1.000000000000000E+20
 30
-1.000000000000000E+20
  9
$PLIMMIN
 10
0.0
 20
0.0
  9
$PLIMMAX
 10
12.0
 20
9.0
  9
$UNITMODE
 70
     0
  9
$VISRETAIN
 70
     1
  9
$PLINEGEN
 70
     0
  9
$PSLTSCALE
 70
     1
  9
$TREEDEPTH
 70
  3020
  9
$CMLSTYLE
  2
Standard
  9
$CMLJUST
 70
     0
  9
$CMLSCALE
 40
1.0
  9
$PROXYGRAPHICS
 70
     1
  9
$MEASUREMENT
 70
     0
  9
$CELWEIGHT
370
    -1
  9
$ENDCAPS
280
     0
  9
$JOINSTYLE
280
     0
  9
$LWDISPLAY
290
     0
  9
$INSUNITS
 70
     5
  9
$HYPERLINKBASE
  1

  9
$STYLESHEET
  1

  9
$XEDIT
290
     1
  9
$CEPSNTYPE
380
     0
  9
$PSTYLEMODE
290
     1
  9
$FINGERPRINTGUID
  2
{DDB27240-E46B-46C2-AB62-D94D310AA6A7}
  9
$VERSIONGUID
  2
{FAEB1C32-E019-11D5-929B-00C0DF256EC4}
  9
$EXTNAMES
290
     1
  9
$PSVPSCALE
 40
0.0
  9
$OLESTARTUP
290
     0
  9
$SORTENTS
280
   127
  9
$INDEXCTL
280
     0
  9
$HIDETEXT
280
     1
  9
$XCLIPFRAME
290
     0
  9
$HALOGAP
280
     0
  9
$OBSCOLOR
 70
   257
  9
$OBSLTYPE
280
     0
  9
$INTERSECTIONDISPLAY
280
     0
  9
$INTERSECTIONCOLOR
 70
   257
  9
$DIMASSOC
280
     2
  9
$PROJECTNAME
  1

  9
$CAMERADISPLAY
290
     0
  9
$LENSLENGTH
 40
50.0
  9
$CAMERAHEIGHT
 40
0.0
  9
$STEPSPERSEC
 40
2.0
  9
$STEPSIZE
 40
6.0
  9
$3DDWFPREC
 40
2.0
  9
$PSOLWIDTH
 40
0.25
  9
$PSOLHEIGHT
 40
4.0
  9
$LOFTANG1
 40
1.570796326794897
  9
$LOFTANG2
 40
1.570796326794897
  9
$LOFTMAG1
 40
0.0
  9
$LOFTMAG2
 40
0.0
  9
$LOFTPARAM
 70
     7
  9
$LOFTNORMALS
280
     1
  9
$LATITUDE
 40
37.795
  9
$LONGITUDE
 40
-122.394
  9
$NORTHDIRECTION
 40
0.0
  9
$TIMEZONE
 70
 -8000
  9
$LIGHTGLYPHDISPLAY
280
     1
  9
$TILEMODELIGHTSYNCH
280
     1
  9
$SOLIDHIST
280
     1
  9
$SHOWHIST
280
     1
  9
$DWFFRAME
280
     2
  9
$DGNFRAME
280
     2
  9
$REALWORLDSCALE
290
     1
  9
$INTERFERECOLOR
 62
   256
  9
$CSHADOW
280
     0
  9
$SHADOWPLANELOCATION
 40
0.0
  0
ENDSEC
  0
SECTION
  2
CLASSES
  0
CLASS
  1
ACDBDICTIONARYWDFLT
  2
AcDbDictionaryWithDefault
  3
ObjectDBX Classes
 90
        0
 91
        4
280
     0
281
     0
  0
CLASS
  1
VISUALSTYLE
  2
AcDbVisualStyle
  3
ObjectDBX Classes
 90
     4095
 91
        4
280
     0
281
     0
  0
CLASS
  1
MATERIAL
  2
AcDbMaterial
  3
ObjectDBX Classes
 90
     1153
 91
        4
280
     0
281
     0
  0
ENDSEC
  0
SECTION
  2
TABLES
  0
TABLE
  2
VPORT
  5
8
330
0
100
AcDbSymbolTable
 70
     1
  0
VPORT
  5
29
330
8
100
AcDbSymbolTableRecord
100
AcDbViewportTableRecord
  2
*Active
 70
     0
 10
0.0
 20
0.0
 11
1.0
 21
1.0
 12
10.42990654205607
 22
4.5
 13
0.0
 23
0.0
 14
0.5
 24
0.5
 15
0.5
 25
0.5
 16
0.0
 26
0.0
 36
1.0
 17
0.0
 27
0.0
 37
0.0
 40
9.0
 41
1.972972972850329
 42
50.0
 43
0.0
 44
0.0
 50
0.0
 51
0.0
 71
     0
 72
   100
 73
     1
 74
     3
 75
     0
 76
     0
 77
     0
 78
     0
281
     0
 65
     1
110
0.0
120
0.0
130
0.0
111
1.0
121
0.0
131
0.0
112
0.0
122
1.0
132
0.0
 79
     0
146
0.0
 60
     3
 61
     5
292
     1
282
     1
141
0.0
142
0.0
 63
   250
  0
ENDTAB
  0
TABLE
  2
LTYPE
  5
5
330
0
100
AcDbSymbolTable
 70
     1
  0
LTYPE
  5
14
330
5
100
AcDbSymbolTableRecord
100
AcDbLinetypeTableRecord
  2
ByBlock
 70
     0
  3

 72
    65
 73
     0
 40
0.0
  0
LTYPE
  5
15
330
5
100
AcDbSymbolTableRecord
100
AcDbLinetypeTableRecord
  2
ByLayer
 70
     0
  3

 72
    65
 73
     0
 40
0.0
  0
LTYPE
  5
16
330
5
100
AcDbSymbolTableRecord
100
AcDbLinetypeTableRecord
  2
Continuous
 70
     0
  3
Solid line
 72
    65
 73
     0
 40
0.0
  0
ENDTAB
  0
TABLE
  2
LAYER
  5
2
330
0
100
AcDbSymbolTable
 70
     1
  0
LAYER
  5
10
330
2
100
AcDbSymbolTableRecord
100
AcDbLayerTableRecord
  2
0
 70
     0
 62
     7
  6
Continuous
370
    -3
390
F
347
3E
  0
ENDTAB
  0
TABLE
  2
STYLE
  5
3
330
0
100
AcDbSymbolTable
 70
     1
  0
STYLE
  5
11
330
3
100
AcDbSymbolTableRecord
100
AcDbTextStyleTableRecord
  2
Standard
 70
     0
 40
0.0
 41
1.0
 50
0.0
 71
     0
 42
0.2
  3
txt
  4

  0
ENDTAB
  0
TABLE
  2
VIEW
  5
6
330
0
100
AcDbSymbolTable
 70
     0
  0
ENDTAB
  0
TABLE
  2
UCS
  5
7
330
0
100
AcDbSymbolTable
 70
     0
  0
ENDTAB
  0
TABLE
  2
APPID
  5
9
330
0
100
AcDbSymbolTable
 70
     2
  0
APPID
  5
12
330
9
100
AcDbSymbolTableRecord
100
AcDbRegAppTableRecord
  2
ACAD
 70
     0
  0
APPID
  5
3F
330
9
100
AcDbSymbolTableRecord
100
AcDbRegAppTableRecord
  2
ODA
 70
     0
  0
ENDTAB
  0
TABLE
  2
DIMSTYLE
  5
A
330
0
100
AcDbSymbolTable
 70
     1
100
AcDbDimStyleTable
  0
DIMSTYLE
105
27
330
A
100
AcDbSymbolTableRecord
100
AcDbDimStyleTableRecord
  2
Standard
 70
     0
178
     0
340
11
  0
ENDTAB
  0
TABLE
  2
BLOCK_RECORD
  5
1
330
0
100
AcDbSymbolTable
 70
     1
  0
BLOCK_RECORD
  5
1F
330
1
100
AcDbSymbolTableRecord
100
AcDbBlockTableRecord
  2
*Model_Space
340
22
 70
     0
280
     1
281
     0
  0
BLOCK_RECORD
  5
1B
330
1
100
AcDbSymbolTableRecord
100
AcDbBlockTableRecord
  2
*Paper_Space
340
1E
 70
     0
280
     1
281
     0
  0
BLOCK_RECORD
  5
23
330
1
100
AcDbSymbolTableRecord
100
AcDbBlockTableRecord
  2
*Paper_Space0
340
26
 70
     0
280
     1
281
     0
  0
ENDTAB
  0
ENDSEC
  0
SECTION
  2
BLOCKS
  0
BLOCK
  5
20
330
1F
100
AcDbEntity
  8
0
100
AcDbBlockBegin
  2
*Model_Space
 70
     0
 10
0.0
 20
0.0
 30
0.0
  3
*Model_Space
  1

  0
ENDBLK
  5
21
330
1F
100
AcDbEntity
  8
0
100
AcDbBlockEnd
  0
BLOCK
  5
1C
330
1B
100
AcDbEntity
 67
     1
  8
0
100
AcDbBlockBegin
  2
*Paper_Space
 70
     0
 10
0.0
 20
0.0
 30
0.0
  3
*Paper_Space
  1

  0
ENDBLK
  5
1D
330
1B
100
AcDbEntity
 67
     1
  8
0
100
AcDbBlockEnd
  0
BLOCK
  5
24
330
23
100
AcDbEntity
  8
0
100
AcDbBlockBegin
  2
*Paper_Space0
 70
     0
 10
0.0
 20
0.0
 30
0.0
  3
*Paper_Space0
  1

  0
ENDBLK
  5
25
330
23
100
AcDbEntity
  8
0
100
AcDbBlockEnd
  0
ENDSEC
  0
SECTION
  2
ENTITIES
  0
SPLINE
  5
40
330
1F
100
AcDbEntity
  8
0
370
    15
100
AcDbSpline
210
0.0
220
0.0
230
1.0
 70
    24
 71
     3
 72
     8
 73
     4
 74
     0
 42
0.0000000001
 43
0.0000000001
 40
0.0
 40
0.0
 40
0.0
 40
0.0
 40
1.0
 40
1.0
 40
1.0
 40
1.0
 10
-3.22079
 20
9.44683
 30
0.0
 10
-3.22079
 20
9.44683
 30
0.0
 10
-8.22079
 20
9.44683
 30
0.0
 10
-8.22079
 20
9.44683
 30
0.0
  0
SPLINE
  5
41
330
1F
100
AcDbEntity
  8
0
370
    15
100
AcDbSpline
210
0.0
220
0.0
230
1.0
 70
     8
 71
     3
 72
    60
 73
    56
 74
     0
 42
0.0000000001
 43
0.0000000001
 40
0.0
 40
0.0
 40
0.0
 40
0.0
 40
0.0666666666666667
 40
0.0666666666666667
 40
0.0666666666666667
 40
0.0666666666666667
 40
0.1333333333333333
 40
0.1333333333333333
 40
0.1333333333333333
 40
0.1333333333333333
 40
0.2
 40
0.2
 40
0.2
 40
0.2
 40
0.2666666666666667
 40
0.2666666666666667
 40
0.2666666666666667
 40
0.2666666666666667
 40
0.3333333333333333
 40
0.3333333333333333
 40
0.3333333333333333
 40
0.3333333333333333
 40
0.4
 40
0.4
 40
0.4
 40
0.4
 40
0.4666666666666667
 40
0.4666666666666667
 40
0.4666666666666667
 40
0.4666666666666667
 40
0.5333333333333333
 40
0.5333333333333333
 40
0.5333333333333333
 40
0.5333333333333333
 40
0.6
 40
0.6
 40
0.6
 40
0.6
 40
0.6666666666666666
 40
0.6666666666666666
 40
0.6666666666666666
 40
0.6666666666666666
 40
0.7333333333333333
 40
0.7333333333333333
 40
0.7333333333333333
 40
0.7333333333333333
 40
0.8
 40
0.8
 40
0.8
 40
0.8
 40
0.8666666666666667
 40
0.8666666666666667
 40
0.8666666666666667
 40
0.8666666666666667
 40
1.0
 40
1.0
 40
1.0
 40
1.0
 10
-2.98329
 20
7.06308
 30
0.0
 10
-2.96202
 20
7.06376
 30
0.0
 10
-2.94076
 20
7.06444
 30
0.0
 10
-2.91962
 20
7.0666
 30
0.0
 10
-2.91962
 20
7.0666
 30
0.0
 10
-2.89714
 20
7.0689
 30
0.0
 10
-2.87481
 20
7.07286
 30
0.0
 10
-2.85278
 20
7.07803
 30
0.0
 10
-2.85278
 20
7.07803
 30
0.0
 10
-2.83061
 20
7.08324
 30
0.0
 10
-2.80875
 20
7.08966
 30
0.0
 10
-2.78735
 20
7.09739
 30
0.0
 10
-2.78735
 20
7.09739
 30
0.0
 10
-2.76586
 20
7.10515
 30
0.0
 10
-2.74483
 20
7.11423
 30
0.0
 10
-2.72442
 20
7.12453
 30
0.0
 10
-2.72442
 20
7.12453
 30
0.0
 10
-2.70395
 20
7.13485
 30
0.0
 10
-2.68411
 20
7.14641
 30
0.0
 10
-2.66504
 20
7.15912
 30
0.0
 10
-2.66504
 20
7.15912
 30
0.0
 10
-2.64596
 20
7.17185
 30
0.0
 10
-2.62765
 20
7.18573
 30
0.0
 10
-2.61025
 20
7.20068
 30
0.0
 10
-2.61025
 20
7.20068
 30
0.0
 10
-2.59288
 20
7.2156
 30
0.0
 10
-2.57642
 20
7.23159
 30
0.0
 10
-2.561
 20
7.24853
 30
0.0
 10
-2.561
 20
7.24853
 30
0.0
 10
-2.54563
 20
7.26541
 30
0.0
 10
-2.53129
 20
7.28323
 30
0.0
 10
-2.5181
 20
7.30186
 30
0.0
 10
-2.5181
 20
7.30186
 30
0.0
 10
-2.50497
 20
7.32041
 30
0.0
 10
-2.49298
 20
7.33975
 30
0.0
 10
-2.48221
 20
7.35977
 30
0.0
 10
-2.48221
 20
7.35977
 30
0.0
 10
-2.47151
 20
7.37966
 30
0.0
 10
-2.46203
 20
7.40021
 30
0.0
 10
-2.45384
 20
7.42126
 30
0.0
 10
-2.45384
 20
7.42126
 30
0.0
 10
-2.4457
 20
7.44217
 30
0.0
 10
-2.43884
 20
7.46358
 30
0.0
 10
-2.43331
 20
7.48532
 30
0.0
 10
-2.43331
 20
7.48532
 30
0.0
 10
-2.42782
 20
7.50691
 30
0.0
 10
-2.42365
 20
7.52884
 30
0.0
 10
-2.42079
 20
7.55094
 30
0.0
 10
-2.42079
 20
7.55094
 30
0.0
 10
-2.41813
 20
7.57159
 30
0.0
 10
-2.41662
 20
7.59238
 30
0.0
 10
-2.41636
 20
7.61319
 30
0.0
 10
-2.41636
 20
7.61319
 30
0.0
 10
-2.41633
 20
7.61582
 30
0.0
 10
-2.41631
 20
7.61846
 30
0.0
 10
-2.4163
 20
7.62109
 30
0.0
  0
SPLINE
  5
42
330
1F
100
AcDbEntity
  8
0
370
    15
100
AcDbSpline
210
0.0
220
0.0
230
1.0
 70
     8
 71
     3
 72
    60
 73
    56
 74
     0
 42
0.0000000001
 43
0.0000000001
 40
0.0
 40
0.0
 40
0.0
 40
0.0
 40
0.0666666666666667
 40
0.0666666666666667
 40
0.0666666666666667
 40
0.0666666666666667
 40
0.1333333333333333
 40
0.1333333333333333
 40
0.1333333333333333
 40
0.1333333333333333
 40
0.2
 40
0.2
 40
0.2
 40
0.2
 40
0.2666666666666667
 40
0.2666666666666667
 40
0.2666666666666667
 40
0.2666666666666667
 40
0.3333333333333333
 40
0.3333333333333333
 40
0.3333333333333333
 40
0.3333333333333333
 40
0.4
 40
0.4
 40
0.4
 40
0.4
 40
0.4666666666666667
 40
0.4666666666666667
 40
0.4666666666666667
 40
0.4666666666666667
 40
0.5333333333333333
 40
0.5333333333333333
 40
0.5333333333333333
 40
0.5333333333333333
 40
0.6
 40
0.6
 40
0.6
 40
0.6
 40
0.6666666666666666
 40
0.6666666666666666
 40
0.6666666666666666
 40
0.6666666666666666
 40
0.7333333333333333
 40
0.7333333333333333
 40
0.7333333333333333
 40
0.7333333333333333
 40
0.8
 40
0.8
 40
0.8
 40
0.8
 40
0.8666666666666667
 40
0.8666666666666667
 40
0.8666666666666667
 40
0.8666666666666667
 40
1.0
 40
1.0
 40
1.0
 40
1.0
 10
-9.05028
 20
7.62109
 30
0.0
 10
-9.04959
 20
7.60021
 30
0.0
 10
-9.0489
 20
7.57933
 30
0.0
 10
-9.04672
 20
7.55858
 30
0.0
 10
-9.04672
 20
7.55858
 30
0.0
 10
-9.04443
 20
7.53688
 30
0.0
 10
-9.04051
 20
7.51533
 30
0.0
 10
-9.03542
 20
7.49407
 30
0.0
 10
-9.03542
 20
7.49407
 30
0.0
 10
-9.03036
 20
7.47293
 30
0.0
 10
-9.02413
 20
7.45209
 30
0.0
 10
-9.01668
 20
7.43169
 30
0.0
 10
-9.01668
 20
7.43169
 30
0.0
 10
-9.00926
 20
7.41138
 30
0.0
 10
-9.00062
 20
7.3915
 30
0.0
 10
-8.99085
 20
7.3722
 30
0.0
 10
-8.99085
 20
7.3722
 30
0.0
 10
-8.98112
 20
7.35295
 30
0.0
 10
-8.97026
 20
7.33428
 30
0.0
 10
-8.95836
 20
7.31629
 30
0.0
 10
-8.95836
 20
7.31629
 30
0.0
 10
-8.94648
 20
7.29834
 30
0.0
 10
-8.93355
 20
7.28107
 30
0.0
 10
-8.91967
 20
7.26461
 30
0.0
 10
-8.91967
 20
7.26461
 30
0.0
 10
-8.9058
 20
7.24815
 30
0.0
 10
-8.89097
 20
7.23249
 30
0.0
 10
-8.87529
 20
7.21774
 30
0.0
 10
-8.87529
 20
7.21774
 30
0.0
 10
-8.85959
 20
7.20296
 30
0.0
 10
-8.84304
 20
7.18908
 30
0.0
 10
-8.82575
 20
7.1762
 30
0.0
 10
-8.82575
 20
7.1762
 30
0.0
 10
-8.80841
 20
7.16327
 30
0.0
 10
-8.79032
 20
7.15134
 30
0.0
 10
-8.77162
 20
7.14048
 30
0.0
 10
-8.77162
 20
7.14048
 30
0.0
 10
-8.75282
 20
7.12958
 30
0.0
 10
-8.7334
 20
7.11975
 30
0.0
 10
-8.71348
 20
7.11105
 30
0.0
 10
-8.71348
 20
7.11105
 30
0.0
 10
-8.69345
 20
7.1023
 30
0.0
 10
-8.67291
 20
7.0947
 30
0.0
 10
-8.65201
 20
7.08831
 30
0.0
 10
-8.65201
 20
7.08831
 30
0.0
 10
-8.63095
 20
7.08187
 30
0.0
 10
-8.60953
 20
7.07666
 30
0.0
 10
-8.58788
 20
7.07263
 30
0.0
 10
-8.58788
 20
7.07263
 30
0.0
 10
-8.56606
 20
7.06857
 30
0.0
 10
-8.544
 20
7.0657
 30
0.0
 10
-8.52187
 20
7.06437
 30
0.0
 10
-8.52187
 20
7.06437
 30
0.0
 10
-8.50902
 20
7.06359
 30
0.0
 10
-8.49616
 20
7.06334
 30
0.0
 10
-8.48329
 20
7.06308
 30
0.0
  0
SPLINE
  5
43
330
1F
100
AcDbEntity
  8
0
370
    15
100
AcDbSpline
210
0.0
220
0.0
230
1.0
 70
     8
 71
     3
 72
    32
 73
    28
 74
     0
 42
0.0000000001
 43
0.0000000001
 40
0.0
 40
0.0
 40
0.0
 40
0.0
 40
0.125
 40
0.125
 40
0.125
 40
0.125
 40
0.25
 40
0.25
 40
0.25
 40
0.25
 40
0.375
 40
0.375
 40
0.375
 40
0.375
 40
0.5
 40
0.5
 40
0.5
 40
0.5
 40
0.625
 40
0.625
 40
0.625
 40
0.625
 40
0.75
 40
0.75
 40
0.75
 40
0.75
 40
1.0
 40
1.0
 40
1.0
 40
1.0
 10
-8.67256
 20
7.49339
 30
0.0
 10
-8.67868
 20
7.49704
 30
0.0
 10
-8.6848
 20
7.5007
 30
0.0
 10
-8.69037
 20
7.50446
 30
0.0
 10
-8.69037
 20
7.50446
 30
0.0
 10
-8.7
 20
7.51095
 30
0.0
 10
-8.70799
 20
7.51777
 30
0.0
 10
-8.71514
 20
7.52448
 30
0.0
 10
-8.71514
 20
7.52448
 30
0.0
 10
-8.72258
 20
7.53146
 30
0.0
 10
-8.7291
 20
7.53832
 30
0.0
 10
-8.7346
 20
7.54494
 30
0.0
 10
-8.7346
 20
7.54494
 30
0.0
 10
-8.74044
 20
7.55195
 30
0.0
 10
-8.74513
 20
7.55869
 30
0.0
 10
-8.74896
 20
7.56502
 30
0.0
 10
-8.74896
 20
7.56502
 30
0.0
 10
-8.75311
 20
7.57187
 30
0.0
 10
-8.75624
 20
7.57825
 30
0.0
 10
-8.75867
 20
7.58417
 30
0.0
 10
-8.75867
 20
7.58417
 30
0.0
 10
-8.76138
 20
7.59079
 30
0.0
 10
-8.76322
 20
7.59683
 30
0.0
 10
-8.76434
 20
7.60249
 30
0.0
 10
-8.76434
 20
7.60249
 30
0.0
 10
-8.76562
 20
7.60902
 30
0.0
 10
-8.76596
 20
7.61506
 30
0.0
 10
-8.7663
 20
7.62109
 30
0.0
  0
SPLINE
  5
44
330
1F
100
AcDbEntity
  8
0
370
    15
100
AcDbSpline
210
0.0
220
0.0
230
1.0
 70
     8
 71
     3
 72
    32
 73
    28
 74
     0
 42
0.0000000001
 43
0.0000000001
 40
0.0
 40
0.0
 40
0.0
 40
0.0
 40
0.125
 40
0.125
 40
0.125
 40
0.125
 40
0.25
 40
0.25
 40
0.25
 40
0.25
 40
0.375
 40
0.375
 40
0.375
 40
0.375
 40
0.5
 40
0.5
 40
0.5
 40
0.5
 40
0.625
 40
0.625
 40
0.625
 40
0.625
 40
0.75
 40
0.75
 40
0.75
 40
0.75
 40
1.0
 40
1.0
 40
1.0
 40
1.0
 10
-2.70028
 20
7.62109
 30
0.0
 10
-2.70031
 20
7.61932
 30
0.0
 10
-2.70035
 20
7.61755
 30
0.0
 10
-2.70044
 20
7.61577
 30
0.0
 10
-2.70044
 20
7.61577
 30
0.0
 10
-2.70077
 20
7.60946
 30
0.0
 10
-2.70185
 20
7.60297
 30
0.0
 10
-2.70389
 20
7.59581
 30
0.0
 10
-2.70389
 20
7.59581
 30
0.0
 10
-2.70557
 20
7.58994
 30
0.0
 10
-2.7079
 20
7.58361
 30
0.0
 10
-2.71125
 20
7.57669
 30
0.0
 10
-2.71125
 20
7.57669
 30
0.0
 10
-2.71421
 20
7.57056
 30
0.0
 10
-2.71797
 20
7.56398
 30
0.0
 10
-2.72283
 20
7.557
 30
0.0
 10
-2.72283
 20
7.557
 30
0.0
 10
-2.72727
 20
7.55061
 30
0.0
 10
-2.73263
 20
7.54389
 30
0.0
 10
-2.73896
 20
7.53695
 30
0.0
 10
-2.73896
 20
7.53695
 30
0.0
 10
-2.74554
 20
7.52974
 30
0.0
 10
-2.75317
 20
7.52228
 30
0.0
 10
-2.76242
 20
7.51496
 30
0.0
 10
-2.76242
 20
7.51496
 30
0.0
 10
-2.77052
 20
7.50855
 30
0.0
 10
-2.77987
 20
7.50223
 30
0.0
 10
-2.78921
 20
7.49592
 30
0.0
  0
SPLINE
  5
45
330
1F
100
AcDbEntity
  8
0
370
    15
100
AcDbSpline
210
0.0
220
0.0
230
1.0
 70
     8
 71
     3
 72
    12
 73
     8
 74
     0
 42
0.0000000001
 43
0.0000000001
 40
0.0
 40
0.0
 40
0.0
 40
0.0
 40
0.3333333333333333
 40
0.3333333333333333
 40
0.3333333333333333
 40
0.3333333333333333
 40
1.0
 40
1.0
 40
1.0
 40
1.0
 10
-2.87956
 20
7.45731
 30
0.0
 10
-2.88726
 20
7.45507
 30
0.0
 10
-2.89495
 20
7.45283
 30
0.0
 10
-2.90296
 20
7.45111
 30
0.0
 10
-2.90296
 20
7.45111
 30
0.0
 10
-2.91403
 20
7.44874
 30
0.0
 10
-2.92569
 20
7.44737
 30
0.0
 10
-2.93735
 20
7.446
 30
0.0
  0
SPLINE
  5
46
330
1F
100
AcDbEntity
  8
0
370
    15
100
AcDbSpline
210
0.0
220
0.0
230
1.0
 70
    24
 71
     3
 72
     8
 73
     4
 74
     0
 42
0.0000000001
 43
0.0000000001
 40
0.0
 40
0.0
 40
0.0
 40
0.0
 40
1.0
 40
1.0
 40
1.0
 40
1.0
 10
-2.70028
 20
7.70769
 30
0.0
 10
-2.70028
 20
7.70769
 30
0.0
 10
-2.70028
 20
7.62109
 30
0.0
 10
-2.70028
 20
7.62109
 30
0.0
  0
SPLINE
  5
47
330
1F
100
AcDbEntity
  8
0
370
    15
100
AcDbSpline
210
0.0
220
0.0
230
1.0
 70
    24
 71
     3
 72
     8
 73
     4
 74
     0
 42
0.0000000001
 43
0.0000000001
 40
0.0
 40
0.0
 40
0.0
 40
0.0
 40
1.0
 40
1.0
 40
1.0
 40
1.0
 10
-2.4163
 20
7.62109
 30
0.0
 10
-2.4163
 20
7.62109
 30
0.0
 10
-2.4163
 20
7.70769
 30
0.0
 10
-2.4163
 20
7.70769
 30
0.0
  0
SPLINE
  5
48
330
1F
100
AcDbEntity
  8
0
370
    15
100
AcDbSpline
210
0.0
220
0.0
230
1.0
 70
    24
 71
     3
 72
     8
 73
     4
 74
     0
 42
0.0000000001
 43
0.0000000001
 40
0.0
 40
0.0
 40
0.0
 40
0.0
 40
1.0
 40
1.0
 40
1.0
 40
1.0
 10
-9.05028
 20
10.27113
 30
0.0
 10
-9.05028
 20
10.27113
 30
0.0
 10
-9.05028
 20
7.62109
 30
0.0
 10
-9.05028
 20
7.62109
 30
0.0
  0
SPLINE
  5
49
330
1F
100
AcDbEntity
  8
0
370
    15
100
AcDbSpline
210
0.0
220
0.0
230
1.0
 70
    24
 71
     3
 72
     8
 73
     4
 74
     0
 42
0.0000000001
 43
0.0000000001
 40
0.0
 40
0.0
 40
0.0
 40
0.0
 40
1.0
 40
1.0
 40
1.0
 40
1.0
 10
-8.7663
 20
7.62109
 30
0.0
 10
-8.7663
 20
7.62109
 30
0.0
 10
-8.7663
 20
9.94734
 30
0.0
 10
-8.7663
 20
9.94734
 30
0.0
  0
SPLINE
  5
4A
330
1F
100
AcDbEntity
  8
0
370
    15
100
AcDbSpline
210
0.0
220
0.0
230
1.0
 70
     8
 71
     3
 72
     8
 73
     4
 74
     0
 42
0.0000000001
 43
0.0000000001
 40
0.0
 40
0.0
 40
0.0
 40
0.0
 40
1.0
 40
1.0
 40
1.0
 40
1.0
 10
-2.63329
 20
7.95769
 30
0.0
 10
-2.67717
 20
7.88168
 30
0.0
 10
-2.70028
 20
7.79546
 30
0.0
 10
-2.70028
 20
7.70769
 30
0.0
  0
SPLINE
  5
4B
330
1F
100
AcDbEntity
  8
0
370
    15
100
AcDbSpline
210
0.0
220
0.0
230
1.0
 70
    24
 71
     3
 72
     8
 73
     4
 74
     0
 42
0.0000000001
 43
0.0000000001
 40
0.0
 40
0.0
 40
0.0
 40
0.0
 40
1.0
 40
1.0
 40
1.0
 40
1.0
 10
-2.48329
 20
7.95769
 30
0.0
 10
-2.48329
 20
7.95769
 30
0.0
 10
-2.63329
 20
7.95769
 30
0.0
 10
-2.63329
 20
7.95769
 30
0.0
  0
SPLINE
  5
4C
330
1F
100
AcDbEntity
  8
0
370
    15
100
AcDbSpline
210
0.0
220
0.0
230
1.0
 70
     8
 71
     3
 72
     8
 73
     4
 74
     0
 42
0.0000000001
 43
0.0000000001
 40
0.0
 40
0.0
 40
0.0
 40
0.0
 40
1.0
 40
1.0
 40
1.0
 40
1.0
 10
-2.4163
 20
7.70769
 30
0.0
 10
-2.4163
 20
7.79546
 30
0.0
 10
-2.43941
 20
7.88168
 30
0.0
 10
-2.48329
 20
7.95769
 30
0.0
  0
SPLINE
  5
4D
330
1F
100
AcDbEntity
  8
0
370
    15
100
AcDbSpline
210
0.0
220
0.0
230
1.0
 70
    24
 71
     3
 72
     8
 73
     4
 74
     0
 42
0.0000000001
 43
0.0000000001
 40
0.0
 40
0.0
 40
0.0
 40
0.0
 40
1.0
 40
1.0
 40
1.0
 40
1.0
 10
-8.68329
 20
10.64613
 30
0.0
 10
-8.68329
 20
10.64613
 30
0.0
 10
-8.98329
 20
10.64613
 30
0.0
 10
-8.98329
 20
10.64613
 30
0.0
  0
SPLINE
  5
4E
330
1F
100
AcDbEntity
  8
0
370
    15
100
AcDbSpline
210
0.0
220
0.0
230
1.0
 70
    24
 71
     3
 72
     8
 73
     4
 74
     0
 42
0.0000000001
 43
0.0000000001
 40
0.0
 40
0.0
 40
0.0
 40
0.0
 40
1.0
 40
1.0
 40
1.0
 40
1.0
 10
-8.7663
 20
9.89613
 30
0.0
 10
-8.7663
 20
9.89613
 30
0.0
 10
-8.68329
 20
9.89613
 30
0.0
 10
-8.68329
 20
9.89613
 30
0.0
  0
SPLINE
  5
4F
330
1F
100
AcDbEntity
  8
0
370
    15
100
AcDbSpline
210
0.0
220
0.0
230
1.0
 70
     8
 71
     3
 72
     8
 73
     4
 74
     0
 42
0.0000000001
 43
0.0000000001
 40
0.0
 40
0.0
 40
0.0
 40
0.0
 40
1.0
 40
1.0
 40
1.0
 40
1.0
 10
-8.98329
 20
10.64613
 30
0.0
 10
-9.0277
 20
10.5258
 30
0.0
 10
-9.05038
 20
10.39854
 30
0.0
 10
-9.05028
 20
10.27027
 30
0.0
  0
SPLINE
  5
50
330
1F
100
AcDbEntity
  8
0
370
    15
100
AcDbSpline
210
0.0
220
0.0
230
1.0
 70
    24
 71
     3
 72
     8
 73
     4
 74
     0
 42
0.0000000001
 43
0.0000000001
 40
0.0
 40
0.0
 40
0.0
 40
0.0
 40
1.0
 40
1.0
 40
1.0
 40
1.0
 10
-3.88329
 20
10.47113
 30
0.0
 10
-3.88329
 20
10.47113
 30
0.0
 10
-3.89579
 20
10.47113
 30
0.0
 10
-3.89579
 20
10.47113
 30
0.0
  0
SPLINE
  5
51
330
1F
100
AcDbEntity
  8
0
370
    15
100
AcDbSpline
210
0.0
220
0.0
230
1.0
 70
    24
 71
     3
 72
     8
 73
     4
 74
     0
 42
0.0000000001
 43
0.0000000001
 40
0.0
 40
0.0
 40
0.0
 40
0.0
 40
1.0
 40
1.0
 40
1.0
 40
1.0
 10
-7.54579
 20
10.47113
 30
0.0
 10
-7.54579
 20
10.47113
 30
0.0
 10
-7.55829
 20
10.47113
 30
0.0
 10
-7.55829
 20
10.47113
 30
0.0
  0
SPLINE
  5
52
330
1F
100
AcDbEntity
  8
0
370
    15
100
AcDbSpline
210
0.0
220
0.0
230
1.0
 70
    24
 71
     3
 72
     8
 73
     4
 74
     0
 42
0.0000000001
 43
0.0000000001
 40
0.0
 40
0.0
 40
0.0
 40
0.0
 40
1.0
 40
1.0
 40
1.0
 40
1.0
 10
-7.55829
 20
10.07113
 30
0.0
 10
-7.55829
 20
10.07113
 30
0.0
 10
-7.54579
 20
10.07113
 30
0.0
 10
-7.54579
 20
10.07113
 30
0.0
  0
SPLINE
  5
53
330
1F
100
AcDbEntity
  8
0
370
    15
100
AcDbSpline
210
0.0
220
0.0
230
1.0
 70
    24
 71
     3
 72
     8
 73
     4
 74
     0
 42
0.0000000001
 43
0.0000000001
 40
0.0
 40
0.0
 40
0.0
 40
0.0
 40
1.0
 40
1.0
 40
1.0
 40
1.0
 10
-3.89579
 20
10.07113
 30
0.0
 10
-3.89579
 20
10.07113
 30
0.0
 10
-3.88329
 20
10.07113
 30
0.0
 10
-3.88329
 20
10.07113
 30
0.0
  0
SPLINE
  5
54
330
1F
100
AcDbEntity
  8
0
370
    15
100
AcDbSpline
210
0.0
220
0.0
230
1.0
 70
    24
 71
     3
 72
     8
 73
     4
 74
     0
 42
0.0000000001
 43
0.0000000001
 40
0.0
 40
0.0
 40
0.0
 40
0.0
 40
1.0
 40
1.0
 40
1.0
 40
1.0
 10
-8.68329
 20
9.89613
 30
0.0
 10
-8.68329
 20
9.89613
 30
0.0
 10
-7.55829
 20
9.89613
 30
0.0
 10
-7.55829
 20
9.89613
 30
0.0
  0
SPLINE
  5
55
330
1F
100
AcDbEntity
  8
0
370
    15
100
AcDbSpline
210
0.0
220
0.0
230
1.0
 70
    24
 71
     3
 72
     8
 73
     4
 74
     0
 42
0.0000000001
 43
0.0000000001
 40
0.0
 40
0.0
 40
0.0
 40
0.0
 40
1.0
 40
1.0
 40
1.0
 40
1.0
 10
-7.55829
 20
10.64613
 30
0.0
 10
-7.55829
 20
10.64613
 30
0.0
 10
-8.68329
 20
10.64613
 30
0.0
 10
-8.68329
 20
10.64613
 30
0.0
  0
SPLINE
  5
56
330
1F
100
AcDbEntity
  8
0
370
    15
100
AcDbSpline
210
0.0
220
0.0
230
1.0
 70
    24
 71
     3
 72
     8
 73
     4
 74
     0
 42
0.0000000001
 43
0.0000000001
 40
0.0
 40
0.0
 40
0.0
 40
0.0
 40
1.0
 40
1.0
 40
1.0
 40
1.0
 10
-2.50829
 20
10.64613
 30
0.0
 10
-2.50829
 20
10.64613
 30
0.0
 10
-3.88329
 20
10.64613
 30
0.0
 10
-3.88329
 20
10.64613
 30
0.0
  0
SPLINE
  5
57
330
1F
100
AcDbEntity
  8
0
370
    15
100
AcDbSpline
210
0.0
220
0.0
230
1.0
 70
    24
 71
     3
 72
     8
 73
     4
 74
     0
 42
0.0000000001
 43
0.0000000001
 40
0.0
 40
0.0
 40
0.0
 40
0.0
 40
1.0
 40
1.0
 40
1.0
 40
1.0
 10
-3.88329
 20
9.89613
 30
0.0
 10
-3.88329
 20
9.89613
 30
0.0
 10
-2.50829
 20
9.89613
 30
0.0
 10
-2.50829
 20
9.89613
 30
0.0
  0
SPLINE
  5
58
330
1F
100
AcDbEntity
  8
0
370
    15
100
AcDbSpline
210
0.0
220
0.0
230
1.0
 70
     8
 71
     3
 72
     8
 73
     4
 74
     0
 42
0.0000000001
 43
0.0000000001
 40
0.0
 40
0.0
 40
0.0
 40
0.0
 40
1.0
 40
1.0
 40
1.0
 40
1.0
 10
-2.50829
 20
9.89613
 30
0.0
 10
-2.40829
 20
10.13613
 30
0.0
 10
-2.40829
 20
10.40613
 30
0.0
 10
-2.50829
 20
10.64612
 30
0.0
  0
SPLINE
  5
59
330
1F
100
AcDbEntity
  8
0
370
    15
100
AcDbSpline
210
0.0
220
0.0
230
1.0
 70
     8
 71
     3
 72
    12
 73
     8
 74
     0
 42
0.0000000001
 43
0.0000000001
 40
0.0
 40
0.0
 40
0.0
 40
0.0
 40
0.3333333333333333
 40
0.3333333333333333
 40
0.3333333333333333
 40
0.3333333333333333
 40
1.0
 40
1.0
 40
1.0
 40
1.0
 10
-7.54579
 20
9.97613
 30
0.0
 10
-7.54579
 20
9.9748
 30
0.0
 10
-7.54526
 20
9.97353
 30
0.0
 10
-7.54433
 20
9.97259
 30
0.0
 10
-7.54433
 20
9.97259
 30
0.0
 10
-7.54339
 20
9.97166
 30
0.0
 10
-7.54212
 20
9.97113
 30
0.0
 10
-7.54079
 20
9.97113
 30
0.0
  0
SPLINE
  5
5A
330
1F
100
AcDbEntity
  8
0
370
    15
100
AcDbSpline
210
0.0
220
0.0
230
1.0
 70
     8
 71
     3
 72
    12
 73
     8
 74
     0
 42
0.0000000001
 43
0.0000000001
 40
0.0
 40
0.0
 40
0.0
 40
0.0
 40
0.3333333333333333
 40
0.3333333333333333
 40
0.3333333333333333
 40
0.3333333333333333
 40
1.0
 40
1.0
 40
1.0
 40
1.0
 10
-7.54079
 20
10.57113
 30
0.0
 10
-7.54212
 20
10.57113
 30
0.0
 10
-7.54339
 20
10.5706
 30
0.0
 10
-7.54433
 20
10.56966
 30
0.0
 10
-7.54433
 20
10.56966
 30
0.0
 10
-7.54526
 20
10.56873
 30
0.0
 10
-7.54579
 20
10.56745
 30
0.0
 10
-7.54579
 20
10.56613
 30
0.0
  0
SPLINE
  5
5B
330
1F
100
AcDbEntity
  8
0
370
    15
100
AcDbSpline
210
0.0
220
0.0
230
1.0
 70
    24
 71
     3
 72
     8
 73
     4
 74
     0
 42
0.0000000001
 43
0.0000000001
 40
0.0
 40
0.0
 40
0.0
 40
0.0
 40
1.0
 40
1.0
 40
1.0
 40
1.0
 10
-7.52079
 20
10.57113
 30
0.0
 10
-7.52079
 20
10.57113
 30
0.0
 10
-7.54079
 20
10.57113
 30
0.0
 10
-7.54079
 20
10.57113
 30
0.0
  0
SPLINE
  5
5C
330
1F
100
AcDbEntity
  8
0
370
    15
100
AcDbSpline
210
0.0
220
0.0
230
1.0
 70
    24
 71
     3
 72
     8
 73
     4
 74
     0
 42
0.0000000001
 43
0.0000000001
 40
0.0
 40
0.0
 40
0.0
 40
0.0
 40
1.0
 40
1.0
 40
1.0
 40
1.0
 10
-7.54079
 20
9.97113
 30
0.0
 10
-7.54079
 20
9.97113
 30
0.0
 10
-7.52079
 20
9.97113
 30
0.0
 10
-7.52079
 20
9.97113
 30
0.0
  0
SPLINE
  5
5D
330
1F
100
AcDbEntity
  8
0
370
    15
100
AcDbSpline
210
0.0
220
0.0
230
1.0
 70
     8
 71
     3
 72
    12
 73
     8
 74
     0
 42
0.0000000001
 43
0.0000000001
 40
0.0
 40
0.0
 40
0.0
 40
0.0
 40
0.3333333333333333
 40
0.3333333333333333
 40
0.3333333333333333
 40
0.3333333333333333
 40
1.0
 40
1.0
 40
1.0
 40
1.0
 10
-3.89579
 20
10.56613
 30
0.0
 10
-3.89579
 20
10.56745
 30
0.0
 10
-3.89632
 20
10.56873
 30
0.0
 10
-3.89725
 20
10.56966
 30
0.0
 10
-3.89725
 20
10.56966
 30
0.0
 10
-3.89819
 20
10.5706
 30
0.0
 10
-3.89946
 20
10.57113
 30
0.0
 10
-3.90079
 20
10.57113
 30
0.0
  0
SPLINE
  5
5E
330
1F
100
AcDbEntity
  8
0
370
    15
100
AcDbSpline
210
0.0
220
0.0
230
1.0
 70
     8
 71
     3
 72
     8
 73
     4
 74
     0
 42
0.0000000001
 43
0.0000000001
 40
0.0
 40
0.0
 40
0.0
 40
0.0
 40
1.0
 40
1.0
 40
1.0
 40
1.0
 10
-3.90079
 20
9.97113
 30
0.0
 10
-3.89803
 20
9.97113
 30
0.0
 10
-3.89579
 20
9.97337
 30
0.0
 10
-3.89579
 20
9.97613
 30
0.0
  0
SPLINE
  5
5F
330
1F
100
AcDbEntity
  8
0
370
    15
100
AcDbSpline
210
0.0
220
0.0
230
1.0
 70
    24
 71
     3
 72
     8
 73
     4
 74
     0
 42
0.0000000001
 43
0.0000000001
 40
0.0
 40
0.0
 40
0.0
 40
0.0
 40
1.0
 40
1.0
 40
1.0
 40
1.0
 10
-3.92079
 20
9.97113
 30
0.0
 10
-3.92079
 20
9.97113
 30
0.0
 10
-3.90079
 20
9.97113
 30
0.0
 10
-3.90079
 20
9.97113
 30
0.0
  0
SPLINE
  5
60
330
1F
100
AcDbEntity
  8
0
370
    15
100
AcDbSpline
210
0.0
220
0.0
230
1.0
 70
    24
 71
     3
 72
     8
 73
     4
 74
     0
 42
0.0000000001
 43
0.0000000001
 40
0.0
 40
0.0
 40
0.0
 40
0.0
 40
1.0
 40
1.0
 40
1.0
 40
1.0
 10
-3.90079
 20
10.57113
 30
0.0
 10
-3.90079
 20
10.57113
 30
0.0
 10
-3.92079
 20
10.57113
 30
0.0
 10
-3.92079
 20
10.57113
 30
0.0
  0
SPLINE
  5
61
330
1F
100
AcDbEntity
  8
0
370
    15
100
AcDbSpline
210
0.0
220
0.0
230
1.0
 70
     8
 71
     3
 72
    12
 73
     8
 74
     0
 42
0.0000000001
 43
0.0000000001
 40
0.0
 40
0.0
 40
0.0
 40
0.0
 40
0.3333333333333333
 40
0.3333333333333333
 40
0.3333333333333333
 40
0.3333333333333333
 40
1.0
 40
1.0
 40
1.0
 40
1.0
 10
-7.49579
 20
10.64613
 30
0.0
 10
-7.50242
 20
10.64613
 30
0.0
 10
-7.50878
 20
10.64349
 30
0.0
 10
-7.51347
 20
10.63881
 30
0.0
 10
-7.51347
 20
10.63881
 30
0.0
 10
-7.51816
 20
10.63412
 30
0.0
 10
-7.52079
 20
10.62776
 30
0.0
 10
-7.52079
 20
10.62113
 30
0.0
  0
SPLINE
  5
62
330
1F
100
AcDbEntity
  8
0
370
    15
100
AcDbSpline
210
0.0
220
0.0
230
1.0
 70
     8
 71
     3
 72
    12
 73
     8
 74
     0
 42
0.0000000001
 43
0.0000000001
 40
0.0
 40
0.0
 40
0.0
 40
0.0
 40
0.3333333333333333
 40
0.3333333333333333
 40
0.3333333333333333
 40
0.3333333333333333
 40
1.0
 40
1.0
 40
1.0
 40
1.0
 10
-7.52079
 20
9.92113
 30
0.0
 10
-7.52079
 20
9.9145
 30
0.0
 10
-7.51816
 20
9.90814
 30
0.0
 10
-7.51347
 20
9.90345
 30
0.0
 10
-7.51347
 20
9.90345
 30
0.0
 10
-7.50878
 20
9.89876
 30
0.0
 10
-7.50242
 20
9.89613
 30
0.0
 10
-7.49579
 20
9.89613
 30
0.0
  0
SPLINE
  5
63
330
1F
100
AcDbEntity
  8
0
370
    15
100
AcDbSpline
210
0.0
220
0.0
230
1.0
 70
     8
 71
     3
 72
    12
 73
     8
 74
     0
 42
0.0000000001
 43
0.0000000001
 40
0.0
 40
0.0
 40
0.0
 40
0.0
 40
0.3333333333333333
 40
0.3333333333333333
 40
0.3333333333333333
 40
0.3333333333333333
 40
1.0
 40
1.0
 40
1.0
 40
1.0
 10
-3.92079
 20
10.62113
 30
0.0
 10
-3.92079
 20
10.62776
 30
0.0
 10
-3.92342
 20
10.63412
 30
0.0
 10
-3.92811
 20
10.63881
 30
0.0
 10
-3.92811
 20
10.63881
 30
0.0
 10
-3.9328
 20
10.64349
 30
0.0
 10
-3.93916
 20
10.64613
 30
0.0
 10
-3.94579
 20
10.64613
 30
0.0
  0
SPLINE
  5
64
330
1F
100
AcDbEntity
  8
0
370
    15
100
AcDbSpline
210
0.0
220
0.0
230
1.0
 70
     8
 71
     3
 72
     8
 73
     4
 74
     0
 42
0.0000000001
 43
0.0000000001
 40
0.0
 40
0.0
 40
0.0
 40
0.0
 40
1.0
 40
1.0
 40
1.0
 40
1.0
 10
-3.94579
 20
9.89613
 30
0.0
 10
-3.93198
 20
9.89613
 30
0.0
 10
-3.92079
 20
9.90732
 30
0.0
 10
-3.92079
 20
9.92113
 30
0.0
  0
SPLINE
  5
65
330
1F
100
AcDbEntity
  8
0
370
    15
100
AcDbSpline
210
0.0
220
0.0
230
1.0
 70
    24
 71
     3
 72
     8
 73
     4
 74
     0
 42
0.0000000001
 43
0.0000000001
 40
0.0
 40
0.0
 40
0.0
 40
0.0
 40
1.0
 40
1.0
 40
1.0
 40
1.0
 10
-3.94579
 20
10.64613
 30
0.0
 10
-3.94579
 20
10.64613
 30
0.0
 10
-7.49579
 20
10.64613
 30
0.0
 10
-7.49579
 20
10.64613
 30
0.0
  0
SPLINE
  5
66
330
1F
100
AcDbEntity
  8
0
370
    15
100
AcDbSpline
210
0.0
220
0.0
230
1.0
 70
    24
 71
     3
 72
     8
 73
     4
 74
     0
 42
0.0000000001
 43
0.0000000001
 40
0.0
 40
0.0
 40
0.0
 40
0.0
 40
1.0
 40
1.0
 40
1.0
 40
1.0
 10
-7.49579
 20
9.89613
 30
0.0
 10
-7.49579
 20
9.89613
 30
0.0
 10
-3.94579
 20
9.89613
 30
0.0
 10
-3.94579
 20
9.89613
 30
0.0
  0
SPLINE
  5
67
330
1F
100
AcDbEntity
  8
0
370
    15
100
AcDbSpline
210
0.0
220
0.0
230
1.0
 70
    24
 71
     3
 72
     8
 73
     4
 74
     0
 42
0.0000000001
 43
0.0000000001
 40
0.0
 40
0.0
 40
0.0
 40
0.0
 40
1.0
 40
1.0
 40
1.0
 40
1.0
 10
-4.03648
 20
9.44683
 30
0.0
 10
-4.03648
 20
9.44683
 30
0.0
 10
-4.03648
 20
9.89613
 30
0.0
 10
-4.03648
 20
9.89613
 30
0.0
  0
SPLINE
  5
68
330
1F
100
AcDbEntity
  8
0
370
    15
100
AcDbSpline
210
0.0
220
0.0
230
1.0
 70
    24
 71
     3
 72
     8
 73
     4
 74
     0
 42
0.0000000001
 43
0.0000000001
 40
0.0
 40
0.0
 40
0.0
 40
0.0
 40
1.0
 40
1.0
 40
1.0
 40
1.0
 10
-7.4051
 20
9.89613
 30
0.0
 10
-7.4051
 20
9.89613
 30
0.0
 10
-7.4051
 20
9.44683
 30
0.0
 10
-7.4051
 20
9.44683
 30
0.0
  0
SPLINE
  5
69
330
1F
100
AcDbEntity
  8
0
370
    15
100
AcDbSpline
210
0.0
220
0.0
230
1.0
 70
    24
 71
     3
 72
     8
 73
     4
 74
     0
 42
0.0000000001
 43
0.0000000001
 40
0.0
 40
0.0
 40
0.0
 40
0.0
 40
1.0
 40
1.0
 40
1.0
 40
1.0
 10
-3.22079
 20
9.44683
 30
0.0
 10
-3.22079
 20
9.44683
 30
0.0
 10
-3.22079
 20
6.08215
 30
0.0
 10
-3.22079
 20
6.08215
 30
0.0
  0
SPLINE
  5
6A
330
1F
100
AcDbEntity
  8
0
370
    15
100
AcDbSpline
210
0.0
220
0.0
230
1.0
 70
    24
 71
     3
 72
     8
 73
     4
 74
     0
 42
0.0000000001
 43
0.0000000001
 40
0.0
 40
0.0
 40
0.0
 40
0.0
 40
1.0
 40
1.0
 40
1.0
 40
1.0
 10
-8.22079
 20
9.44683
 30
0.0
 10
-8.22079
 20
9.44683
 30
0.0
 10
-8.22079
 20
6.08215
 30
0.0
 10
-8.22079
 20
6.08215
 30
0.0
  0
SPLINE
  5
6B
330
1F
100
AcDbEntity
  8
0
370
    15
100
AcDbSpline
210
0.0
220
0.0
230
1.0
 70
    24
 71
     3
 72
     8
 73
     4
 74
     0
 42
0.0000000001
 43
0.0000000001
 40
0.0
 40
0.0
 40
0.0
 40
0.0
 40
1.0
 40
1.0
 40
1.0
 40
1.0
 10
-8.22079
 20
6.08215
 30
0.0
 10
-8.22079
 20
6.08215
 30
0.0
 10
-3.22079
 20
6.08215
 30
0.0
 10
-3.22079
 20
6.08215
 30
0.0
  0
SPLINE
  5
6C
330
1F
100
AcDbEntity
  8
0
370
    15
100
AcDbSpline
210
0.0
220
0.0
230
1.0
 70
    24
 71
     3
 72
     8
 73
     4
 74
     0
 42
0.0000000001
 43
0.0000000001
 40
0.0
 40
0.0
 40
0.0
 40
0.0
 40
1.0
 40
1.0
 40
1.0
 40
1.0
 10
-8.22079
 20
2.66596
 30
0.0
 10
-8.22079
 20
2.66596
 30
0.0
 10
-8.22079
 20
6.08215
 30
0.0
 10
-8.22079
 20
6.08215
 30
0.0
  0
SPLINE
  5
6D
330
1F
100
AcDbEntity
  8
0
370
    15
100
AcDbSpline
210
0.0
220
0.0
230
1.0
 70
    24
 71
     3
 72
     8
 73
     4
 74
     0
 42
0.0000000001
 43
0.0000000001
 40
0.0
 40
0.0
 40
0.0
 40
0.0
 40
1.0
 40
1.0
 40
1.0
 40
1.0
 10
-8.22079
 20
2.66596
 30
0.0
 10
-8.22079
 20
2.66596
 30
0.0
 10
-3.22079
 20
2.66596
 30
0.0
 10
-3.22079
 20
2.66596
 30
0.0
  0
SPLINE
  5
6E
330
1F
100
AcDbEntity
  8
0
370
    15
100
AcDbSpline
210
0.0
220
0.0
230
1.0
 70
    24
 71
     3
 72
     8
 73
     4
 74
     0
 42
0.0000000001
 43
0.0000000001
 40
0.0
 40
0.0
 40
0.0
 40
0.0
 40
1.0
 40
1.0
 40
1.0
 40
1.0
 10
-3.22079
 20
2.66596
 30
0.0
 10
-3.22079
 20
2.66596
 30
0.0
 10
-3.22079
 20
6.08215
 30
0.0
 10
-3.22079
 20
6.08215
 30
0.0
  0
SPLINE
  5
6F
330
1F
100
AcDbEntity
  8
0
370
    15
100
AcDbSpline
210
0.0
220
0.0
230
1.0
 70
     8
 71
     3
 72
    48
 73
    44
 74
     0
 42
0.0000000001
 43
0.0000000001
 40
0.0
 40
0.0
 40
0.0
 40
0.0
 40
0.0833333333333333
 40
0.0833333333333333
 40
0.0833333333333333
 40
0.0833333333333333
 40
0.1666666666666667
 40
0.1666666666666667
 40
0.1666666666666667
 40
0.1666666666666667
 40
0.25
 40
0.25
 40
0.25
 40
0.25
 40
0.3333333333333333
 40
0.3333333333333333
 40
0.3333333333333333
 40
0.3333333333333333
 40
0.4166666666666667
 40
0.4166666666666667
 40
0.4166666666666667
 40
0.4166666666666667
 40
0.5
 40
0.5
 40
0.5
 40
0.5
 40
0.5833333333333334
 40
0.5833333333333334
 40
0.5833333333333334
 40
0.5833333333333334
 40
0.6666666666666666
 40
0.6666666666666666
 40
0.6666666666666666
 40
0.6666666666666666
 40
0.75
 40
0.75
 40
0.75
 40
0.75
 40
0.8333333333333334
 40
0.8333333333333334
 40
0.8333333333333334
 40
0.8333333333333334
 40
1.0
 40
1.0
 40
1.0
 40
1.0
 10
-2.98329
 20
7.31308
 30
0.0
 10
-2.98329
 20
7.31308
 30
0.0
 10
-2.91213
 20
7.31749
 30
0.0
 10
-2.91213
 20
7.31749
 30
0.0
 10
-2.91213
 20
7.31749
 30
0.0
 10
-2.91213
 20
7.31749
 30
0.0
 10
-2.84242
 20
7.33062
 30
0.0
 10
-2.84242
 20
7.33062
 30
0.0
 10
-2.84242
 20
7.33062
 30
0.0
 10
-2.84242
 20
7.33062
 30
0.0
 10
-2.77558
 20
7.35221
 30
0.0
 10
-2.77558
 20
7.35221
 30
0.0
 10
-2.77558
 20
7.35221
 30
0.0
 10
-2.77558
 20
7.35221
 30
0.0
 10
-2.71297
 20
7.38182
 30
0.0
 10
-2.71297
 20
7.38182
 30
0.0
 10
-2.71297
 20
7.38182
 30
0.0
 10
-2.71297
 20
7.38182
 30
0.0
 10
-2.65586
 20
7.41884
 30
0.0
 10
-2.65586
 20
7.41884
 30
0.0
 10
-2.65586
 20
7.41884
 30
0.0
 10
-2.65586
 20
7.41884
 30
0.0
 10
-2.60542
 20
7.46253
 30
0.0
 10
-2.60542
 20
7.46253
 30
0.0
 10
-2.60542
 20
7.46253
 30
0.0
 10
-2.60542
 20
7.46253
 30
0.0
 10
-2.56266
 20
7.51199
 30
0.0
 10
-2.56266
 20
7.51199
 30
0.0
 10
-2.56266
 20
7.51199
 30
0.0
 10
-2.56266
 20
7.51199
 30
0.0
 10
-2.52847
 20
7.56621
 30
0.0
 10
-2.52847
 20
7.56621
 30
0.0
 10
-2.52847
 20
7.56621
 30
0.0
 10
-2.52847
 20
7.56621
 30
0.0
 10
-2.50354
 20
7.6241
 30
0.0
 10
-2.50354
 20
7.6241
 30
0.0
 10
-2.50354
 20
7.6241
 30
0.0
 10
-2.50354
 20
7.6241
 30
0.0
 10
-2.48838
 20
7.68447
 30
0.0
 10
-2.48838
 20
7.68447
 30
0.0
 10
-2.48838
 20
7.68447
 30
0.0
 10
-2.48838
 20
7.68447
 30
0.0
 10
-2.48329
 20
7.74609
 30
0.0
 10
-2.48329
 20
7.74609
 30
0.0
  0
SPLINE
  5
70
330
1F
100
AcDbEntity
  8
0
370
    15
100
AcDbSpline
210
0.0
220
0.0
230
1.0
 70
    24
 71
     3
 72
     8
 73
     4
 74
     0
 42
0.0000000001
 43
0.0000000001
 40
0.0
 40
0.0
 40
0.0
 40
0.0
 40
1.0
 40
1.0
 40
1.0
 40
1.0
 10
-2.98329
 20
7.06308
 30
0.0
 10
-2.98329
 20
7.06308
 30
0.0
 10
-2.98329
 20
7.31308
 30
0.0
 10
-2.98329
 20
7.31308
 30
0.0
  0
SPLINE
  5
71
330
1F
100
AcDbEntity
  8
0
370
    15
100
AcDbSpline
210
0.0
220
0.0
230
1.0
 70
    24
 71
     3
 72
     8
 73
     4
 74
     0
 42
0.0000000001
 43
0.0000000001
 40
0.0
 40
0.0
 40
0.0
 40
0.0
 40
1.0
 40
1.0
 40
1.0
 40
1.0
 10
-8.48329
 20
7.31308
 30
0.0
 10
-8.48329
 20
7.31308
 30
0.0
 10
-8.22079
 20
7.31308
 30
0.0
 10
-8.22079
 20
7.31308
 30
0.0
  0
SPLINE
  5
72
330
1F
100
AcDbEntity
  8
0
370
    15
100
AcDbSpline
210
0.0
220
0.0
230
1.0
 70
    24
 71
     3
 72
     8
 73
     4
 74
     0
 42
0.0000000001
 43
0.0000000001
 40
0.0
 40
0.0
 40
0.0
 40
0.0
 40
1.0
 40
1.0
 40
1.0
 40
1.0
 10
-3.22079
 20
7.31308
 30
0.0
 10
-3.22079
 20
7.31308
 30
0.0
 10
-2.98329
 20
7.31308
 30
0.0
 10
-2.98329
 20
7.31308
 30
0.0
  0
SPLINE
  5
73
330
1F
100
AcDbEntity
  8
0
370
    15
100
AcDbSpline
210
0.0
220
0.0
230
1.0
 70
    24
 71
     3
 72
     8
 73
     4
 74
     0
 42
0.0000000001
 43
0.0000000001
 40
0.0
 40
0.0
 40
0.0
 40
0.0
 40
1.0
 40
1.0
 40
1.0
 40
1.0
 10
-8.48329
 20
7.06308
 30
0.0
 10
-8.48329
 20
7.06308
 30
0.0
 10
-8.22079
 20
7.06308
 30
0.0
 10
-8.22079
 20
7.06308
 30
0.0
  0
SPLINE
  5
74
330
1F
100
AcDbEntity
  8
0
370
    15
100
AcDbSpline
210
0.0
220
0.0
230
1.0
 70
    24
 71
     3
 72
     8
 73
     4
 74
     0
 42
0.0000000001
 43
0.0000000001
 40
0.0
 40
0.0
 40
0.0
 40
0.0
 40
1.0
 40
1.0
 40
1.0
 40
1.0
 10
-3.22079
 20
7.06308
 30
0.0
 10
-3.22079
 20
7.06308
 30
0.0
 10
-2.98329
 20
7.06308
 30
0.0
 10
-2.98329
 20
7.06308
 30
0.0
  0
SPLINE
  5
75
330
1F
100
AcDbEntity
  8
0
370
    15
100
AcDbSpline
210
0.0
220
0.0
230
1.0
 70
    24
 71
     3
 72
     8
 73
     4
 74
     0
 42
0.0000000001
 43
0.0000000001
 40
0.0
 40
0.0
 40
0.0
 40
0.0
 40
1.0
 40
1.0
 40
1.0
 40
1.0
 10
-8.48329
 20
7.06308
 30
0.0
 10
-8.48329
 20
7.06308
 30
0.0
 10
-8.48329
 20
7.31308
 30
0.0
 10
-8.48329
 20
7.31308
 30
0.0
  0
SPLINE
  5
76
330
1F
100
AcDbEntity
  8
0
370
    15
100
AcDbSpline
210
0.0
220
0.0
230
1.0
 70
     8
 71
     3
 72
    48
 73
    44
 74
     0
 42
0.0000000001
 43
0.0000000001
 40
0.0
 40
0.0
 40
0.0
 40
0.0
 40
0.0833333333333333
 40
0.0833333333333333
 40
0.0833333333333333
 40
0.0833333333333333
 40
0.1666666666666667
 40
0.1666666666666667
 40
0.1666666666666667
 40
0.1666666666666667
 40
0.25
 40
0.25
 40
0.25
 40
0.25
 40
0.3333333333333333
 40
0.3333333333333333
 40
0.3333333333333333
 40
0.3333333333333333
 40
0.4166666666666667
 40
0.4166666666666667
 40
0.4166666666666667
 40
0.4166666666666667
 40
0.5
 40
0.5
 40
0.5
 40
0.5
 40
0.5833333333333334
 40
0.5833333333333334
 40
0.5833333333333334
 40
0.5833333333333334
 40
0.6666666666666666
 40
0.6666666666666666
 40
0.6666666666666666
 40
0.6666666666666666
 40
0.75
 40
0.75
 40
0.75
 40
0.75
 40
0.8333333333333334
 40
0.8333333333333334
 40
0.8333333333333334
 40
0.8333333333333334
 40
1.0
 40
1.0
 40
1.0
 40
1.0
 10
-8.98329
 20
7.74609
 30
0.0
 10
-8.98329
 20
7.74609
 30
0.0
 10
-8.9782
 20
7.68447
 30
0.0
 10
-8.9782
 20
7.68447
 30
0.0
 10
-8.9782
 20
7.68447
 30
0.0
 10
-8.9782
 20
7.68447
 30
0.0
 10
-8.96304
 20
7.6241
 30
0.0
 10
-8.96304
 20
7.6241
 30
0.0
 10
-8.96304
 20
7.6241
 30
0.0
 10
-8.96304
 20
7.6241
 30
0.0
 10
-8.93811
 20
7.56621
 30
0.0
 10
-8.93811
 20
7.56621
 30
0.0
 10
-8.93811
 20
7.56621
 30
0.0
 10
-8.93811
 20
7.56621
 30
0.0
 10
-8.90392
 20
7.51199
 30
0.0
 10
-8.90392
 20
7.51199
 30
0.0
 10
-8.90392
 20
7.51199
 30
0.0
 10
-8.90392
 20
7.51199
 30
0.0
 10
-8.86116
 20
7.46253
 30
0.0
 10
-8.86116
 20
7.46253
 30
0.0
 10
-8.86116
 20
7.46253
 30
0.0
 10
-8.86116
 20
7.46253
 30
0.0
 10
-8.81072
 20
7.41884
 30
0.0
 10
-8.81072
 20
7.41884
 30
0.0
 10
-8.81072
 20
7.41884
 30
0.0
 10
-8.81072
 20
7.41884
 30
0.0
 10
-8.75361
 20
7.38182
 30
0.0
 10
-8.75361
 20
7.38182
 30
0.0
 10
-8.75361
 20
7.38182
 30
0.0
 10
-8.75361
 20
7.38182
 30
0.0
 10
-8.691
 20
7.35221
 30
0.0
 10
-8.691
 20
7.35221
 30
0.0
 10
-8.691
 20
7.35221
 30
0.0
 10
-8.691
 20
7.35221
 30
0.0
 10
-8.62416
 20
7.33062
 30
0.0
 10
-8.62416
 20
7.33062
 30
0.0
 10
-8.62416
 20
7.33062
 30
0.0
 10
-8.62416
 20
7.33062
 30
0.0
 10
-8.55445
 20
7.31749
 30
0.0
 10
-8.55445
 20
7.31749
 30
0.0
 10
-8.55445
 20
7.31749
 30
0.0
 10
-8.55445
 20
7.31749
 30
0.0
 10
-8.48329
 20
7.31308
 30
0.0
 10
-8.48329
 20
7.31308
 30
0.0
  0
SPLINE
  5
77
330
1F
100
AcDbEntity
  8
0
370
    15
100
AcDbSpline
210
0.0
220
0.0
230
1.0
 70
     8
 71
     3
 72
     8
 73
     4
 74
     0
 42
0.0000000001
 43
0.0000000001
 40
0.0
 40
0.0
 40
0.0
 40
0.0
 40
1.0
 40
1.0
 40
1.0
 40
1.0
 10
-8.83329
 20
7.74609
 30
0.0
 10
-8.81893
 20
7.56645
 30
0.0
 10
-8.66314
 20
7.43153
 30
0.0
 10
-8.48329
 20
7.44298
 30
0.0
  0
SPLINE
  5
78
330
1F
100
AcDbEntity
  8
0
370
    15
100
AcDbSpline
210
0.0
220
0.0
230
1.0
 70
    24
 71
     3
 72
     8
 73
     4
 74
     0
 42
0.0000000001
 43
0.0000000001
 40
0.0
 40
0.0
 40
0.0
 40
0.0
 40
1.0
 40
1.0
 40
1.0
 40
1.0
 10
-8.48329
 20
7.44298
 30
0.0
 10
-8.48329
 20
7.44298
 30
0.0
 10
-8.22079
 20
7.44298
 30
0.0
 10
-8.22079
 20
7.44298
 30
0.0
  0
SPLINE
  5
79
330
1F
100
AcDbEntity
  8
0
370
    15
100
AcDbSpline
210
0.0
220
0.0
230
1.0
 70
    24
 71
     3
 72
     8
 73
     4
 74
     0
 42
0.0000000001
 43
0.0000000001
 40
0.0
 40
0.0
 40
0.0
 40
0.0
 40
1.0
 40
1.0
 40
1.0
 40
1.0
 10
-3.22079
 20
7.44298
 30
0.0
 10
-3.22079
 20
7.44298
 30
0.0
 10
-2.98329
 20
7.44298
 30
0.0
 10
-2.98329
 20
7.44298
 30
0.0
  0
SPLINE
  5
7A
330
1F
100
AcDbEntity
  8
0
370
    15
100
AcDbSpline
210
0.0
220
0.0
230
1.0
 70
     8
 71
     3
 72
     8
 73
     4
 74
     0
 42
0.0000000001
 43
0.0000000001
 40
0.0
 40
0.0
 40
0.0
 40
0.0
 40
1.0
 40
1.0
 40
1.0
 40
1.0
 10
-2.98329
 20
7.44298
 30
0.0
 10
-2.80308
 20
7.43044
 30
0.0
 10
-2.64663
 20
7.56593
 30
0.0
 10
-2.63329
 20
7.74609
 30
0.0
  0
SPLINE
  5
7B
330
1F
100
AcDbEntity
  8
0
370
    15
100
AcDbSpline
210
0.0
220
0.0
230
1.0
 70
    24
 71
     3
 72
     8
 73
     4
 74
     0
 42
0.0000000001
 43
0.0000000001
 40
0.0
 40
0.0
 40
0.0
 40
0.0
 40
1.0
 40
1.0
 40
1.0
 40
1.0
 10
-2.63329
 20
7.74609
 30
0.0
 10
-2.63329
 20
7.74609
 30
0.0
 10
-2.63329
 20
7.83269
 30
0.0
 10
-2.63329
 20
7.83269
 30
0.0
  0
SPLINE
  5
7C
330
1F
100
AcDbEntity
  8
0
370
    15
100
AcDbSpline
210
0.0
220
0.0
230
1.0
 70
    24
 71
     3
 72
     8
 73
     4
 74
     0
 42
0.0000000001
 43
0.0000000001
 40
0.0
 40
0.0
 40
0.0
 40
0.0
 40
1.0
 40
1.0
 40
1.0
 40
1.0
 10
-2.48329
 20
7.83269
 30
0.0
 10
-2.48329
 20
7.83269
 30
0.0
 10
-2.63329
 20
7.83269
 30
0.0
 10
-2.63329
 20
7.83269
 30
0.0
  0
SPLINE
  5
7D
330
1F
100
AcDbEntity
  8
0
370
    15
100
AcDbSpline
210
0.0
220
0.0
230
1.0
 70
    24
 71
     3
 72
     8
 73
     4
 74
     0
 42
0.0000000001
 43
0.0000000001
 40
0.0
 40
0.0
 40
0.0
 40
0.0
 40
1.0
 40
1.0
 40
1.0
 40
1.0
 10
-2.48329
 20
7.74609
 30
0.0
 10
-2.48329
 20
7.74609
 30
0.0
 10
-2.48329
 20
7.83269
 30
0.0
 10
-2.48329
 20
7.83269
 30
0.0
  0
SPLINE
  5
7E
330
1F
100
AcDbEntity
  8
0
370
    15
100
AcDbSpline
210
0.0
220
0.0
230
1.0
 70
    24
 71
     3
 72
     8
 73
     4
 74
     0
 42
0.0000000001
 43
0.0000000001
 40
0.0
 40
0.0
 40
0.0
 40
0.0
 40
1.0
 40
1.0
 40
1.0
 40
1.0
 10
-8.98329
 20
7.74609
 30
0.0
 10
-8.98329
 20
7.74609
 30
0.0
 10
-8.98329
 20
10.15407
 30
0.0
 10
-8.98329
 20
10.15407
 30
0.0
  0
SPLINE
  5
7F
330
1F
100
AcDbEntity
  8
0
370
    15
100
AcDbSpline
210
0.0
220
0.0
230
1.0
 70
    24
 71
     3
 72
     8
 73
     4
 74
     0
 42
0.0000000001
 43
0.0000000001
 40
0.0
 40
0.0
 40
0.0
 40
0.0
 40
1.0
 40
1.0
 40
1.0
 40
1.0
 10
-8.83329
 20
10.15407
 30
0.0
 10
-8.83329
 20
10.15407
 30
0.0
 10
-8.98329
 20
10.15407
 30
0.0
 10
-8.98329
 20
10.15407
 30
0.0
  0
SPLINE
  5
80
330
1F
100
AcDbEntity
  8
0
370
    15
100
AcDbSpline
210
0.0
220
0.0
230
1.0
 70
    24
 71
     3
 72
     8
 73
     4
 74
     0
 42
0.0000000001
 43
0.0000000001
 40
0.0
 40
0.0
 40
0.0
 40
0.0
 40
1.0
 40
1.0
 40
1.0
 40
1.0
 10
-8.83329
 20
7.74609
 30
0.0
 10
-8.83329
 20
7.74609
 30
0.0
 10
-8.83329
 20
10.15407
 30
0.0
 10
-8.83329
 20
10.15407
 30
0.0
  0
SPLINE
  5
81
330
1F
100
AcDbEntity
  8
0
370
    15
100
AcDbSpline
210
0.0
220
0.0
230
1.0
 70
     8
 71
     3
 72
    28
 73
    24
 74
     0
 42
0.0000000001
 43
0.0000000001
 40
0.0
 40
0.0
 40
0.0
 40
0.0
 40
0.1428571428571428
 40
0.1428571428571428
 40
0.1428571428571428
 40
0.1428571428571428
 40
0.2857142857142857
 40
0.2857142857142857
 40
0.2857142857142857
 40
0.2857142857142857
 40
0.4285714285714285
 40
0.4285714285714285
 40
0.4285714285714285
 40
0.4285714285714285
 40
0.5714285714285714
 40
0.5714285714285714
 40
0.5714285714285714
 40
0.5714285714285714
 40
0.7142857142857143
 40
0.7142857142857143
 40
0.7142857142857143
 40
0.7142857142857143
 40
1.0
 40
1.0
 40
1.0
 40
1.0
 10
-8.98329
 20
10.15407
 30
0.0
 10
-8.98533
 20
10.15601
 30
0.0
 10
-8.98736
 20
10.15794
 30
0.0
 10
-8.98935
 20
10.15987
 30
0.0
 10
-8.98935
 20
10.15987
 30
0.0
 10
-8.99924
 20
10.16949
 30
0.0
 10
-9.00788
 20
10.17889
 30
0.0
 10
-9.01535
 20
10.18814
 30
0.0
 10
-9.01535
 20
10.18814
 30
0.0
 10
-9.02288
 20
10.19747
 30
0.0
 10
-9.02924
 20
10.20664
 30
0.0
 10
-9.03436
 20
10.21572
 30
0.0
 10
-9.03436
 20
10.21572
 30
0.0
 10
-9.0396
 20
10.22499
 30
0.0
 10
-9.04354
 20
10.23415
 30
0.0
 10
-9.0462
 20
10.24327
 30
0.0
 10
-9.0462
 20
10.24327
 30
0.0
 10
-9.04887
 20
10.25245
 30
0.0
 10
-9.05024
 20
10.26157
 30
0.0
 10
-9.05028
 20
10.27069
 30
0.0
 10
-9.05028
 20
10.27069
 30
0.0
 10
-9.05028
 20
10.27084
 30
0.0
 10
-9.05028
 20
10.27098
 30
0.0
 10
-9.05028
 20
10.27113
 30
0.0
  0
SPLINE
  5
82
330
1F
100
AcDbEntity
  8
0
370
    15
100
AcDbSpline
210
0.0
220
0.0
230
1.0
 70
     8
 71
     3
 72
    24
 73
    20
 74
     0
 42
0.0000000001
 43
0.0000000001
 40
0.0
 40
0.0
 40
0.0
 40
0.0
 40
0.1666666666666667
 40
0.1666666666666667
 40
0.1666666666666667
 40
0.1666666666666667
 40
0.3333333333333333
 40
0.3333333333333333
 40
0.3333333333333333
 40
0.3333333333333333
 40
0.5
 40
0.5
 40
0.5
 40
0.5
 40
0.6666666666666666
 40
0.6666666666666666
 40
0.6666666666666666
 40
0.6666666666666666
 40
1.0
 40
1.0
 40
1.0
 40
1.0
 10
-8.76714
 20
9.94734
 30
0.0
 10
-8.76698
 20
9.95211
 30
0.0
 10
-8.76682
 20
9.95689
 30
0.0
 10
-8.76719
 20
9.96224
 30
0.0
 10
-8.76719
 20
9.96224
 30
0.0
 10
-8.7678
 20
9.97134
 30
0.0
 10
-8.76992
 20
9.98211
 30
0.0
 10
-8.77264
 20
9.99342
 30
0.0
 10
-8.77264
 20
9.99342
 30
0.0
 10
-8.77544
 20
10.00504
 30
0.0
 10
-8.77887
 20
10.01723
 30
0.0
 10
-8.78302
 20
10.03006
 30
0.0
 10
-8.78302
 20
10.03006
 30
0.0
 10
-8.79148
 20
10.05621
 30
0.0
 10
-8.80293
 20
10.08501
 30
0.0
 10
-8.81595
 20
10.11501
 30
0.0
 10
-8.81595
 20
10.11501
 30
0.0
 10
-8.82154
 20
10.12788
 30
0.0
 10
-8.82741
 20
10.14098
 30
0.0
 10
-8.83329
 20
10.15407
 30
0.0
  0
SPLINE
  5
83
330
1F
100
AcDbEntity
  8
0
370
    15
100
AcDbSpline
210
0.0
220
0.0
230
1.0
 70
    24
 71
     3
 72
     8
 73
     4
 74
     0
 42
0.0000000001
 43
0.0000000001
 40
0.0
 40
0.0
 40
0.0
 40
0.0
 40
1.0
 40
1.0
 40
1.0
 40
1.0
 10
-2.63329
 20
7.95769
 30
0.0
 10
-2.63329
 20
7.95769
 30
0.0
 10
-2.63329
 20
7.83269
 30
0.0
 10
-2.63329
 20
7.83269
 30
0.0
  0
SPLINE
  5
84
330
1F
100
AcDbEntity
  8
0
370
    15
100
AcDbSpline
210
0.0
220
0.0
230
1.0
 70
    24
 71
     3
 72
     8
 73
     4
 74
     0
 42
0.0000000001
 43
0.0000000001
 40
0.0
 40
0.0
 40
0.0
 40
0.0
 40
1.0
 40
1.0
 40
1.0
 40
1.0
 10
-2.48329
 20
7.95769
 30
0.0
 10
-2.48329
 20
7.95769
 30
0.0
 10
-2.48329
 20
7.83269
 30
0.0
 10
-2.48329
 20
7.83269
 30
0.0
  0
SPLINE
  5
85
330
1F
100
AcDbEntity
  8
0
370
    15
100
AcDbSpline
210
0.0
220
0.0
230
1.0
 70
    24
 71
     3
 72
     8
 73
     4
 74
     0
 42
0.0000000001
 43
0.0000000001
 40
0.0
 40
0.0
 40
0.0
 40
0.0
 40
1.0
 40
1.0
 40
1.0
 40
1.0
 10
-8.98329
 20
10.64613
 30
0.0
 10
-8.98329
 20
10.64613
 30
0.0
 10
-8.98329
 20
10.15407
 30
0.0
 10
-8.98329
 20
10.15407
 30
0.0
  0
SPLINE
  5
86
330
1F
100
AcDbEntity
  8
0
370
    15
100
AcDbSpline
210
0.0
220
0.0
230
1.0
 70
    24
 71
     3
 72
     8
 73
     4
 74
     0
 42
0.0000000001
 43
0.0000000001
 40
0.0
 40
0.0
 40
0.0
 40
0.0
 40
1.0
 40
1.0
 40
1.0
 40
1.0
 10
-8.68329
 20
10.64613
 30
0.0
 10
-8.68329
 20
10.64613
 30
0.0
 10
-8.68329
 20
9.89613
 30
0.0
 10
-8.68329
 20
9.89613
 30
0.0
  0
SPLINE
  5
87
330
1F
100
AcDbEntity
  8
0
370
    15
100
AcDbSpline
210
0.0
220
0.0
230
1.0
 70
    24
 71
     3
 72
     8
 73
     4
 74
     0
 42
0.0000000001
 43
0.0000000001
 40
0.0
 40
0.0
 40
0.0
 40
0.0
 40
1.0
 40
1.0
 40
1.0
 40
1.0
 10
-7.55829
 20
10.64613
 30
0.0
 10
-7.55829
 20
10.64613
 30
0.0
 10
-7.55829
 20
9.89613
 30
0.0
 10
-7.55829
 20
9.89613
 30
0.0
  0
SPLINE
  5
88
330
1F
100
AcDbEntity
  8
0
370
    15
100
AcDbSpline
210
0.0
220
0.0
230
1.0
 70
    24
 71
     3
 72
     8
 73
     4
 74
     0
 42
0.0000000001
 43
0.0000000001
 40
0.0
 40
0.0
 40
0.0
 40
0.0
 40
1.0
 40
1.0
 40
1.0
 40
1.0
 10
-3.88329
 20
10.64613
 30
0.0
 10
-3.88329
 20
10.64613
 30
0.0
 10
-3.88329
 20
9.89613
 30
0.0
 10
-3.88329
 20
9.89613
 30
0.0
  0
SPLINE
  5
89
330
1F
100
AcDbEntity
  8
0
370
    15
100
AcDbSpline
210
0.0
220
0.0
230
1.0
 70
    24
 71
     3
 72
     8
 73
     4
 74
     0
 42
0.0000000001
 43
0.0000000001
 40
0.0
 40
0.0
 40
0.0
 40
0.0
 40
1.0
 40
1.0
 40
1.0
 40
1.0
 10
-2.50829
 20
10.64613
 30
0.0
 10
-2.50829
 20
10.64613
 30
0.0
 10
-2.50829
 20
9.89613
 30
0.0
 10
-2.50829
 20
9.89613
 30
0.0
  0
SPLINE
  5
8A
330
1F
100
AcDbEntity
  8
0
370
    15
100
AcDbSpline
210
0.0
220
0.0
230
1.0
 70
    24
 71
     3
 72
     8
 73
     4
 74
     0
 42
0.0000000001
 43
0.0000000001
 40
0.0
 40
0.0
 40
0.0
 40
0.0
 40
1.0
 40
1.0
 40
1.0
 40
1.0
 10
-7.54579
 20
10.27113
 30
0.0
 10
-7.54579
 20
10.27113
 30
0.0
 10
-7.54579
 20
10.56613
 30
0.0
 10
-7.54579
 20
10.56613
 30
0.0
  0
SPLINE
  5
8B
330
1F
100
AcDbEntity
  8
0
370
    15
100
AcDbSpline
210
0.0
220
0.0
230
1.0
 70
    24
 71
     3
 72
     8
 73
     4
 74
     0
 42
0.0000000001
 43
0.0000000001
 40
0.0
 40
0.0
 40
0.0
 40
0.0
 40
1.0
 40
1.0
 40
1.0
 40
1.0
 10
-7.54579
 20
9.97613
 30
0.0
 10
-7.54579
 20
9.97613
 30
0.0
 10
-7.54579
 20
10.27113
 30
0.0
 10
-7.54579
 20
10.27113
 30
0.0
  0
SPLINE
  5
8C
330
1F
100
AcDbEntity
  8
0
370
    15
100
AcDbSpline
210
0.0
220
0.0
230
1.0
 70
    24
 71
     3
 72
     8
 73
     4
 74
     0
 42
0.0000000001
 43
0.0000000001
 40
0.0
 40
0.0
 40
0.0
 40
0.0
 40
1.0
 40
1.0
 40
1.0
 40
1.0
 10
-3.89579
 20
10.56613
 30
0.0
 10
-3.89579
 20
10.56613
 30
0.0
 10
-3.89579
 20
9.97613
 30
0.0
 10
-3.89579
 20
9.97613
 30
0.0
  0
SPLINE
  5
8D
330
1F
100
AcDbEntity
  8
0
370
    15
100
AcDbSpline
210
0.0
220
0.0
230
1.0
 70
    24
 71
     3
 72
     8
 73
     4
 74
     0
 42
0.0000000001
 43
0.0000000001
 40
0.0
 40
0.0
 40
0.0
 40
0.0
 40
1.0
 40
1.0
 40
1.0
 40
1.0
 10
-7.52079
 20
9.92113
 30
0.0
 10
-7.52079
 20
9.92113
 30
0.0
 10
-7.52079
 20
10.62113
 30
0.0
 10
-7.52079
 20
10.62113
 30
0.0
  0
SPLINE
  5
8E
330
1F
100
AcDbEntity
  8
0
370
    15
100
AcDbSpline
210
0.0
220
0.0
230
1.0
 70
    24
 71
     3
 72
     8
 73
     4
 74
     0
 42
0.0000000001
 43
0.0000000001
 40
0.0
 40
0.0
 40
0.0
 40
0.0
 40
1.0
 40
1.0
 40
1.0
 40
1.0
 10
-3.92079
 20
10.62113
 30
0.0
 10
-3.92079
 20
10.62113
 30
0.0
 10
-3.92079
 20
9.92113
 30
0.0
 10
-3.92079
 20
9.92113
 30
0.0
  0
SPLINE
  5
8F
330
1F
100
AcDbEntity
  8
0
 62
     8
370
    15
100
AcDbSpline
210
0.0
220
0.0
230
1.0
 70
     8
 71
     3
 72
     8
 73
     4
 74
     0
 42
0.0000000001
 43
0.0000000001
 40
0.0
 40
0.0
 40
0.0
 40
0.0
 40
1.0
 40
1.0
 40
1.0
 40
1.0
 10
-2.4163
 20
7.62068
 30
0.0
 10
-2.41879
 20
7.67039
 30
0.0
 10
-2.44336
 20
7.71639
 30
0.0
 10
-2.48329
 20
7.74609
 30
0.0
  0
SPLINE
  5
90
330
1F
100
AcDbEntity
  8
0
 62
     8
370
    15
100
AcDbSpline
210
0.0
220
0.0
230
1.0
 70
     8
 71
     3
 72
     8
 73
     4
 74
     0
 42
0.0000000001
 43
0.0000000001
 40
0.0
 40
0.0
 40
0.0
 40
0.0
 40
1.0
 40
1.0
 40
1.0
 40
1.0
 10
-8.98329
 20
7.74609
 30
0.0
 10
-9.02323
 20
7.71638
 30
0.0
 10
-9.0478
 20
7.67038
 30
0.0
 10
-9.05028
 20
7.62066
 30
0.0
  0
SPLINE
  5
91
330
1F
100
AcDbEntity
  8
0
 62
     8
370
    15
100
AcDbSpline
210
0.0
220
0.0
230
1.0
 70
     8
 71
     3
 72
     8
 73
     4
 74
     0
 42
0.0000000001
 43
0.0000000001
 40
0.0
 40
0.0
 40
0.0
 40
0.0
 40
1.0
 40
1.0
 40
1.0
 40
1.0
 10
-8.76631
 20
7.61971
 30
0.0
 10
-8.76795
 20
7.66991
 30
0.0
 10
-8.79267
 20
7.71655
 30
0.0
 10
-8.83329
 20
7.74609
 30
0.0
  0
SPLINE
  5
92
330
1F
100
AcDbEntity
  8
0
 62
     8
370
    15
100
AcDbSpline
210
0.0
220
0.0
230
1.0
 70
     8
 71
     3
 72
     8
 73
     4
 74
     0
 42
0.0000000001
 43
0.0000000001
 40
0.0
 40
0.0
 40
0.0
 40
0.0
 40
1.0
 40
1.0
 40
1.0
 40
1.0
 10
-2.63329
 20
7.74609
 30
0.0
 10
-2.67391
 20
7.71655
 30
0.0
 10
-2.69863
 20
7.66991
 30
0.0
 10
-2.70027
 20
7.61971
 30
0.0
  0
SPLINE
  5
93
330
1F
100
AcDbEntity
  8
0
 62
     8
370
    15
100
AcDbSpline
210
0.0
220
0.0
230
1.0
 70
     8
 71
     3
 72
     8
 73
     4
 74
     0
 42
0.0000000001
 43
0.0000000001
 40
0.0
 40
0.0
 40
0.0
 40
0.0
 40
1.0
 40
1.0
 40
1.0
 40
1.0
 10
-2.63329
 20
7.83269
 30
0.0
 10
-2.67282
 20
7.80283
 30
0.0
 10
-2.6973
 20
7.75715
 30
0.0
 10
-2.70028
 20
7.70769
 30
0.0
  0
SPLINE
  5
94
330
1F
100
AcDbEntity
  8
0
 62
     8
370
    15
100
AcDbSpline
210
0.0
220
0.0
230
1.0
 70
     8
 71
     3
 72
     8
 73
     4
 74
     0
 42
0.0000000001
 43
0.0000000001
 40
0.0
 40
0.0
 40
0.0
 40
0.0
 40
1.0
 40
1.0
 40
1.0
 40
1.0
 10
-2.4163
 20
7.70769
 30
0.0
 10
-2.41928
 20
7.75715
 30
0.0
 10
-2.44376
 20
7.80283
 30
0.0
 10
-2.48329
 20
7.83269
 30
0.0
  0
SPLINE
  5
95
330
1F
100
AcDbEntity
  8
0
 62
     8
370
    15
100
AcDbSpline
210
0.0
220
0.0
230
1.0
 70
    24
 71
     3
 72
     8
 73
     4
 74
     0
 42
0.0000000001
 43
0.0000000001
 40
0.0
 40
0.0
 40
0.0
 40
0.0
 40
1.0
 40
1.0
 40
1.0
 40
1.0
 10
-7.54079
 20
10.27113
 30
0.0
 10
-7.54079
 20
10.27113
 30
0.0
 10
-7.54079
 20
9.97113
 30
0.0
 10
-7.54079
 20
9.97113
 30
0.0
  0
SPLINE
  5
96
330
1F
100
AcDbEntity
  8
0
 62
     8
370
    15
100
AcDbSpline
210
0.0
220
0.0
230
1.0
 70
    24
 71
     3
 72
     8
 73
     4
 74
     0
 42
0.0000000001
 43
0.0000000001
 40
0.0
 40
0.0
 40
0.0
 40
0.0
 40
1.0
 40
1.0
 40
1.0
 40
1.0
 10
-7.54079
 20
10.57113
 30
0.0
 10
-7.54079
 20
10.57113
 30
0.0
 10
-7.54079
 20
10.27113
 30
0.0
 10
-7.54079
 20
10.27113
 30
0.0
  0
SPLINE
  5
97
330
1F
100
AcDbEntity
  8
0
 62
     8
370
    15
100
AcDbSpline
210
0.0
220
0.0
230
1.0
 70
    24
 71
     3
 72
     8
 73
     4
 74
     0
 42
0.0000000001
 43
0.0000000001
 40
0.0
 40
0.0
 40
0.0
 40
0.0
 40
1.0
 40
1.0
 40
1.0
 40
1.0
 10
-3.90079
 20
9.97113
 30
0.0
 10
-3.90079
 20
9.97113
 30
0.0
 10
-3.90079
 20
10.57113
 30
0.0
 10
-3.90079
 20
10.57113
 30
0.0
  0
SPLINE
  5
98
330
1F
100
AcDbEntity
  8
0
 62
     8
370
    15
100
AcDbSpline
210
0.0
220
0.0
230
1.0
 70
    24
 71
     3
 72
     8
 73
     4
 74
     0
 42
0.0000000001
 43
0.0000000001
 40
0.0
 40
0.0
 40
0.0
 40
0.0
 40
1.0
 40
1.0
 40
1.0
 40
1.0
 10
-7.49579
 20
10.64613
 30
0.0
 10
-7.49579
 20
10.64613
 30
0.0
 10
-7.49579
 20
9.89613
 30
0.0
 10
-7.49579
 20
9.89613
 30
0.0
  0
SPLINE
  5
99
330
1F
100
AcDbEntity
  8
0
 62
     8
370
    15
100
AcDbSpline
210
0.0
220
0.0
230
1.0
 70
    24
 71
     3
 72
     8
 73
     4
 74
     0
 42
0.0000000001
 43
0.0000000001
 40
0.0
 40
0.0
 40
0.0
 40
0.0
 40
1.0
 40
1.0
 40
1.0
 40
1.0
 10
-3.94579
 20
9.89613
 30
0.0
 10
-3.94579
 20
9.89613
 30
0.0
 10
-3.94579
 20
10.64613
 30
0.0
 10
-3.94579
 20
10.64613
 30
0.0
  0
SPLINE
  5
9A
330
1F
100
AcDbEntity
  8
0
 62
     8
370
    15
100
AcDbSpline
210
0.0
220
0.0
230
1.0
 70
    24
 71
     3
 72
     8
 73
     4
 74
     0
 42
0.0000000001
 43
0.0000000001
 40
0.0
 40
0.0
 40
0.0
 40
0.0
 40
1.0
 40
1.0
 40
1.0
 40
1.0
 10
-4.08796
 20
9.44683
 30
0.0
 10
-4.08796
 20
9.44683
 30
0.0
 10
-4.08796
 20
9.89613
 30
0.0
 10
-4.08796
 20
9.89613
 30
0.0
  0
SPLINE
  5
9B
330
1F
100
AcDbEntity
  8
0
 62
     8
370
    15
100
AcDbSpline
210
0.0
220
0.0
230
1.0
 70
    24
 71
     3
 72
     8
 73
     4
 74
     0
 42
0.0000000001
 43
0.0000000001
 40
0.0
 40
0.0
 40
0.0
 40
0.0
 40
1.0
 40
1.0
 40
1.0
 40
1.0
 10
-7.35362
 20
9.89613
 30
0.0
 10
-7.35362
 20
9.89613
 30
0.0
 10
-7.35362
 20
9.44683
 30
0.0
 10
-7.35362
 20
9.44683
 30
0.0
  0
SPLINE
  5
9C
330
1F
100
AcDbEntity
  8
0
 62
     8
370
    15
100
AcDbSpline
210
0.0
220
0.0
230
1.0
 70
    24
 71
     3
 72
     8
 73
     4
 74
     0
 42
0.0000000001
 43
0.0000000001
 40
0.0
 40
0.0
 40
0.0
 40
0.0
 40
1.0
 40
1.0
 40
1.0
 40
1.0
 10
-4.06518
 20
9.89613
 30
0.0
 10
-4.06518
 20
9.89613
 30
0.0
 10
-4.06518
 20
9.44683
 30
0.0
 10
-4.06518
 20
9.44683
 30
0.0
  0
SPLINE
  5
9D
330
1F
100
AcDbEntity
  8
0
 62
     8
370
    15
100
AcDbSpline
210
0.0
220
0.0
230
1.0
 70
    24
 71
     3
 72
     8
 73
     4
 74
     0
 42
0.0000000001
 43
0.0000000001
 40
0.0
 40
0.0
 40
0.0
 40
0.0
 40
1.0
 40
1.0
 40
1.0
 40
1.0
 10
-7.3764
 20
9.44683
 30
0.0
 10
-7.3764
 20
9.44683
 30
0.0
 10
-7.3764
 20
9.89613
 30
0.0
 10
-7.3764
 20
9.89613
 30
0.0
  0
SPLINE
  5
9E
330
1F
100
AcDbEntity
  8
0
100
AcDbSpline
210
0.0
220
0.0
230
1.0
 70
    27
 71
     3
 72
    12
 73
     8
 74
     0
 42
0.0000000001
 43
0.0000000001
 40
0.0
 40
0.0
 40
0.0
 40
0.0
 40
0.3333333333333333
 40
0.3333333333333333
 40
0.3333333333333333
 40
0.3333333333333333
 40
1.0
 40
1.0
 40
1.0
 40
1.0
 10
-9.05028
 20
11.78339
 30
0.0
 10
-9.05028
 20
11.78339
 30
0.0
 10
-8.72008
 20
11.83419
 30
0.0
 10
-8.72008
 20
11.83419
 30
0.0
 10
-8.72008
 20
11.83419
 30
0.0
 10
-8.72008
 20
11.83419
 30
0.0
 10
-9.05028
 20
11.78339
 30
0.0
 10
-9.05028
 20
11.78339
 30
0.0
  0
SPLINE
  5
9F
330
1F
100
AcDbEntity
  8
0
100
AcDbSpline
210
0.0
220
0.0
230
1.0
 70
     8
 71
     3
 72
    12
 73
     8
 74
     0
 42
0.0000000001
 43
0.0000000001
 40
0.0
 40
0.0
 40
0.0
 40
0.0
 40
0.3333333333333333
 40
0.3333333333333333
 40
0.3333333333333333
 40
0.3333333333333333
 40
1.0
 40
1.0
 40
1.0
 40
1.0
 10
-8.72008
 20
11.83419
 30
0.0
 10
-8.72008
 20
11.83419
 30
0.0
 10
-8.72008
 20
11.73259
 30
0.0
 10
-8.72008
 20
11.73259
 30
0.0
 10
-8.72008
 20
11.73259
 30
0.0
 10
-8.72008
 20
11.73259
 30
0.0
 10
-9.05028
 20
11.78339
 30
0.0
 10
-9.05028
 20
11.78339
 30
0.0
  0
SPLINE
  5
A0
330
1F
100
AcDbEntity
  8
0
370
     9
100
AcDbSpline
210
0.0
220
0.0
230
1.0
 70
    24
 71
     3
 72
     8
 73
     4
 74
     0
 42
0.0000000001
 43
0.0000000001
 40
0.0
 40
0.0
 40
0.0
 40
0.0
 40
1.0
 40
1.0
 40
1.0
 40
1.0
 10
-9.05028
 20
11.78339
 30
0.0
 10
-9.05028
 20
11.78339
 30
0.0
 10
-8.72008
 20
11.83419
 30
0.0
 10
-8.72008
 20
11.83419
 30
0.0
  0
SPLINE
  5
A1
330
1F
100
AcDbEntity
  8
0
370
     9
100
AcDbSpline
210
0.0
220
0.0
230
1.0
 70
     8
 71
     3
 72
    12
 73
     8
 74
     0
 42
0.0000000001
 43
0.0000000001
 40
0.0
 40
0.0
 40
0.0
 40
0.0
 40
0.3333333333333333
 40
0.3333333333333333
 40
0.3333333333333333
 40
0.3333333333333333
 40
1.0
 40
1.0
 40
1.0
 40
1.0
 10
-8.72008
 20
11.83419
 30
0.0
 10
-8.72008
 20
11.83419
 30
0.0
 10
-8.72008
 20
11.73259
 30
0.0
 10
-8.72008
 20
11.73259
 30
0.0
 10
-8.72008
 20
11.73259
 30
0.0
 10
-8.72008
 20
11.73259
 30
0.0
 10
-9.05028
 20
11.78339
 30
0.0
 10
-9.05028
 20
11.78339
 30
0.0
  0
SPLINE
  5
A2
330
1F
100
AcDbEntity
  8
0
100
AcDbSpline
210
0.0
220
0.0
230
1.0
 70
    27
 71
     3
 72
    12
 73
     8
 74
     0
 42
0.0000000001
 43
0.0000000001
 40
0.0
 40
0.0
 40
0.0
 40
0.0
 40
0.3333333333333333
 40
0.3333333333333333
 40
0.3333333333333333
 40
0.3333333333333333
 40
1.0
 40
1.0
 40
1.0
 40
1.0
 10
-2.43329
 20
11.78339
 30
0.0
 10
-2.43329
 20
11.78339
 30
0.0
 10
-2.76349
 20
11.73259
 30
0.0
 10
-2.76349
 20
11.73259
 30
0.0
 10
-2.76349
 20
11.73259
 30
0.0
 10
-2.76349
 20
11.73259
 30
0.0
 10
-2.43329
 20
11.78339
 30
0.0
 10
-2.43329
 20
11.78339
 30
0.0
  0
SPLINE
  5
A3
330
1F
100
AcDbEntity
  8
0
100
AcDbSpline
210
0.0
220
0.0
230
1.0
 70
     8
 71
     3
 72
    12
 73
     8
 74
     0
 42
0.0000000001
 43
0.0000000001
 40
0.0
 40
0.0
 40
0.0
 40
0.0
 40
0.3333333333333333
 40
0.3333333333333333
 40
0.3333333333333333
 40
0.3333333333333333
 40
1.0
 40
1.0
 40
1.0
 40
1.0
 10
-2.76349
 20
11.73259
 30
0.0
 10
-2.76349
 20
11.73259
 30
0.0
 10
-2.76349
 20
11.83419
 30
0.0
 10
-2.76349
 20
11.83419
 30
0.0
 10
-2.76349
 20
11.83419
 30
0.0
 10
-2.76349
 20
11.83419
 30
0.0
 10
-2.43329
 20
11.78339
 30
0.0
 10
-2.43329
 20
11.78339
 30
0.0
  0
SPLINE
  5
A4
330
1F
100
AcDbEntity
  8
0
370
     9
100
AcDbSpline
210
0.0
220
0.0
230
1.0
 70
    24
 71
     3
 72
     8
 73
     4
 74
     0
 42
0.0000000001
 43
0.0000000001
 40
0.0
 40
0.0
 40
0.0
 40
0.0
 40
1.0
 40
1.0
 40
1.0
 40
1.0
 10
-2.43329
 20
11.78339
 30
0.0
 10
-2.43329
 20
11.78339
 30
0.0
 10
-2.76349
 20
11.73259
 30
0.0
 10
-2.76349
 20
11.73259
 30
0.0
  0
SPLINE
  5
A5
330
1F
100
AcDbEntity
  8
0
370
     9
100
AcDbSpline
210
0.0
220
0.0
230
1.0
 70
     8
 71
     3
 72
    12
 73
     8
 74
     0
 42
0.0000000001
 43
0.0000000001
 40
0.0
 40
0.0
 40
0.0
 40
0.0
 40
0.3333333333333333
 40
0.3333333333333333
 40
0.3333333333333333
 40
0.3333333333333333
 40
1.0
 40
1.0
 40
1.0
 40
1.0
 10
-2.76349
 20
11.73259
 30
0.0
 10
-2.76349
 20
11.73259
 30
0.0
 10
-2.76349
 20
11.83419
 30
0.0
 10
-2.76349
 20
11.83419
 30
0.0
 10
-2.76349
 20
11.83419
 30
0.0
 10
-2.76349
 20
11.83419
 30
0.0
 10
-2.43329
 20
11.78339
 30
0.0
 10
-2.43329
 20
11.78339
 30
0.0
  0
SPLINE
  5
A6
330
1F
100
AcDbEntity
  8
0
370
     9
100
AcDbSpline
210
0.0
220
0.0
230
1.0
 70
    24
 71
     3
 72
     8
 73
     4
 74
     0
 42
0.0000000001
 43
0.0000000001
 40
0.0
 40
0.0
 40
0.0
 40
0.0
 40
1.0
 40
1.0
 40
1.0
 40
1.0
 10
-9.05028
 20
10.37113
 30
0.0
 10
-9.05028
 20
10.37113
 30
0.0
 10
-9.05028
 20
11.88339
 30
0.0
 10
-9.05028
 20
11.88339
 30
0.0
  0
SPLINE
  5
A7
330
1F
100
AcDbEntity
  8
0
370
     9
100
AcDbSpline
210
0.0
220
0.0
230
1.0
 70
    24
 71
     3
 72
     8
 73
     4
 74
     0
 42
0.0000000001
 43
0.0000000001
 40
0.0
 40
0.0
 40
0.0
 40
0.0
 40
1.0
 40
1.0
 40
1.0
 40
1.0
 10
-2.43329
 20
10.37113
 30
0.0
 10
-2.43329
 20
10.37113
 30
0.0
 10
-2.43329
 20
11.88339
 30
0.0
 10
-2.43329
 20
11.88339
 30
0.0
  0
SPLINE
  5
A8
330
1F
100
AcDbEntity
  8
0
370
     9
100
AcDbSpline
210
0.0
220
0.0
230
1.0
 70
    24
 71
     3
 72
     8
 73
     4
 74
     0
 42
0.0000000001
 43
0.0000000001
 40
0.0
 40
0.0
 40
0.0
 40
0.0
 40
1.0
 40
1.0
 40
1.0
 40
1.0
 10
-9.05028
 20
11.78339
 30
0.0
 10
-9.05028
 20
11.78339
 30
0.0
 10
-2.43329
 20
11.78339
 30
0.0
 10
-2.43329
 20
11.78339
 30
0.0
  0
SPLINE
  5
A9
330
1F
100
AcDbEntity
  8
0
100
AcDbSpline
210
0.0
220
0.0
230
1.0
 70
    11
 71
     3
 72
    40
 73
    36
 74
     0
 42
0.0000000001
 43
0.0000000001
 40
0.0
 40
0.0
 40
0.0
 40
0.0
 40
0.1
 40
0.1
 40
0.1
 40
0.1
 40
0.2
 40
0.2
 40
0.2
 40
0.2
 40
0.3
 40
0.3
 40
0.3
 40
0.3
 40
0.4
 40
0.4
 40
0.4
 40
0.4
 40
0.5
 40
0.5
 40
0.5
 40
0.5
 40
0.6
 40
0.6
 40
0.6
 40
0.6
 40
0.7
 40
0.7
 40
0.7
 40
0.7
 40
0.8
 40
0.8
 40
0.8
 40
0.8
 40
1.0
 40
1.0
 40
1.0
 40
1.0
 10
-6.0628
 20
11.91769
 30
0.0
 10
-6.0628
 20
11.91769
 30
0.0
 10
-6.09354
 20
11.91769
 30
0.0
 10
-6.09354
 20
11.91769
 30
0.0
 10
-6.09354
 20
11.91769
 30
0.0
 10
-6.09354
 20
11.91769
 30
0.0
 10
-6.09354
 20
12.11369
 30
0.0
 10
-6.09354
 20
12.11369
 30
0.0
 10
-6.09354
 20
12.11369
 30
0.0
 10
-6.10095
 20
12.10663
 30
0.0
 10
-6.11063
 20
12.09957
 30
0.0
 10
-6.12265
 20
12.09251
 30
0.0
 10
-6.12265
 20
12.09251
 30
0.0
 10
-6.13472
 20
12.08546
 30
0.0
 10
-6.14551
 20
12.08015
 30
0.0
 10
-6.15508
 20
12.07665
 30
0.0
 10
-6.15508
 20
12.07665
 30
0.0
 10
-6.15508
 20
12.07665
 30
0.0
 10
-6.15508
 20
12.10634
 30
0.0
 10
-6.15508
 20
12.10634
 30
0.0
 10
-6.15508
 20
12.10634
 30
0.0
 10
-6.13787
 20
12.11445
 30
0.0
 10
-6.12282
 20
12.12425
 30
0.0
 10
-6.10993
 20
12.13574
 30
0.0
 10
-6.10993
 20
12.13574
 30
0.0
 10
-6.0971
 20
12.14729
 30
0.0
 10
-6.08794
 20
12.15843
 30
0.0
 10
-6.08257
 20
12.16928
 30
0.0
 10
-6.08257
 20
12.16928
 30
0.0
 10
-6.08257
 20
12.16928
 30
0.0
 10
-6.0628
 20
12.16928
 30
0.0
 10
-6.0628
 20
12.16928
 30
0.0
 10
-6.0628
 20
12.16928
 30
0.0
 10
-6.0628
 20
12.16928
 30
0.0
 10
-6.0628
 20
11.91769
 30
0.0
 10
-6.0628
 20
11.91769
 30
0.0
  0
SPLINE
  5
AA
330
1F
100
AcDbEntity
  8
0
100
AcDbSpline
210
0.0
220
0.0
230
1.0
 70
    11
 71
     3
 72
   124
 73
   120
 74
     0
 42
0.0000000001
 43
0.0000000001
 40
0.0
 40
0.0
 40
0.0
 40
0.0
 40
0.032258064516129
 40
0.032258064516129
 40
0.032258064516129
 40
0.032258064516129
 40
0.0645161290322581
 40
0.0645161290322581
 40
0.0645161290322581
 40
0.0645161290322581
 40
0.0967741935483871
 40
0.0967741935483871
 40
0.0967741935483871
 40
0.0967741935483871
 40
0.1290322580645161
 40
0.1290322580645161
 40
0.1290322580645161
 40
0.1290322580645161
 40
0.1612903225806452
 40
0.1612903225806452
 40
0.1612903225806452
 40
0.1612903225806452
 40
0.1935483870967742
 40
0.1935483870967742
 40
0.1935483870967742
 40
0.1935483870967742
 40
0.2258064516129032
 40
0.2258064516129032
 40
0.2258064516129032
 40
0.2258064516129032
 40
0.2580645161290323
 40
0.2580645161290323
 40
0.2580645161290323
 40
0.2580645161290323
 40
0.2903225806451613
 40
0.2903225806451613
 40
0.2903225806451613
 40
0.2903225806451613
 40
0.3225806451612903
 40
0.3225806451612903
 40
0.3225806451612903
 40
0.3225806451612903
 40
0.3548387096774194
 40
0.3548387096774194
 40
0.3548387096774194
 40
0.3548387096774194
 40
0.3870967741935484
 40
0.3870967741935484
 40
0.3870967741935484
 40
0.3870967741935484
 40
0.4193548387096774
 40
0.4193548387096774
 40
0.4193548387096774
 40
0.4193548387096774
 40
0.4516129032258064
 40
0.4516129032258064
 40
0.4516129032258064
 40
0.4516129032258064
 40
0.4838709677419355
 40
0.4838709677419355
 40
0.4838709677419355
 40
0.4838709677419355
 40
0.5161290322580645
 40
0.5161290322580645
 40
0.5161290322580645
 40
0.5161290322580645
 40
0.5483870967741935
 40
0.5483870967741935
 40
0.5483870967741935
 40
0.5483870967741935
 40
0.5806451612903226
 40
0.5806451612903226
 40
0.5806451612903226
 40
0.5806451612903226
 40
0.6129032258064516
 40
0.6129032258064516
 40
0.6129032258064516
 40
0.6129032258064516
 40
0.6451612903225806
 40
0.6451612903225806
 40
0.6451612903225806
 40
0.6451612903225806
 40
0.6774193548387096
 40
0.6774193548387096
 40
0.6774193548387096
 40
0.6774193548387096
 40
0.7096774193548387
 40
0.7096774193548387
 40
0.7096774193548387
 40
0.7096774193548387
 40
0.7419354838709677
 40
0.7419354838709677
 40
0.7419354838709677
 40
0.7419354838709677
 40
0.7741935483870968
 40
0.7741935483870968
 40
0.7741935483870968
 40
0.7741935483870968
 40
0.8064516129032258
 40
0.8064516129032258
 40
0.8064516129032258
 40
0.8064516129032258
 40
0.8387096774193549
 40
0.8387096774193549
 40
0.8387096774193549
 40
0.8387096774193549
 40
0.8709677419354839
 40
0.8709677419354839
 40
0.8709677419354839
 40
0.8709677419354839
 40
0.9032258064516129
 40
0.9032258064516129
 40
0.9032258064516129
 40
0.9032258064516129
 40
0.9354838709677419
 40
0.9354838709677419
 40
0.9354838709677419
 40
0.9354838709677419
 40
1.0
 40
1.0
 40
1.0
 40
1.0
 10
-5.98381
 20
11.98384
 30
0.0
 10
-5.98381
 20
11.98384
 30
0.0
 10
-5.95307
 20
11.98792
 30
0.0
 10
-5.95307
 20
11.98792
 30
0.0
 10
-5.95307
 20
11.98792
 30
0.0
 10
-5.94951
 20
11.97048
 30
0.0
 10
-5.9435
 20
11.95794
 30
0.0
 10
-5.93504
 20
11.95024
 30
0.0
 10
-5.93504
 20
11.95024
 30
0.0
 10
-5.92653
 20
11.94254
 30
0.0
 10
-5.9162
 20
11.93869
 30
0.0
 10
-5.90401
 20
11.93869
 30
0.0
 10
-5.90401
 20
11.93869
 30
0.0
 10
-5.88954
 20
11.93869
 30
0.0
 10
-5.87729
 20
11.94371
 30
0.0
 10
-5.86732
 20
11.95374
 30
0.0
 10
-5.86732
 20
11.95374
 30
0.0
 10
-5.8574
 20
11.96377
 30
0.0
 10
-5.85239
 20
11.9762
 30
0.0
 10
-5.85239
 20
11.99101
 30
0.0
 10
-5.85239
 20
11.99101
 30
0.0
 10
-5.85239
 20
12.00513
 30
0.0
 10
-5.85699
 20
12.0168
 30
0.0
 10
-5.86621
 20
12.02596
 30
0.0
 10
-5.86621
 20
12.02596
 30
0.0
 10
-5.87549
 20
12.03511
 30
0.0
 10
-5.88721
 20
12.03972
 30
0.0
 10
-5.90144
 20
12.03972
 30
0.0
 10
-5.90144
 20
12.03972
 30
0.0
 10
-5.90728
 20
12.03972
 30
0.0
 10
-5.91451
 20
12.03856
 30
0.0
 10
-5.92314
 20
12.03628
 30
0.0
 10
-5.92314
 20
12.03628
 30
0.0
 10
-5.92314
 20
12.03628
 30
0.0
 10
-5.9197
 20
12.06329
 30
0.0
 10
-5.9197
 20
12.06329
 30
0.0
 10
-5.9197
 20
12.06329
 30
0.0
 10
-5.91766
 20
12.06306
 30
0.0
 10
-5.91603
 20
12.06294
 30
0.0
 10
-5.91474
 20
12.06294
 30
0.0
 10
-5.91474
 20
12.06294
 30
0.0
 10
-5.90168
 20
12.06294
 30
0.0
 10
-5.88989
 20
12.06638
 30
0.0
 10
-5.87939
 20
12.07321
 30
0.0
 10
-5.87939
 20
12.07321
 30
0.0
 10
-5.86889
 20
12.08003
 30
0.0
 10
-5.86364
 20
12.09059
 30
0.0
 10
-5.86364
 20
12.10482
 30
0.0
 10
-5.86364
 20
12.10482
 30
0.0
 10
-5.86364
 20
12.11608
 30
0.0
 10
-5.86749
 20
12.12547
 30
0.0
 10
-5.87514
 20
12.13282
 30
0.0
 10
-5.87514
 20
12.13282
 30
0.0
 10
-5.88278
 20
12.14023
 30
0.0
 10
-5.89264
 20
12.14396
 30
0.0
 10
-5.90471
 20
12.14396
 30
0.0
 10
-5.90471
 20
12.14396
 30
0.0
 10
-5.91667
 20
12.14396
 30
0.0
 10
-5.92664
 20
12.14017
 30
0.0
 10
-5.93458
 20
12.13271
 30
0.0
 10
-5.93458
 20
12.13271
 30
0.0
 10
-5.94257
 20
12.12518
 30
0.0
 10
-5.9477
 20
12.11386
 30
0.0
 10
-5.94998
 20
12.09881
 30
0.0
 10
-5.94998
 20
12.09881
 30
0.0
 10
-5.94998
 20
12.09881
 30
0.0
 10
-5.98072
 20
12.1043
 30
0.0
 10
-5.98072
 20
12.1043
 30
0.0
 10
-5.98072
 20
12.1043
 30
0.0
 10
-5.97699
 20
12.12495
 30
0.0
 10
-5.96841
 20
12.14093
 30
0.0
 10
-5.95511
 20
12.15225
 30
0.0
 10
-5.95511
 20
12.15225
 30
0.0
 10
-5.94175
 20
12.16356
 30
0.0
 10
-5.92519
 20
12.16928
 30
0.0
 10
-5.90535
 20
12.16928
 30
0.0
 10
-5.90535
 20
12.16928
 30
0.0
 10
-5.8917
 20
12.16928
 30
0.0
 10
-5.8791
 20
12.16631
 30
0.0
 10
-5.86761
 20
12.16047
 30
0.0
 10
-5.86761
 20
12.16047
 30
0.0
 10
-5.85612
 20
12.15458
 30
0.0
 10
-5.84731
 20
12.14659
 30
0.0
 10
-5.84119
 20
12.13644
 30
0.0
 10
-5.84119
 20
12.13644
 30
0.0
 10
-5.83512
 20
12.12629
 30
0.0
 10
-5.83203
 20
12.11556
 30
0.0
 10
-5.83203
 20
12.10412
 30
0.0
 10
-5.83203
 20
12.10412
 30
0.0
 10
-5.83203
 20
12.09333
 30
0.0
 10
-5.83494
 20
12.08347
 30
0.0
 10
-5.84078
 20
12.07455
 30
0.0
 10
-5.84078
 20
12.07455
 30
0.0
 10
-5.84661
 20
12.06568
 30
0.0
 10
-5.85519
 20
12.05862
 30
0.0
 10
-5.86656
 20
12.05337
 30
0.0
 10
-5.86656
 20
12.05337
 30
0.0
 10
-5.85174
 20
12.04999
 30
0.0
 10
-5.84025
 20
12.04287
 30
0.0
 10
-5.83203
 20
12.03208
 30
0.0
 10
-5.83203
 20
12.03208
 30
0.0
 10
-5.82386
 20
12.02135
 30
0.0
 10
-5.81978
 20
12.00787
 30
0.0
 10
-5.81978
 20
11.99171
 30
0.0
 10
-5.81978
 20
11.99171
 30
0.0
 10
-5.81978
 20
11.96984
 30
0.0
 10
-5.82771
 20
11.95129
 30
0.0
 10
-5.84369
 20
11.93606
 30
0.0
 10
-5.84369
 20
11.93606
 30
0.0
 10
-5.85962
 20
11.92084
 30
0.0
 10
-5.8798
 20
11.91326
 30
0.0
 10
-5.90419
 20
11.91326
 30
0.0
 10
-5.90419
 20
11.91326
 30
0.0
 10
-5.92618
 20
11.91326
 30
0.0
 10
-5.94444
 20
11.91979
 30
0.0
 10
-5.95896
 20
11.93291
 30
0.0
 10
-5.95896
 20
11.93291
 30
0.0
 10
-5.97349
 20
11.94598
 30
0.0
 10
-5.98177
 20
11.96296
 30
0.0
 10
-5.98381
 20
11.98384
 30
0.0
  0
SPLINE
  5
AB
330
1F
100
AcDbEntity
  8
0
100
AcDbSpline
210
0.0
220
0.0
230
1.0
 70
    11
 71
     3
 72
    92
 73
    88
 74
     0
 42
0.0000000001
 43
0.0000000001
 40
0.0
 40
0.0
 40
0.0
 40
0.0
 40
0.0434782608695652
 40
0.0434782608695652
 40
0.0434782608695652
 40
0.0434782608695652
 40
0.0869565217391304
 40
0.0869565217391304
 40
0.0869565217391304
 40
0.0869565217391304
 40
0.1304347826086956
 40
0.1304347826086956
 40
0.1304347826086956
 40
0.1304347826086956
 40
0.1739130434782609
 40
0.1739130434782609
 40
0.1739130434782609
 40
0.1739130434782609
 40
0.2173913043478261
 40
0.2173913043478261
 40
0.2173913043478261
 40
0.2173913043478261
 40
0.2608695652173913
 40
0.2608695652173913
 40
0.2608695652173913
 40
0.2608695652173913
 40
0.3043478260869565
 40
0.3043478260869565
 40
0.3043478260869565
 40
0.3043478260869565
 40
0.3478260869565217
 40
0.3478260869565217
 40
0.3478260869565217
 40
0.3478260869565217
 40
0.391304347826087
 40
0.391304347826087
 40
0.391304347826087
 40
0.391304347826087
 40
0.4347826086956522
 40
0.4347826086956522
 40
0.4347826086956522
 40
0.4347826086956522
 40
0.4782608695652174
 40
0.4782608695652174
 40
0.4782608695652174
 40
0.4782608695652174
 40
0.5217391304347826
 40
0.5217391304347826
 40
0.5217391304347826
 40
0.5217391304347826
 40
0.5652173913043478
 40
0.5652173913043478
 40
0.5652173913043478
 40
0.5652173913043478
 40
0.6086956521739131
 40
0.6086956521739131
 40
0.6086956521739131
 40
0.6086956521739131
 40
0.6521739130434783
 40
0.6521739130434783
 40
0.6521739130434783
 40
0.6521739130434783
 40
0.6956521739130435
 40
0.6956521739130435
 40
0.6956521739130435
 40
0.6956521739130435
 40
0.7391304347826086
 40
0.7391304347826086
 40
0.7391304347826086
 40
0.7391304347826086
 40
0.782608695652174
 40
0.782608695652174
 40
0.782608695652174
 40
0.782608695652174
 40
0.8260869565217391
 40
0.8260869565217391
 40
0.8260869565217391
 40
0.8260869565217391
 40
0.8695652173913043
 40
0.8695652173913043
 40
0.8695652173913043
 40
0.8695652173913043
 40
0.9130434782608695
 40
0.9130434782608695
 40
0.9130434782608695
 40
0.9130434782608695
 40
1.0
 40
1.0
 40
1.0
 40
1.0
 10
-5.62763
 20
11.94726
 30
0.0
 10
-5.62763
 20
11.94726
 30
0.0
 10
-5.62763
 20
11.91769
 30
0.0
 10
-5.62763
 20
11.91769
 30
0.0
 10
-5.62763
 20
11.91769
 30
0.0
 10
-5.62763
 20
11.91769
 30
0.0
 10
-5.79323
 20
11.91769
 30
0.0
 10
-5.79323
 20
11.91769
 30
0.0
 10
-5.79323
 20
11.91769
 30
0.0
 10
-5.79347
 20
11.9251
 30
0.0
 10
-5.7923
 20
11.93221
 30
0.0
 10
-5.78968
 20
11.93904
 30
0.0
 10
-5.78968
 20
11.93904
 30
0.0
 10
-5.78548
 20
11.95036
 30
0.0
 10
-5.77871
 20
11.96144
 30
0.0
 10
-5.76943
 20
11.97241
 30
0.0
 10
-5.76943
 20
11.97241
 30
0.0
 10
-5.7601
 20
11.98331
 30
0.0
 10
-5.74668
 20
11.99597
 30
0.0
 10
-5.72918
 20
12.01032
 30
0.0
 10
-5.72918
 20
12.01032
 30
0.0
 10
-5.70194
 20
12.03266
 30
0.0
 10
-5.68351
 20
12.05034
 30
0.0
 10
-5.67394
 20
12.06341
 30
0.0
 10
-5.67394
 20
12.06341
 30
0.0
 10
-5.66438
 20
12.07641
 30
0.0
 10
-5.65959
 20
12.08878
 30
0.0
 10
-5.65959
 20
12.10039
 30
0.0
 10
-5.65959
 20
12.10039
 30
0.0
 10
-5.65959
 20
12.11258
 30
0.0
 10
-5.66397
 20
12.12285
 30
0.0
 10
-5.67266
 20
12.13125
 30
0.0
 10
-5.67266
 20
12.13125
 30
0.0
 10
-5.68141
 20
12.13959
 30
0.0
 10
-5.69278
 20
12.14379
 30
0.0
 10
-5.70678
 20
12.14379
 30
0.0
 10
-5.70678
 20
12.14379
 30
0.0
 10
-5.7216
 20
12.14379
 30
0.0
 10
-5.73344
 20
12.13936
 30
0.0
 10
-5.74231
 20
12.13043
 30
0.0
 10
-5.74231
 20
12.13043
 30
0.0
 10
-5.75123
 20
12.12156
 30
0.0
 10
-5.75573
 20
12.10926
 30
0.0
 10
-5.75584
 20
12.09356
 30
0.0
 10
-5.75584
 20
12.09356
 30
0.0
 10
-5.75584
 20
12.09356
 30
0.0
 10
-5.78746
 20
12.09677
 30
0.0
 10
-5.78746
 20
12.09677
 30
0.0
 10
-5.78746
 20
12.09677
 30
0.0
 10
-5.7853
 20
12.1204
 30
0.0
 10
-5.77713
 20
12.13836
 30
0.0
 10
-5.76302
 20
12.15073
 30
0.0
 10
-5.76302
 20
12.15073
 30
0.0
 10
-5.7489
 20
12.1631
 30
0.0
 10
-5.72988
 20
12.16928
 30
0.0
 10
-5.70608
 20
12.16928
 30
0.0
 10
-5.70608
 20
12.16928
 30
0.0
 10
-5.68205
 20
12.16928
 30
0.0
 10
-5.66303
 20
12.16257
 30
0.0
 10
-5.64903
 20
12.14927
 30
0.0
 10
-5.64903
 20
12.14927
 30
0.0
 10
-5.63498
 20
12.13591
 30
0.0
 10
-5.62798
 20
12.11941
 30
0.0
 10
-5.62798
 20
12.09969
 30
0.0
 10
-5.62798
 20
12.09969
 30
0.0
 10
-5.62798
 20
12.08966
 30
0.0
 10
-5.63002
 20
12.0798
 30
0.0
 10
-5.63416
 20
12.07011
 30
0.0
 10
-5.63416
 20
12.07011
 30
0.0
 10
-5.63824
 20
12.06043
 30
0.0
 10
-5.64507
 20
12.05022
 30
0.0
 10
-5.65458
 20
12.03955
 30
0.0
 10
-5.65458
 20
12.03955
 30
0.0
 10
-5.66408
 20
12.02881
 30
0.0
 10
-5.67989
 20
12.01411
 30
0.0
 10
-5.702
 20
11.99545
 30
0.0
 10
-5.702
 20
11.99545
 30
0.0
 10
-5.72043
 20
11.97993
 30
0.0
 10
-5.73228
 20
11.96943
 30
0.0
 10
-5.73753
 20
11.96389
 30
0.0
 10
-5.73753
 20
11.96389
 30
0.0
 10
-5.74278
 20
11.95841
 30
0.0
 10
-5.74709
 20
11.95286
 30
0.0
 10
-5.75053
 20
11.94726
 30
0.0
 10
-5.75053
 20
11.94726
 30
0.0
 10
-5.75053
 20
11.94726
 30
0.0
 10
-5.62763
 20
11.94726
 30
0.0
 10
-5.62763
 20
11.94726
 30
0.0
  0
SPLINE
  5
AC
330
1F
100
AcDbEntity
  8
0
100
AcDbSpline
210
0.0
220
0.0
230
1.0
 70
    27
 71
     3
 72
    12
 73
     8
 74
     0
 42
0.0000000001
 43
0.0000000001
 40
0.0
 40
0.0
 40
0.0
 40
0.0
 40
0.3333333333333333
 40
0.3333333333333333
 40
0.3333333333333333
 40
0.3333333333333333
 40
1.0
 40
1.0
 40
1.0
 40
1.0
 10
-8.7663
 20
1.66596
 30
0.0
 10
-8.7663
 20
1.66596
 30
0.0
 10
-8.4361
 20
1.71676
 30
0.0
 10
-8.4361
 20
1.71676
 30
0.0
 10
-8.4361
 20
1.71676
 30
0.0
 10
-8.4361
 20
1.71676
 30
0.0
 10
-8.7663
 20
1.66596
 30
0.0
 10
-8.7663
 20
1.66596
 30
0.0
  0
SPLINE
  5
AD
330
1F
100
AcDbEntity
  8
0
100
AcDbSpline
210
0.0
220
0.0
230
1.0
 70
     8
 71
     3
 72
    12
 73
     8
 74
     0
 42
0.0000000001
 43
0.0000000001
 40
0.0
 40
0.0
 40
0.0
 40
0.0
 40
0.3333333333333333
 40
0.3333333333333333
 40
0.3333333333333333
 40
0.3333333333333333
 40
1.0
 40
1.0
 40
1.0
 40
1.0
 10
-8.4361
 20
1.71676
 30
0.0
 10
-8.4361
 20
1.71676
 30
0.0
 10
-8.4361
 20
1.61516
 30
0.0
 10
-8.4361
 20
1.61516
 30
0.0
 10
-8.4361
 20
1.61516
 30
0.0
 10
-8.4361
 20
1.61516
 30
0.0
 10
-8.7663
 20
1.66596
 30
0.0
 10
-8.7663
 20
1.66596
 30
0.0
  0
SPLINE
  5
AE
330
1F
100
AcDbEntity
  8
0
370
     9
100
AcDbSpline
210
0.0
220
0.0
230
1.0
 70
    24
 71
     3
 72
     8
 73
     4
 74
     0
 42
0.0000000001
 43
0.0000000001
 40
0.0
 40
0.0
 40
0.0
 40
0.0
 40
1.0
 40
1.0
 40
1.0
 40
1.0
 10
-8.7663
 20
1.66596
 30
0.0
 10
-8.7663
 20
1.66596
 30
0.0
 10
-8.4361
 20
1.71676
 30
0.0
 10
-8.4361
 20
1.71676
 30
0.0
  0
SPLINE
  5
AF
330
1F
100
AcDbEntity
  8
0
370
     9
100
AcDbSpline
210
0.0
220
0.0
230
1.0
 70
     8
 71
     3
 72
    12
 73
     8
 74
     0
 42
0.0000000001
 43
0.0000000001
 40
0.0
 40
0.0
 40
0.0
 40
0.0
 40
0.3333333333333333
 40
0.3333333333333333
 40
0.3333333333333333
 40
0.3333333333333333
 40
1.0
 40
1.0
 40
1.0
 40
1.0
 10
-8.4361
 20
1.71676
 30
0.0
 10
-8.4361
 20
1.71676
 30
0.0
 10
-8.4361
 20
1.61516
 30
0.0
 10
-8.4361
 20
1.61516
 30
0.0
 10
-8.4361
 20
1.61516
 30
0.0
 10
-8.4361
 20
1.61516
 30
0.0
 10
-8.7663
 20
1.66596
 30
0.0
 10
-8.7663
 20
1.66596
 30
0.0
  0
SPLINE
  5
B0
330
1F
100
AcDbEntity
  8
0
100
AcDbSpline
210
0.0
220
0.0
230
1.0
 70
    27
 71
     3
 72
    12
 73
     8
 74
     0
 42
0.0000000001
 43
0.0000000001
 40
0.0
 40
0.0
 40
0.0
 40
0.0
 40
0.3333333333333333
 40
0.3333333333333333
 40
0.3333333333333333
 40
0.3333333333333333
 40
1.0
 40
1.0
 40
1.0
 40
1.0
 10
-2.70028
 20
1.66596
 30
0.0
 10
-2.70028
 20
1.66596
 30
0.0
 10
-3.03048
 20
1.61516
 30
0.0
 10
-3.03048
 20
1.61516
 30
0.0
 10
-3.03048
 20
1.61516
 30
0.0
 10
-3.03048
 20
1.61516
 30
0.0
 10
-2.70028
 20
1.66596
 30
0.0
 10
-2.70028
 20
1.66596
 30
0.0
  0
SPLINE
  5
B1
330
1F
100
AcDbEntity
  8
0
100
AcDbSpline
210
0.0
220
0.0
230
1.0
 70
     8
 71
     3
 72
    12
 73
     8
 74
     0
 42
0.0000000001
 43
0.0000000001
 40
0.0
 40
0.0
 40
0.0
 40
0.0
 40
0.3333333333333333
 40
0.3333333333333333
 40
0.3333333333333333
 40
0.3333333333333333
 40
1.0
 40
1.0
 40
1.0
 40
1.0
 10
-3.03048
 20
1.61516
 30
0.0
 10
-3.03048
 20
1.61516
 30
0.0
 10
-3.03048
 20
1.71676
 30
0.0
 10
-3.03048
 20
1.71676
 30
0.0
 10
-3.03048
 20
1.71676
 30
0.0
 10
-3.03048
 20
1.71676
 30
0.0
 10
-2.70028
 20
1.66596
 30
0.0
 10
-2.70028
 20
1.66596
 30
0.0
  0
SPLINE
  5
B2
330
1F
100
AcDbEntity
  8
0
370
     9
100
AcDbSpline
210
0.0
220
0.0
230
1.0
 70
    24
 71
     3
 72
     8
 73
     4
 74
     0
 42
0.0000000001
 43
0.0000000001
 40
0.0
 40
0.0
 40
0.0
 40
0.0
 40
1.0
 40
1.0
 40
1.0
 40
1.0
 10
-2.70028
 20
1.66596
 30
0.0
 10
-2.70028
 20
1.66596
 30
0.0
 10
-3.03048
 20
1.61516
 30
0.0
 10
-3.03048
 20
1.61516
 30
0.0
  0
SPLINE
  5
B3
330
1F
100
AcDbEntity
  8
0
370
     9
100
AcDbSpline
210
0.0
220
0.0
230
1.0
 70
     8
 71
     3
 72
    12
 73
     8
 74
     0
 42
0.0000000001
 43
0.0000000001
 40
0.0
 40
0.0
 40
0.0
 40
0.0
 40
0.3333333333333333
 40
0.3333333333333333
 40
0.3333333333333333
 40
0.3333333333333333
 40
1.0
 40
1.0
 40
1.0
 40
1.0
 10
-3.03048
 20
1.61516
 30
0.0
 10
-3.03048
 20
1.61516
 30
0.0
 10
-3.03048
 20
1.71676
 30
0.0
 10
-3.03048
 20
1.71676
 30
0.0
 10
-3.03048
 20
1.71676
 30
0.0
 10
-3.03048
 20
1.71676
 30
0.0
 10
-2.70028
 20
1.66596
 30
0.0
 10
-2.70028
 20
1.66596
 30
0.0
  0
SPLINE
  5
B4
330
1F
100
AcDbEntity
  8
0
370
     9
100
AcDbSpline
210
0.0
220
0.0
230
1.0
 70
    24
 71
     3
 72
     8
 73
     4
 74
     0
 42
0.0000000001
 43
0.0000000001
 40
0.0
 40
0.0
 40
0.0
 40
0.0
 40
1.0
 40
1.0
 40
1.0
 40
1.0
 10
-8.7663
 20
7.52109
 30
0.0
 10
-8.7663
 20
7.52109
 30
0.0
 10
-8.7663
 20
1.56596
 30
0.0
 10
-8.7663
 20
1.56596
 30
0.0
  0
SPLINE
  5
B5
330
1F
100
AcDbEntity
  8
0
370
     9
100
AcDbSpline
210
0.0
220
0.0
230
1.0
 70
    24
 71
     3
 72
     8
 73
     4
 74
     0
 42
0.0000000001
 43
0.0000000001
 40
0.0
 40
0.0
 40
0.0
 40
0.0
 40
1.0
 40
1.0
 40
1.0
 40
1.0
 10
-2.70028
 20
7.52109
 30
0.0
 10
-2.70028
 20
7.52109
 30
0.0
 10
-2.70028
 20
1.56596
 30
0.0
 10
-2.70028
 20
1.56596
 30
0.0
  0
SPLINE
  5
B6
330
1F
100
AcDbEntity
  8
0
370
     9
100
AcDbSpline
210
0.0
220
0.0
230
1.0
 70
    24
 71
     3
 72
     8
 73
     4
 74
     0
 42
0.0000000001
 43
0.0000000001
 40
0.0
 40
0.0
 40
0.0
 40
0.0
 40
1.0
 40
1.0
 40
1.0
 40
1.0
 10
-8.7663
 20
1.66596
 30
0.0
 10
-8.7663
 20
1.66596
 30
0.0
 10
-2.70028
 20
1.66596
 30
0.0
 10
-2.70028
 20
1.66596
 30
0.0
  0
SPLINE
  5
B7
330
1F
100
AcDbEntity
  8
0
100
AcDbSpline
210
0.0
220
0.0
230
1.0
 70
    11
 71
     3
 72
    64
 73
    60
 74
     0
 42
0.0000000001
 43
0.0000000001
 40
0.0
 40
0.0
 40
0.0
 40
0.0
 40
0.0625
 40
0.0625
 40
0.0625
 40
0.0625
 40
0.125
 40
0.125
 40
0.125
 40
0.125
 40
0.1875
 40
0.1875
 40
0.1875
 40
0.1875
 40
0.25
 40
0.25
 40
0.25
 40
0.25
 40
0.3125
 40
0.3125
 40
0.3125
 40
0.3125
 40
0.375
 40
0.375
 40
0.375
 40
0.375
 40
0.4375
 40
0.4375
 40
0.4375
 40
0.4375
 40
0.5
 40
0.5
 40
0.5
 40
0.5
 40
0.5625
 40
0.5625
 40
0.5625
 40
0.5625
 40
0.625
 40
0.625
 40
0.625
 40
0.625
 40
0.6875
 40
0.6875
 40
0.6875
 40
0.6875
 40
0.75
 40
0.75
 40
0.75
 40
0.75
 40
0.8125
 40
0.8125
 40
0.8125
 40
0.8125
 40
0.875
 40
0.875
 40
0.875
 40
0.875
 40
1.0
 40
1.0
 40
1.0
 40
1.0
 10
-6.78238
 20
1.80027
 30
0.0
 10
-6.78238
 20
1.80027
 30
0.0
 10
-6.78238
 20
2.05081
 30
0.0
 10
-6.78238
 20
2.05081
 30
0.0
 10
-6.78238
 20
2.05081
 30
0.0
 10
-6.78238
 20
2.05081
 30
0.0
 10
-6.73245
 20
2.05081
 30
0.0
 10
-6.73245
 20
2.05081
 30
0.0
 10
-6.73245
 20
2.05081
 30
0.0
 10
-6.73245
 20
2.05081
 30
0.0
 10
-6.67318
 20
1.87342
 30
0.0
 10
-6.67318
 20
1.87342
 30
0.0
 10
-6.67318
 20
1.87342
 30
0.0
 10
-6.6677
 20
1.85691
 30
0.0
 10
-6.66367
 20
1.84454
 30
0.0
 10
-6.66122
 20
1.83632
 30
0.0
 10
-6.66122
 20
1.83632
 30
0.0
 10
-6.65837
 20
1.84542
 30
0.0
 10
-6.65393
 20
1.85884
 30
0.0
 10
-6.64787
 20
1.87651
 30
0.0
 10
-6.64787
 20
1.87651
 30
0.0
 10
-6.64787
 20
1.87651
 30
0.0
 10
-6.5879
 20
2.05081
 30
0.0
 10
-6.5879
 20
2.05081
 30
0.0
 10
-6.5879
 20
2.05081
 30
0.0
 10
-6.5879
 20
2.05081
 30
0.0
 10
-6.54327
 20
2.05081
 30
0.0
 10
-6.54327
 20
2.05081
 30
0.0
 10
-6.54327
 20
2.05081
 30
0.0
 10
-6.54327
 20
2.05081
 30
0.0
 10
-6.54327
 20
1.80027
 30
0.0
 10
-6.54327
 20
1.80027
 30
0.0
 10
-6.54327
 20
1.80027
 30
0.0
 10
-6.54327
 20
1.80027
 30
0.0
 10
-6.57524
 20
1.80027
 30
0.0
 10
-6.57524
 20
1.80027
 30
0.0
 10
-6.57524
 20
1.80027
 30
0.0
 10
-6.57524
 20
1.80027
 30
0.0
 10
-6.57524
 20
2.00998
 30
0.0
 10
-6.57524
 20
2.00998
 30
0.0
 10
-6.57524
 20
2.00998
 30
0.0
 10
-6.57524
 20
2.00998
 30
0.0
 10
-6.64804
 20
1.80027
 30
0.0
 10
-6.64804
 20
1.80027
 30
0.0
 10
-6.64804
 20
1.80027
 30
0.0
 10
-6.64804
 20
1.80027
 30
0.0
 10
-6.67797
 20
1.80027
 30
0.0
 10
-6.67797
 20
1.80027
 30
0.0
 10
-6.67797
 20
1.80027
 30
0.0
 10
-6.67797
 20
1.80027
 30
0.0
 10
-6.75042
 20
2.01354
 30
0.0
 10
-6.75042
 20
2.01354
 30
0.0
 10
-6.75042
 20
2.01354
 30
0.0
 10
-6.75042
 20
2.01354
 30
0.0
 10
-6.75042
 20
1.80027
 30
0.0
 10
-6.75042
 20
1.80027
 30
0.0
 10
-6.75042
 20
1.80027
 30
0.0
 10
-6.75042
 20
1.80027
 30
0.0
 10
-6.78238
 20
1.80027
 30
0.0
 10
-6.78238
 20
1.80027
 30
0.0
  0
SPLINE
  5
B8
330
1F
100
AcDbEntity
  8
0
100
AcDbSpline
210
0.0
220
0.0
230
1.0
 70
    11
 71
     3
 72
   112
 73
   108
 74
     0
 42
0.0000000001
 43
0.0000000001
 40
0.0
 40
0.0
 40
0.0
 40
0.0
 40
0.0357142857142857
 40
0.0357142857142857
 40
0.0357142857142857
 40
0.0357142857142857
 40
0.0714285714285714
 40
0.0714285714285714
 40
0.0714285714285714
 40
0.0714285714285714
 40
0.1071428571428571
 40
0.1071428571428571
 40
0.1071428571428571
 40
0.1071428571428571
 40
0.1428571428571428
 40
0.1428571428571428
 40
0.1428571428571428
 40
0.1428571428571428
 40
0.1785714285714286
 40
0.1785714285714286
 40
0.1785714285714286
 40
0.1785714285714286
 40
0.2142857142857143
 40
0.2142857142857143
 40
0.2142857142857143
 40
0.2142857142857143
 40
0.25
 40
0.25
 40
0.25
 40
0.25
 40
0.2857142857142857
 40
0.2857142857142857
 40
0.2857142857142857
 40
0.2857142857142857
 40
0.3214285714285715
 40
0.3214285714285715
 40
0.3214285714285715
 40
0.3214285714285715
 40
0.3571428571428572
 40
0.3571428571428572
 40
0.3571428571428572
 40
0.3571428571428572
 40
0.3928571428571428
 40
0.3928571428571428
 40
0.3928571428571428
 40
0.3928571428571428
 40
0.4285714285714285
 40
0.4285714285714285
 40
0.4285714285714285
 40
0.4285714285714285
 40
0.4642857142857143
 40
0.4642857142857143
 40
0.4642857142857143
 40
0.4642857142857143
 40
0.5
 40
0.5
 40
0.5
 40
0.5
 40
0.5357142857142857
 40
0.5357142857142857
 40
0.5357142857142857
 40
0.5357142857142857
 40
0.5714285714285714
 40
0.5714285714285714
 40
0.5714285714285714
 40
0.5714285714285714
 40
0.6071428571428571
 40
0.6071428571428571
 40
0.6071428571428571
 40
0.6071428571428571
 40
0.6428571428571429
 40
0.6428571428571429
 40
0.6428571428571429
 40
0.6428571428571429
 40
0.6785714285714286
 40
0.6785714285714286
 40
0.6785714285714286
 40
0.6785714285714286
 40
0.7142857142857143
 40
0.7142857142857143
 40
0.7142857142857143
 40
0.7142857142857143
 40
0.75
 40
0.75
 40
0.75
 40
0.75
 40
0.7857142857142857
 40
0.7857142857142857
 40
0.7857142857142857
 40
0.7857142857142857
 40
0.8214285714285714
 40
0.8214285714285714
 40
0.8214285714285714
 40
0.8214285714285714
 40
0.8571428571428571
 40
0.8571428571428571
 40
0.8571428571428571
 40
0.8571428571428571
 40
0.8928571428571429
 40
0.8928571428571429
 40
0.8928571428571429
 40
0.8928571428571429
 40
0.9285714285714286
 40
0.9285714285714286
 40
0.9285714285714286
 40
0.9285714285714286
 40
1.0
 40
1.0
 40
1.0
 40
1.0
 10
-6.37527
 20
1.82267
 30
0.0
 10
-6.38671
 20
1.81299
 30
0.0
 10
-6.39767
 20
1.80616
 30
0.0
 10
-6.40817
 20
1.80214
 30
0.0
 10
-6.40817
 20
1.80214
 30
0.0
 10
-6.41873
 20
1.79817
 30
0.0
 10
-6.43005
 20
1.79619
 30
0.0
 10
-6.44212
 20
1.79619
 30
0.0
 10
-6.44212
 20
1.79619
 30
0.0
 10
-6.46207
 20
1.79619
 30
0.0
 10
-6.47736
 20
1.80103
 30
0.0
 10
-6.48809
 20
1.81077
 30
0.0
 10
-6.48809
 20
1.81077
 30
0.0
 10
-6.49877
 20
1.82051
 30
0.0
 10
-6.50413
 20
1.83299
 30
0.0
 10
-6.50413
 20
1.8481
 30
0.0
 10
-6.50413
 20
1.8481
 30
0.0
 10
-6.50413
 20
1.85703
 30
0.0
 10
-6.50215
 20
1.86514
 30
0.0
 10
-6.49807
 20
1.87249
 30
0.0
 10
-6.49807
 20
1.87249
 30
0.0
 10
-6.49404
 20
1.87984
 30
0.0
 10
-6.48873
 20
1.88573
 30
0.0
 10
-6.4822
 20
1.89016
 30
0.0
 10
-6.4822
 20
1.89016
 30
0.0
 10
-6.47561
 20
1.89459
 30
0.0
 10
-6.46826
 20
1.89798
 30
0.0
 10
-6.46003
 20
1.90025
 30
0.0
 10
-6.46003
 20
1.90025
 30
0.0
 10
-6.45402
 20
1.90183
 30
0.0
 10
-6.44492
 20
1.9034
 30
0.0
 10
-6.43273
 20
1.90486
 30
0.0
 10
-6.43273
 20
1.90486
 30
0.0
 10
-6.40788
 20
1.90784
 30
0.0
 10
-6.38957
 20
1.91134
 30
0.0
 10
-6.37784
 20
1.91548
 30
0.0
 10
-6.37784
 20
1.91548
 30
0.0
 10
-6.37772
 20
1.91968
 30
0.0
 10
-6.37767
 20
1.92236
 30
0.0
 10
-6.37767
 20
1.92347
 30
0.0
 10
-6.37767
 20
1.92347
 30
0.0
 10
-6.37767
 20
1.93601
 30
0.0
 10
-6.38058
 20
1.94488
 30
0.0
 10
-6.38642
 20
1.94995
 30
0.0
 10
-6.38642
 20
1.94995
 30
0.0
 10
-6.39423
 20
1.95695
 30
0.0
 10
-6.40596
 20
1.96039
 30
0.0
 10
-6.42142
 20
1.96039
 30
0.0
 10
-6.42142
 20
1.96039
 30
0.0
 10
-6.43588
 20
1.96039
 30
0.0
 10
-6.44656
 20
1.95789
 30
0.0
 10
-6.4535
 20
1.95281
 30
0.0
 10
-6.4535
 20
1.95281
 30
0.0
 10
-6.46038
 20
1.94774
 30
0.0
 10
-6.46546
 20
1.93875
 30
0.0
 10
-6.46878
 20
1.92586
 30
0.0
 10
-6.46878
 20
1.92586
 30
0.0
 10
-6.46878
 20
1.92586
 30
0.0
 10
-6.49882
 20
1.93
 30
0.0
 10
-6.49882
 20
1.93
 30
0.0
 10
-6.49882
 20
1.93
 30
0.0
 10
-6.49608
 20
1.94284
 30
0.0
 10
-6.49159
 20
1.95328
 30
0.0
 10
-6.48535
 20
1.96115
 30
0.0
 10
-6.48535
 20
1.96115
 30
0.0
 10
-6.47911
 20
1.96909
 30
0.0
 10
-6.47001
 20
1.97521
 30
0.0
 10
-6.45817
 20
1.97947
 30
0.0
 10
-6.45817
 20
1.97947
 30
0.0
 10
-6.44632
 20
1.98373
 30
0.0
 10
-6.43262
 20
1.98589
 30
0.0
 10
-6.41698
 20
1.98589
 30
0.0
 10
-6.41698
 20
1.98589
 30
0.0
 10
-6.40147
 20
1.98589
 30
0.0
 10
-6.38892
 20
1.98402
 30
0.0
 10
-6.37924
 20
1.9804
 30
0.0
 10
-6.37924
 20
1.9804
 30
0.0
 10
-6.36956
 20
1.97673
 30
0.0
 10
-6.36244
 20
1.97218
 30
0.0
 10
-6.35783
 20
1.96664
 30
0.0
 10
-6.35783
 20
1.96664
 30
0.0
 10
-6.35328
 20
1.96109
 30
0.0
 10
-6.35013
 20
1.95415
 30
0.0
 10
-6.34827
 20
1.94569
 30
0.0
 10
-6.34827
 20
1.94569
 30
0.0
 10
-6.34727
 20
1.94044
 30
0.0
 10
-6.34675
 20
1.93099
 30
0.0
 10
-6.34675
 20
1.91734
 30
0.0
 10
-6.34675
 20
1.91734
 30
0.0
 10
-6.34675
 20
1.91734
 30
0.0
 10
-6.34675
 20
1.87634
 30
0.0
 10
-6.34675
 20
1.87634
 30
0.0
 10
-6.34675
 20
1.87634
 30
0.0
 10
-6.34675
 20
1.84769
 30
0.0
 10
-6.34611
 20
1.82961
 30
0.0
 10
-6.34477
 20
1.82209
 30
0.0
 10
-6.34477
 20
1.82209
 30
0.0
 10
-6.34348
 20
1.8145
 30
0.0
 10
-6.34086
 20
1.80721
 30
0.0
 10
-6.33701
 20
1.80027
 30
0.0
 10
-6.33701
 20
1.80027
 30
0.0
 10
-6.33701
 20
1.80027
 30
0.0
 10
-6.36915
 20
1.80027
 30
0.0
 10
-6.36915
 20
1.80027
 30
0.0
 10
-6.36915
 20
1.80027
 30
0.0
 10
-6.3723
 20
1.80663
 30
0.0
 10
-6.3744
 20
1.81409
 30
0.0
 10
-6.37527
 20
1.82267
 30
0.0
  0
SPLINE
  5
B9
330
1F
100
AcDbEntity
  8
0
100
AcDbSpline
210
0.0
220
0.0
230
1.0
 70
    11
 71
     3
 72
    44
 73
    40
 74
     0
 42
0.0000000001
 43
0.0000000001
 40
0.0
 40
0.0
 40
0.0
 40
0.0
 40
0.0909090909090909
 40
0.0909090909090909
 40
0.0909090909090909
 40
0.0909090909090909
 40
0.1818181818181818
 40
0.1818181818181818
 40
0.1818181818181818
 40
0.1818181818181818
 40
0.2727272727272727
 40
0.2727272727272727
 40
0.2727272727272727
 40
0.2727272727272727
 40
0.3636363636363636
 40
0.3636363636363636
 40
0.3636363636363636
 40
0.3636363636363636
 40
0.4545454545454545
 40
0.4545454545454545
 40
0.4545454545454545
 40
0.4545454545454545
 40
0.5454545454545454
 40
0.5454545454545454
 40
0.5454545454545454
 40
0.5454545454545454
 40
0.6363636363636364
 40
0.6363636363636364
 40
0.6363636363636364
 40
0.6363636363636364
 40
0.7272727272727273
 40
0.7272727272727273
 40
0.7272727272727273
 40
0.7272727272727273
 40
0.8181818181818182
 40
0.8181818181818182
 40
0.8181818181818182
 40
0.8181818181818182
 40
1.0
 40
1.0
 40
1.0
 40
1.0
 10
-6.37784
 20
1.89139
 30
0.0
 10
-6.38904
 20
1.88678
 30
0.0
 10
-6.40578
 20
1.88293
 30
0.0
 10
-6.42807
 20
1.87972
 30
0.0
 10
-6.42807
 20
1.87972
 30
0.0
 10
-6.44072
 20
1.87791
 30
0.0
 10
-6.44971
 20
1.87587
 30
0.0
 10
-6.4549
 20
1.87359
 30
0.0
 10
-6.4549
 20
1.87359
 30
0.0
 10
-6.46015
 20
1.87132
 30
0.0
 10
-6.46423
 20
1.86799
 30
0.0
 10
-6.46703
 20
1.86356
 30
0.0
 10
-6.46703
 20
1.86356
 30
0.0
 10
-6.46989
 20
1.85919
 30
0.0
 10
-6.47135
 20
1.85434
 30
0.0
 10
-6.47135
 20
1.84898
 30
0.0
 10
-6.47135
 20
1.84898
 30
0.0
 10
-6.47135
 20
1.84075
 30
0.0
 10
-6.4682
 20
1.83393
 30
0.0
 10
-6.46202
 20
1.82844
 30
0.0
 10
-6.46202
 20
1.82844
 30
0.0
 10
-6.45583
 20
1.82302
 30
0.0
 10
-6.44673
 20
1.82028
 30
0.0
 10
-6.43477
 20
1.82028
 30
0.0
 10
-6.43477
 20
1.82028
 30
0.0
 10
-6.42293
 20
1.82028
 30
0.0
 10
-6.41237
 20
1.82284
 30
0.0
 10
-6.40316
 20
1.82804
 30
0.0
 10
-6.40316
 20
1.82804
 30
0.0
 10
-6.39394
 20
1.83323
 30
0.0
 10
-6.38712
 20
1.84034
 30
0.0
 10
-6.3828
 20
1.84933
 30
0.0
 10
-6.3828
 20
1.84933
 30
0.0
 10
-6.37947
 20
1.85627
 30
0.0
 10
-6.37784
 20
1.86654
 30
0.0
 10
-6.37784
 20
1.88007
 30
0.0
 10
-6.37784
 20
1.88007
 30
0.0
 10
-6.37784
 20
1.88007
 30
0.0
 10
-6.37784
 20
1.89139
 30
0.0
 10
-6.37784
 20
1.89139
 30
0.0
  0
SPLINE
  5
BA
330
1F
100
AcDbEntity
  8
0
100
AcDbSpline
210
0.0
220
0.0
230
1.0
 70
    11
 71
     3
 72
    64
 73
    60
 74
     0
 42
0.0000000001
 43
0.0000000001
 40
0.0
 40
0.0
 40
0.0
 40
0.0
 40
0.0625
 40
0.0625
 40
0.0625
 40
0.0625
 40
0.125
 40
0.125
 40
0.125
 40
0.125
 40
0.1875
 40
0.1875
 40
0.1875
 40
0.1875
 40
0.25
 40
0.25
 40
0.25
 40
0.25
 40
0.3125
 40
0.3125
 40
0.3125
 40
0.3125
 40
0.375
 40
0.375
 40
0.375
 40
0.375
 40
0.4375
 40
0.4375
 40
0.4375
 40
0.4375
 40
0.5
 40
0.5
 40
0.5
 40
0.5
 40
0.5625
 40
0.5625
 40
0.5625
 40
0.5625
 40
0.625
 40
0.625
 40
0.625
 40
0.625
 40
0.6875
 40
0.6875
 40
0.6875
 40
0.6875
 40
0.75
 40
0.75
 40
0.75
 40
0.75
 40
0.8125
 40
0.8125
 40
0.8125
 40
0.8125
 40
0.875
 40
0.875
 40
0.875
 40
0.875
 40
1.0
 40
1.0
 40
1.0
 40
1.0
 10
-6.31956
 20
1.80027
 30
0.0
 10
-6.31956
 20
1.80027
 30
0.0
 10
-6.25324
 20
1.89459
 30
0.0
 10
-6.25324
 20
1.89459
 30
0.0
 10
-6.25324
 20
1.89459
 30
0.0
 10
-6.25324
 20
1.89459
 30
0.0
 10
-6.31461
 20
1.98174
 30
0.0
 10
-6.31461
 20
1.98174
 30
0.0
 10
-6.31461
 20
1.98174
 30
0.0
 10
-6.31461
 20
1.98174
 30
0.0
 10
-6.27616
 20
1.98174
 30
0.0
 10
-6.27616
 20
1.98174
 30
0.0
 10
-6.27616
 20
1.98174
 30
0.0
 10
-6.27616
 20
1.98174
 30
0.0
 10
-6.24828
 20
1.93922
 30
0.0
 10
-6.24828
 20
1.93922
 30
0.0
 10
-6.24828
 20
1.93922
 30
0.0
 10
-6.24309
 20
1.93111
 30
0.0
 10
-6.23883
 20
1.92434
 30
0.0
 10
-6.23568
 20
1.91886
 30
0.0
 10
-6.23568
 20
1.91886
 30
0.0
 10
-6.23066
 20
1.92639
 30
0.0
 10
-6.22606
 20
1.93304
 30
0.0
 10
-6.2218
 20
1.93887
 30
0.0
 10
-6.2218
 20
1.93887
 30
0.0
 10
-6.2218
 20
1.93887
 30
0.0
 10
-6.19123
 20
1.98174
 30
0.0
 10
-6.19123
 20
1.98174
 30
0.0
 10
-6.19123
 20
1.98174
 30
0.0
 10
-6.19123
 20
1.98174
 30
0.0
 10
-6.15448
 20
1.98174
 30
0.0
 10
-6.15448
 20
1.98174
 30
0.0
 10
-6.15448
 20
1.98174
 30
0.0
 10
-6.15448
 20
1.98174
 30
0.0
 10
-6.21719
 20
1.89629
 30
0.0
 10
-6.21719
 20
1.89629
 30
0.0
 10
-6.21719
 20
1.89629
 30
0.0
 10
-6.21719
 20
1.89629
 30
0.0
 10
-6.1497
 20
1.80027
 30
0.0
 10
-6.1497
 20
1.80027
 30
0.0
 10
-6.1497
 20
1.80027
 30
0.0
 10
-6.1497
 20
1.80027
 30
0.0
 10
-6.18744
 20
1.80027
 30
0.0
 10
-6.18744
 20
1.80027
 30
0.0
 10
-6.18744
 20
1.80027
 30
0.0
 10
-6.18744
 20
1.80027
 30
0.0
 10
-6.22471
 20
1.85668
 30
0.0
 10
-6.22471
 20
1.85668
 30
0.0
 10
-6.22471
 20
1.85668
 30
0.0
 10
-6.22471
 20
1.85668
 30
0.0
 10
-6.23463
 20
1.8719
 30
0.0
 10
-6.23463
 20
1.8719
 30
0.0
 10
-6.23463
 20
1.8719
 30
0.0
 10
-6.23463
 20
1.8719
 30
0.0
 10
-6.28229
 20
1.80027
 30
0.0
 10
-6.28229
 20
1.80027
 30
0.0
 10
-6.28229
 20
1.80027
 30
0.0
 10
-6.28229
 20
1.80027
 30
0.0
 10
-6.31956
 20
1.80027
 30
0.0
 10
-6.31956
 20
1.80027
 30
0.0
  0
SPLINE
  5
BB
330
1F
100
AcDbEntity
  8
0
100
AcDbSpline
210
0.0
220
0.0
230
1.0
 70
    11
 71
     3
 72
    20
 73
    16
 74
     0
 42
0.0000000001
 43
0.0000000001
 40
0.0
 40
0.0
 40
0.0
 40
0.0
 40
0.2
 40
0.2
 40
0.2
 40
0.2
 40
0.4
 40
0.4
 40
0.4
 40
0.4
 40
0.6
 40
0.6
 40
0.6
 40
0.6
 40
1.0
 40
1.0
 40
1.0
 40
1.0
 10
-6.11534
 20
1.80027
 30
0.0
 10
-6.11534
 20
1.80027
 30
0.0
 10
-6.11534
 20
1.83533
 30
0.0
 10
-6.11534
 20
1.83533
 30
0.0
 10
-6.11534
 20
1.83533
 30
0.0
 10
-6.11534
 20
1.83533
 30
0.0
 10
-6.08028
 20
1.83533
 30
0.0
 10
-6.08028
 20
1.83533
 30
0.0
 10
-6.08028
 20
1.83533
 30
0.0
 10
-6.08028
 20
1.83533
 30
0.0
 10
-6.08028
 20
1.80027
 30
0.0
 10
-6.08028
 20
1.80027
 30
0.0
 10
-6.08028
 20
1.80027
 30
0.0
 10
-6.08028
 20
1.80027
 30
0.0
 10
-6.11534
 20
1.80027
 30
0.0
 10
-6.11534
 20
1.80027
 30
0.0
  0
SPLINE
  5
BC
330
1F
100
AcDbEntity
  8
0
370
    15
100
AcDbSpline
210
0.0
220
0.0
230
1.0
 70
    24
 71
     3
 72
     8
 73
     4
 74
     0
 42
0.0000000001
 43
0.0000000001
 40
0.0
 40
0.0
 40
0.0
 40
0.0
 40
1.0
 40
1.0
 40
1.0
 40
1.0
 10
1.71934
 20
8.42113
 30
0.0
 10
1.71934
 20
8.42113
 30
0.0
 10
1.71934
 20
10.01593
 30
0.0
 10
1.71934
 20
10.01593
 30
0.0
  0
SPLINE
  5
BD
330
1F
100
AcDbEntity
  8
0
370
    15
100
AcDbSpline
210
0.0
220
0.0
230
1.0
 70
     8
 71
     3
 72
     8
 73
     4
 74
     0
 42
0.0000000001
 43
0.0000000001
 40
0.0
 40
0.0
 40
0.0
 40
0.0
 40
1.0
 40
1.0
 40
1.0
 40
1.0
 10
3.79406
 20
7.24447
 30
0.0
 10
3.48113
 20
7.07447
 30
0.0
 10
3.2757
 20
6.75744
 30
0.0
 10
3.24839
 20
6.40236
 30
0.0
  0
SPLINE
  5
BE
330
1F
100
AcDbEntity
  8
0
370
    15
100
AcDbSpline
210
0.0
220
0.0
230
1.0
 70
     8
 71
     3
 72
    20
 73
    16
 74
     0
 42
0.0000000001
 43
0.0000000001
 40
0.0
 40
0.0
 40
0.0
 40
0.0
 40
0.2
 40
0.2
 40
0.2
 40
0.2
 40
0.4
 40
0.4
 40
0.4
 40
0.4
 40
0.6
 40
0.6
 40
0.6
 40
0.6
 40
1.0
 40
1.0
 40
1.0
 40
1.0
 10
3.24839
 20
6.40236
 30
0.0
 10
3.21527
 20
5.97184
 30
0.0
 10
3.4491
 20
5.56494
 30
0.0
 10
3.83774
 20
5.37677
 30
0.0
 10
3.83774
 20
5.37677
 30
0.0
 10
4.22638
 20
5.18861
 30
0.0
 10
4.69059
 20
5.25755
 30
0.0
 10
5.00777
 20
5.55054
 30
0.0
 10
5.00777
 20
5.55054
 30
0.0
 10
5.32495
 20
5.84353
 30
0.0
 10
5.43042
 20
6.30083
 30
0.0
 10
5.27361
 20
6.70314
 30
0.0
 10
5.27361
 20
6.70314
 30
0.0
 10
5.1168
 20
7.10546
 30
0.0
 10
4.72968
 20
7.37076
 30
0.0
 10
4.29789
 20
7.37183
 30
0.0
  0
SPLINE
  5
BF
330
1F
100
AcDbEntity
  8
0
370
    15
100
AcDbSpline
210
0.0
220
0.0
230
1.0
 70
     8
 71
     3
 72
     8
 73
     4
 74
     0
 42
0.0000000001
 43
0.0000000001
 40
0.0
 40
0.0
 40
0.0
 40
0.0
 40
1.0
 40
1.0
 40
1.0
 40
1.0
 10
3.75655
 20
7.30944
 30
0.0
 10
3.42219
 20
7.12705
 30
0.0
 10
3.20282
 20
6.78787
 30
0.0
 10
3.17361
 20
6.40812
 30
0.0
  0
SPLINE
  5
C0
330
1F
100
AcDbEntity
  8
0
370
    15
100
AcDbSpline
210
0.0
220
0.0
230
1.0
 70
     8
 71
     3
 72
    20
 73
    16
 74
     0
 42
0.0000000001
 43
0.0000000001
 40
0.0
 40
0.0
 40
0.0
 40
0.0
 40
0.2
 40
0.2
 40
0.2
 40
0.2
 40
0.4
 40
0.4
 40
0.4
 40
0.4
 40
0.6
 40
0.6
 40
0.6
 40
0.6
 40
1.0
 40
1.0
 40
1.0
 40
1.0
 10
3.17361
 20
6.40812
 30
0.0
 10
3.13783
 20
5.94292
 30
0.0
 10
3.3929
 20
5.50391
 30
0.0
 10
3.81477
 20
5.30462
 30
0.0
 10
3.81477
 20
5.30462
 30
0.0
 10
4.23664
 20
5.10533
 30
0.0
 10
4.73774
 20
5.18712
 30
0.0
 10
5.07434
 20
5.51022
 30
0.0
 10
5.07434
 20
5.51022
 30
0.0
 10
5.41094
 20
5.83331
 30
0.0
 10
5.51318
 20
6.33064
 30
0.0
 10
5.33133
 20
6.76031
 30
0.0
 10
5.33133
 20
6.76031
 30
0.0
 10
5.14947
 20
7.18999
 30
0.0
 10
4.72128
 20
7.46282
 30
0.0
 10
4.255
 20
7.44611
 30
0.0
  0
SPLINE
  5
C1
330
1F
100
AcDbEntity
  8
0
370
    15
100
AcDbSpline
210
0.0
220
0.0
230
1.0
 70
     8
 71
     3
 72
     8
 73
     4
 74
     0
 42
0.0000000001
 43
0.0000000001
 40
0.0
 40
0.0
 40
0.0
 40
0.0
 40
1.0
 40
1.0
 40
1.0
 40
1.0
 10
2.75645
 20
9.04168
 30
0.0
 10
1.85058
 20
8.52915
 30
0.0
 10
1.25933
 20
7.59925
 30
0.0
 10
1.1795
 20
6.56151
 30
0.0
  0
SPLINE
  5
C2
330
1F
100
AcDbEntity
  8
0
370
    15
100
AcDbSpline
210
0.0
220
0.0
230
1.0
 70
     8
 71
     3
 72
    20
 73
    16
 74
     0
 42
0.0000000001
 43
0.0000000001
 40
0.0
 40
0.0
 40
0.0
 40
0.0
 40
0.2
 40
0.2
 40
0.2
 40
0.2
 40
0.4
 40
0.4
 40
0.4
 40
0.4
 40
0.6
 40
0.6
 40
0.6
 40
0.6
 40
1.0
 40
1.0
 40
1.0
 40
1.0
 10
1.1795
 20
6.56151
 30
0.0
 10
1.07308
 20
5.17809
 30
0.0
 10
1.89159
 20
3.89017
 30
0.0
 10
3.18929
 20
3.3991
 30
0.0
 10
3.18929
 20
3.3991
 30
0.0
 10
4.48699
 20
2.90803
 30
0.0
 10
5.95308
 20
3.33142
 30
0.0
 10
6.78919
 20
4.43871
 30
0.0
 10
6.78919
 20
4.43871
 30
0.0
 10
7.6253
 20
5.54601
 30
0.0
 10
7.63117
 20
7.072
 30
0.0
 10
6.80361
 20
8.1857
 30
0.0
 10
6.80361
 20
8.1857
 30
0.0
 10
5.97605
 20
9.29939
 30
0.0
 10
4.51325
 20
9.73406
 30
0.0
 10
3.21181
 20
9.25299
 30
0.0
  0
SPLINE
  5
C3
330
1F
100
AcDbEntity
  8
0
370
    15
100
AcDbSpline
210
0.0
220
0.0
230
1.0
 70
     8
 71
     3
 72
     8
 73
     4
 74
     0
 42
0.0000000001
 43
0.0000000001
 40
0.0
 40
0.0
 40
0.0
 40
0.0
 40
1.0
 40
1.0
 40
1.0
 40
1.0
 10
7.41109
 20
6.08215
 30
0.0
 10
7.43469
 20
4.93552
 30
0.0
 10
7.55374
 20
3.79284
 30
0.0
 10
7.76698
 20
2.66596
 30
0.0
  0
SPLINE
  5
C4
330
1F
100
AcDbEntity
  8
0
370
    15
100
AcDbSpline
210
0.0
220
0.0
230
1.0
 70
     8
 71
     3
 72
    20
 73
    16
 74
     0
 42
0.0000000001
 43
0.0000000001
 40
0.0
 40
0.0
 40
0.0
 40
0.0
 40
0.2
 40
0.2
 40
0.2
 40
0.2
 40
0.4
 40
0.4
 40
0.4
 40
0.4
 40
0.6
 40
0.6
 40
0.6
 40
0.6
 40
1.0
 40
1.0
 40
1.0
 40
1.0
 10
2.69156
 20
10.15407
 30
0.0
 10
2.74009
 20
10.30178
 30
0.0
 10
2.69244
 20
10.46412
 30
0.0
 10
2.57177
 20
10.56217
 30
0.0
 10
2.57177
 20
10.56217
 30
0.0
 10
2.45111
 20
10.66021
 30
0.0
 10
2.28245
 20
10.67363
 30
0.0
 10
2.1478
 20
10.59589
 30
0.0
 10
2.1478
 20
10.59589
 30
0.0
 10
2.01315
 20
10.51815
 30
0.0
 10
1.94044
 20
10.36538
 30
0.0
 10
1.96501
 20
10.21185
 30
0.0
 10
1.96501
 20
10.21185
 30
0.0
 10
1.98959
 20
10.05833
 30
0.0
 10
2.10635
 20
9.93589
 30
0.0
 10
2.25854
 20
9.90407
 30
0.0
  0
SPLINE
  5
C5
330
1F
100
AcDbEntity
  8
0
370
    15
100
AcDbSpline
210
0.0
220
0.0
230
1.0
 70
     8
 71
     3
 72
    28
 73
    24
 74
     0
 42
0.0000000001
 43
0.0000000001
 40
0.0
 40
0.0
 40
0.0
 40
0.0
 40
0.1428571428571428
 40
0.1428571428571428
 40
0.1428571428571428
 40
0.1428571428571428
 40
0.2857142857142857
 40
0.2857142857142857
 40
0.2857142857142857
 40
0.2857142857142857
 40
0.4285714285714285
 40
0.4285714285714285
 40
0.4285714285714285
 40
0.4285714285714285
 40
0.5714285714285714
 40
0.5714285714285714
 40
0.5714285714285714
 40
0.5714285714285714
 40
0.7142857142857143
 40
0.7142857142857143
 40
0.7142857142857143
 40
0.7142857142857143
 40
1.0
 40
1.0
 40
1.0
 40
1.0
 10
2.69156
 20
10.15407
 30
0.0
 10
2.68629
 20
10.15601
 30
0.0
 10
2.68102
 20
10.15794
 30
0.0
 10
2.67574
 20
10.15987
 30
0.0
 10
2.67574
 20
10.15987
 30
0.0
 10
2.64938
 20
10.16949
 30
0.0
 10
2.62247
 20
10.17889
 30
0.0
 10
2.5952
 20
10.18814
 30
0.0
 10
2.5952
 20
10.18814
 30
0.0
 10
2.56773
 20
10.19747
 30
0.0
 10
2.53989
 20
10.20664
 30
0.0
 10
2.5118
 20
10.21572
 30
0.0
 10
2.5118
 20
10.21572
 30
0.0
 10
2.48308
 20
10.22499
 30
0.0
 10
2.4541
 20
10.23415
 30
0.0
 10
2.42498
 20
10.24327
 30
0.0
 10
2.42498
 20
10.24327
 30
0.0
 10
2.39564
 20
10.25245
 30
0.0
 10
2.36617
 20
10.26157
 30
0.0
 10
2.3367
 20
10.27069
 30
0.0
 10
2.3367
 20
10.27069
 30
0.0
 10
2.33623
 20
10.27084
 30
0.0
 10
2.33577
 20
10.27098
 30
0.0
 10
2.3353
 20
10.27113
 30
0.0
  0
SPLINE
  5
C6
330
1F
100
AcDbEntity
  8
0
370
    15
100
AcDbSpline
210
0.0
220
0.0
230
1.0
 70
     8
 71
     3
 72
    28
 73
    24
 74
     0
 42
0.0000000001
 43
0.0000000001
 40
0.0
 40
0.0
 40
0.0
 40
0.0
 40
0.1428571428571428
 40
0.1428571428571428
 40
0.1428571428571428
 40
0.1428571428571428
 40
0.2857142857142857
 40
0.2857142857142857
 40
0.2857142857142857
 40
0.2857142857142857
 40
0.4285714285714285
 40
0.4285714285714285
 40
0.4285714285714285
 40
0.4285714285714285
 40
0.5714285714285714
 40
0.5714285714285714
 40
0.5714285714285714
 40
0.5714285714285714
 40
0.7142857142857143
 40
0.7142857142857143
 40
0.7142857142857143
 40
0.7142857142857143
 40
1.0
 40
1.0
 40
1.0
 40
1.0
 10
2.3353
 20
10.27113
 30
0.0
 10
2.33519
 20
10.27065
 30
0.0
 10
2.33508
 20
10.27017
 30
0.0
 10
2.33497
 20
10.26969
 30
0.0
 10
2.33497
 20
10.26969
 30
0.0
 10
2.32838
 20
10.24068
 30
0.0
 10
2.32179
 20
10.21166
 30
0.0
 10
2.3153
 20
10.18271
 30
0.0
 10
2.3153
 20
10.18271
 30
0.0
 10
2.30877
 20
10.15357
 30
0.0
 10
2.30234
 20
10.12452
 30
0.0
 10
2.29612
 20
10.09563
 30
0.0
 10
2.29612
 20
10.09563
 30
0.0
 10
2.28977
 20
10.06612
 30
0.0
 10
2.28365
 20
10.03678
 30
0.0
 10
2.27784
 20
10.00769
 30
0.0
 10
2.27784
 20
10.00769
 30
0.0
 10
2.27199
 20
9.97838
 30
0.0
 10
2.26646
 20
9.94932
 30
0.0
 10
2.26143
 20
9.92067
 30
0.0
 10
2.26143
 20
9.92067
 30
0.0
 10
2.26045
 20
9.91513
 30
0.0
 10
2.2595
 20
9.9096
 30
0.0
 10
2.25854
 20
9.90407
 30
0.0
  0
SPLINE
  5
C7
330
1F
100
AcDbEntity
  8
0
370
    15
100
AcDbSpline
210
0.0
220
0.0
230
1.0
 70
    24
 71
     3
 72
     8
 73
     4
 74
     0
 42
0.0000000001
 43
0.0000000001
 40
0.0
 40
0.0
 40
0.0
 40
0.0
 40
1.0
 40
1.0
 40
1.0
 40
1.0
 10
4.0818
 20
7.74609
 30
0.0
 10
4.0818
 20
7.74609
 30
0.0
 10
2.69156
 20
10.15407
 30
0.0
 10
2.69156
 20
10.15407
 30
0.0
  0
SPLINE
  5
C8
330
1F
100
AcDbEntity
  8
0
370
    15
100
AcDbSpline
210
0.0
220
0.0
230
1.0
 70
    24
 71
     3
 72
     8
 73
     4
 74
     0
 42
0.0000000001
 43
0.0000000001
 40
0.0
 40
0.0
 40
0.0
 40
0.0
 40
1.0
 40
1.0
 40
1.0
 40
1.0
 10
3.64879
 20
7.49609
 30
0.0
 10
3.64879
 20
7.49609
 30
0.0
 10
4.0818
 20
7.74609
 30
0.0
 10
4.0818
 20
7.74609
 30
0.0
  0
SPLINE
  5
C9
330
1F
100
AcDbEntity
  8
0
370
    15
100
AcDbSpline
210
0.0
220
0.0
230
1.0
 70
    24
 71
     3
 72
     8
 73
     4
 74
     0
 42
0.0000000001
 43
0.0000000001
 40
0.0
 40
0.0
 40
0.0
 40
0.0
 40
1.0
 40
1.0
 40
1.0
 40
1.0
 10
3.64879
 20
7.49609
 30
0.0
 10
3.64879
 20
7.49609
 30
0.0
 10
2.25854
 20
9.90407
 30
0.0
 10
2.25854
 20
9.90407
 30
0.0
  0
SPLINE
  5
CA
330
1F
100
AcDbEntity
  8
0
370
    15
100
AcDbSpline
210
0.0
220
0.0
230
1.0
 70
    24
 71
     3
 72
     8
 73
     4
 74
     0
 42
0.0000000001
 43
0.0000000001
 40
0.0
 40
0.0
 40
0.0
 40
0.0
 40
1.0
 40
1.0
 40
1.0
 40
1.0
 10
4.0818
 20
7.74609
 30
0.0
 10
4.0818
 20
7.74609
 30
0.0
 10
4.3318
 20
7.31308
 30
0.0
 10
4.3318
 20
7.31308
 30
0.0
  0
SPLINE
  5
CB
330
1F
100
AcDbEntity
  8
0
370
    15
100
AcDbSpline
210
0.0
220
0.0
230
1.0
 70
     8
 71
     3
 72
     8
 73
     4
 74
     0
 42
0.0000000001
 43
0.0000000001
 40
0.0
 40
0.0
 40
0.0
 40
0.0
 40
1.0
 40
1.0
 40
1.0
 40
1.0
 10
3.89879
 20
7.06308
 30
0.0
 10
4.07742
 20
7.06308
 30
0.0
 10
4.24249
 20
7.15838
 30
0.0
 10
4.3318
 20
7.31308
 30
0.0
  0
SPLINE
  5
CC
330
1F
100
AcDbEntity
  8
0
370
    15
100
AcDbSpline
210
0.0
220
0.0
230
1.0
 70
    24
 71
     3
 72
     8
 73
     4
 74
     0
 42
0.0000000001
 43
0.0000000001
 40
0.0
 40
0.0
 40
0.0
 40
0.0
 40
1.0
 40
1.0
 40
1.0
 40
1.0
 10
3.64879
 20
7.49609
 30
0.0
 10
3.64879
 20
7.49609
 30
0.0
 10
3.89879
 20
7.06308
 30
0.0
 10
3.89879
 20
7.06308
 30
0.0
  0
SPLINE
  5
CD
330
1F
100
AcDbEntity
  8
0
370
    15
100
AcDbSpline
210
0.0
220
0.0
230
1.0
 70
     8
 71
     3
 72
    36
 73
    32
 74
     0
 42
0.0000000001
 43
0.0000000001
 40
0.0
 40
0.0
 40
0.0
 40
0.0
 40
0.1111111111111111
 40
0.1111111111111111
 40
0.1111111111111111
 40
0.1111111111111111
 40
0.2222222222222222
 40
0.2222222222222222
 40
0.2222222222222222
 40
0.2222222222222222
 40
0.3333333333333333
 40
0.3333333333333333
 40
0.3333333333333333
 40
0.3333333333333333
 40
0.4444444444444444
 40
0.4444444444444444
 40
0.4444444444444444
 40
0.4444444444444444
 40
0.5555555555555556
 40
0.5555555555555556
 40
0.5555555555555556
 40
0.5555555555555556
 40
0.6666666666666666
 40
0.6666666666666666
 40
0.6666666666666666
 40
0.6666666666666666
 40
0.7777777777777778
 40
0.7777777777777778
 40
0.7777777777777778
 40
0.7777777777777778
 40
1.0
 40
1.0
 40
1.0
 40
1.0
 10
1.95915
 20
10.08852
 30
0.0
 10
1.95155
 20
10.10309
 30
0.0
 10
1.94395
 20
10.11766
 30
0.0
 10
1.93755
 20
10.13291
 30
0.0
 10
1.93755
 20
10.13291
 30
0.0
 10
1.93003
 20
10.15082
 30
0.0
 10
1.92415
 20
10.16967
 30
0.0
 10
1.91972
 20
10.18896
 30
0.0
 10
1.91972
 20
10.18896
 30
0.0
 10
1.91515
 20
10.20892
 30
0.0
 10
1.91213
 20
10.22935
 30
0.0
 10
1.91092
 20
10.24991
 30
0.0
 10
1.91092
 20
10.24991
 30
0.0
 10
1.91059
 20
10.25552
 30
0.0
 10
1.91039
 20
10.26115
 30
0.0
 10
1.91032
 20
10.26677
 30
0.0
 10
1.91032
 20
10.26677
 30
0.0
 10
1.9101
 20
10.28548
 30
0.0
 10
1.91132
 20
10.30424
 30
0.0
 10
1.91399
 20
10.3227
 30
0.0
 10
1.91399
 20
10.3227
 30
0.0
 10
1.91674
 20
10.34179
 30
0.0
 10
1.92102
 20
10.36056
 30
0.0
 10
1.92661
 20
10.37878
 30
0.0
 10
1.92661
 20
10.37878
 30
0.0
 10
1.9286
 20
10.38525
 30
0.0
 10
1.93074
 20
10.39166
 30
0.0
 10
1.93311
 20
10.39794
 30
0.0
 10
1.93311
 20
10.39794
 30
0.0
 10
1.9404
 20
10.41728
 30
0.0
 10
1.94977
 20
10.43551
 30
0.0
 10
1.95915
 20
10.45374
 30
0.0
  0
SPLINE
  5
CE
330
1F
100
AcDbEntity
  8
0
370
    15
100
AcDbSpline
210
0.0
220
0.0
230
1.0
 70
     8
 71
     3
 72
    12
 73
     8
 74
     0
 42
0.0000000001
 43
0.0000000001
 40
0.0
 40
0.0
 40
0.0
 40
0.0
 40
0.3333333333333333
 40
0.3333333333333333
 40
0.3333333333333333
 40
0.3333333333333333
 40
1.0
 40
1.0
 40
1.0
 40
1.0
 10
1.98308
 20
10.45794
 30
0.0
 10
1.97654
 20
10.45684
 30
0.0
 10
1.96999
 20
10.45575
 30
0.0
 10
1.96338
 20
10.45453
 30
0.0
 10
1.96338
 20
10.45453
 30
0.0
 10
1.96197
 20
10.45427
 30
0.0
 10
1.96056
 20
10.454
 30
0.0
 10
1.95915
 20
10.45374
 30
0.0
  0
SPLINE
  5
CF
330
1F
100
AcDbEntity
  8
0
370
    15
100
AcDbSpline
210
0.0
220
0.0
230
1.0
 70
     8
 71
     3
 72
    20
 73
    16
 74
     0
 42
0.0000000001
 43
0.0000000001
 40
0.0
 40
0.0
 40
0.0
 40
0.0
 40
0.2
 40
0.2
 40
0.2
 40
0.2
 40
0.4
 40
0.4
 40
0.4
 40
0.4
 40
0.6
 40
0.6
 40
0.6
 40
0.6
 40
1.0
 40
1.0
 40
1.0
 40
1.0
 10
2.03204
 20
10.49172
 30
0.0
 10
2.03197
 20
10.49162
 30
0.0
 10
2.0319
 20
10.49153
 30
0.0
 10
2.03183
 20
10.49144
 30
0.0
 10
2.03183
 20
10.49144
 30
0.0
 10
2.02822
 20
10.4865
 30
0.0
 10
2.02415
 20
10.48193
 30
0.0
 10
2.0197
 20
10.47766
 30
0.0
 10
2.0197
 20
10.47766
 30
0.0
 10
2.01456
 20
10.47272
 30
0.0
 10
2.00893
 20
10.46818
 30
0.0
 10
2.00255
 20
10.46492
 30
0.0
 10
2.00255
 20
10.46492
 30
0.0
 10
1.99651
 20
10.46183
 30
0.0
 10
1.98979
 20
10.45988
 30
0.0
 10
1.98308
 20
10.45794
 30
0.0
  0
SPLINE
  5
D0
330
1F
100
AcDbEntity
  8
0
370
    15
100
AcDbSpline
210
0.0
220
0.0
230
1.0
 70
     8
 71
     3
 72
    20
 73
    16
 74
     0
 42
0.0000000001
 43
0.0000000001
 40
0.0
 40
0.0
 40
0.0
 40
0.0
 40
0.2
 40
0.2
 40
0.2
 40
0.2
 40
0.4
 40
0.4
 40
0.4
 40
0.4
 40
0.6
 40
0.6
 40
0.6
 40
0.6
 40
1.0
 40
1.0
 40
1.0
 40
1.0
 10
1.98308
 20
10.08432
 30
0.0
 10
1.98979
 20
10.08238
 30
0.0
 10
1.99651
 20
10.08043
 30
0.0
 10
2.00255
 20
10.07734
 30
0.0
 10
2.00255
 20
10.07734
 30
0.0
 10
2.00893
 20
10.07408
 30
0.0
 10
2.01456
 20
10.06954
 30
0.0
 10
2.0197
 20
10.0646
 30
0.0
 10
2.0197
 20
10.0646
 30
0.0
 10
2.02415
 20
10.06033
 30
0.0
 10
2.02822
 20
10.05576
 30
0.0
 10
2.03183
 20
10.05082
 30
0.0
 10
2.03183
 20
10.05082
 30
0.0
 10
2.0319
 20
10.05073
 30
0.0
 10
2.03197
 20
10.05063
 30
0.0
 10
2.03204
 20
10.05054
 30
0.0
  0
SPLINE
  5
D1
330
1F
100
AcDbEntity
  8
0
370
    15
100
AcDbSpline
210
0.0
220
0.0
230
1.0
 70
    24
 71
     3
 72
     8
 73
     4
 74
     0
 42
0.0000000001
 43
0.0000000001
 40
0.0
 40
0.0
 40
0.0
 40
0.0
 40
1.0
 40
1.0
 40
1.0
 40
1.0
 10
1.95915
 20
10.08852
 30
0.0
 10
1.95915
 20
10.08852
 30
0.0
 10
1.98308
 20
10.08432
 30
0.0
 10
1.98308
 20
10.08432
 30
0.0
  0
SPLINE
  5
D2
330
1F
100
AcDbEntity
  8
0
370
    15
100
AcDbSpline
210
0.0
220
0.0
230
1.0
 70
     8
 71
     3
 72
    36
 73
    32
 74
     0
 42
0.0000000001
 43
0.0000000001
 40
0.0
 40
0.0
 40
0.0
 40
0.0
 40
0.1111111111111111
 40
0.1111111111111111
 40
0.1111111111111111
 40
0.1111111111111111
 40
0.2222222222222222
 40
0.2222222222222222
 40
0.2222222222222222
 40
0.2222222222222222
 40
0.3333333333333333
 40
0.3333333333333333
 40
0.3333333333333333
 40
0.3333333333333333
 40
0.4444444444444444
 40
0.4444444444444444
 40
0.4444444444444444
 40
0.4444444444444444
 40
0.5555555555555556
 40
0.5555555555555556
 40
0.5555555555555556
 40
0.5555555555555556
 40
0.6666666666666666
 40
0.6666666666666666
 40
0.6666666666666666
 40
0.6666666666666666
 40
0.7777777777777778
 40
0.7777777777777778
 40
0.7777777777777778
 40
0.7777777777777778
 40
1.0
 40
1.0
 40
1.0
 40
1.0
 10
1.98308
 20
10.08432
 30
0.0
 10
1.98308
 20
10.08432
 30
0.0
 10
1.98378
 20
10.08147
 30
0.0
 10
1.98378
 20
10.08147
 30
0.0
 10
1.98378
 20
10.08147
 30
0.0
 10
1.98378
 20
10.08147
 30
0.0
 10
1.98461
 20
10.07888
 30
0.0
 10
1.98461
 20
10.07888
 30
0.0
 10
1.98461
 20
10.07888
 30
0.0
 10
1.98461
 20
10.07888
 30
0.0
 10
1.98557
 20
10.0766
 30
0.0
 10
1.98557
 20
10.0766
 30
0.0
 10
1.98557
 20
10.0766
 30
0.0
 10
1.98557
 20
10.0766
 30
0.0
 10
1.98664
 20
10.07468
 30
0.0
 10
1.98664
 20
10.07468
 30
0.0
 10
1.98664
 20
10.07468
 30
0.0
 10
1.98664
 20
10.07468
 30
0.0
 10
1.9878
 20
10.07315
 30
0.0
 10
1.9878
 20
10.07315
 30
0.0
 10
1.9878
 20
10.07315
 30
0.0
 10
1.9878
 20
10.07315
 30
0.0
 10
1.98903
 20
10.07203
 30
0.0
 10
1.98903
 20
10.07203
 30
0.0
 10
1.98903
 20
10.07203
 30
0.0
 10
1.98903
 20
10.07203
 30
0.0
 10
1.9903
 20
10.07136
 30
0.0
 10
1.9903
 20
10.07136
 30
0.0
 10
1.9903
 20
10.07136
 30
0.0
 10
1.9903
 20
10.07136
 30
0.0
 10
1.9916
 20
10.07113
 30
0.0
 10
1.9916
 20
10.07113
 30
0.0
  0
SPLINE
  5
D3
330
1F
100
AcDbEntity
  8
0
370
    15
100
AcDbSpline
210
0.0
220
0.0
230
1.0
 70
     8
 71
     3
 72
    20
 73
    16
 74
     0
 42
0.0000000001
 43
0.0000000001
 40
0.0
 40
0.0
 40
0.0
 40
0.0
 40
0.2
 40
0.2
 40
0.2
 40
0.2
 40
0.4
 40
0.4
 40
0.4
 40
0.4
 40
0.6
 40
0.6
 40
0.6
 40
0.6
 40
1.0
 40
1.0
 40
1.0
 40
1.0
 10
2.03204
 20
10.05054
 30
0.0
 10
2.03199
 20
10.05061
 30
0.0
 10
2.03194
 20
10.05068
 30
0.0
 10
2.03189
 20
10.05075
 30
0.0
 10
2.03189
 20
10.05075
 30
0.0
 10
2.0293
 20
10.05428
 30
0.0
 10
2.02622
 20
10.05742
 30
0.0
 10
2.02275
 20
10.06024
 30
0.0
 10
2.02275
 20
10.06024
 30
0.0
 10
2.01872
 20
10.06352
 30
0.0
 10
2.01415
 20
10.06635
 30
0.0
 10
2.00873
 20
10.0681
 30
0.0
 10
2.00873
 20
10.0681
 30
0.0
 10
2.00354
 20
10.06978
 30
0.0
 10
1.99757
 20
10.07045
 30
0.0
 10
1.9916
 20
10.07113
 30
0.0
  0
SPLINE
  5
D4
330
1F
100
AcDbEntity
  8
0
370
    15
100
AcDbSpline
210
0.0
220
0.0
230
1.0
 70
     8
 71
     3
 72
    20
 73
    16
 74
     0
 42
0.0000000001
 43
0.0000000001
 40
0.0
 40
0.0
 40
0.0
 40
0.0
 40
0.2
 40
0.2
 40
0.2
 40
0.2
 40
0.4
 40
0.4
 40
0.4
 40
0.4
 40
0.6
 40
0.6
 40
0.6
 40
0.6
 40
1.0
 40
1.0
 40
1.0
 40
1.0
 10
1.9916
 20
10.47113
 30
0.0
 10
1.99757
 20
10.4718
 30
0.0
 10
2.00354
 20
10.47248
 30
0.0
 10
2.00873
 20
10.47415
 30
0.0
 10
2.00873
 20
10.47415
 30
0.0
 10
2.01415
 20
10.4759
 30
0.0
 10
2.01872
 20
10.47874
 30
0.0
 10
2.02275
 20
10.48202
 30
0.0
 10
2.02275
 20
10.48202
 30
0.0
 10
2.02622
 20
10.48484
 30
0.0
 10
2.0293
 20
10.48798
 30
0.0
 10
2.03189
 20
10.49151
 30
0.0
 10
2.03189
 20
10.49151
 30
0.0
 10
2.03194
 20
10.49158
 30
0.0
 10
2.03199
 20
10.49165
 30
0.0
 10
2.03204
 20
10.49172
 30
0.0
  0
SPLINE
  5
D5
330
1F
100
AcDbEntity
  8
0
370
    15
100
AcDbSpline
210
0.0
220
0.0
230
1.0
 70
     8
 71
     3
 72
    36
 73
    32
 74
     0
 42
0.0000000001
 43
0.0000000001
 40
0.0
 40
0.0
 40
0.0
 40
0.0
 40
0.1111111111111111
 40
0.1111111111111111
 40
0.1111111111111111
 40
0.1111111111111111
 40
0.2222222222222222
 40
0.2222222222222222
 40
0.2222222222222222
 40
0.2222222222222222
 40
0.3333333333333333
 40
0.3333333333333333
 40
0.3333333333333333
 40
0.3333333333333333
 40
0.4444444444444444
 40
0.4444444444444444
 40
0.4444444444444444
 40
0.4444444444444444
 40
0.5555555555555556
 40
0.5555555555555556
 40
0.5555555555555556
 40
0.5555555555555556
 40
0.6666666666666666
 40
0.6666666666666666
 40
0.6666666666666666
 40
0.6666666666666666
 40
0.7777777777777778
 40
0.7777777777777778
 40
0.7777777777777778
 40
0.7777777777777778
 40
1.0
 40
1.0
 40
1.0
 40
1.0
 10
1.9916
 20
10.47113
 30
0.0
 10
1.9916
 20
10.47113
 30
0.0
 10
1.9903
 20
10.4709
 30
0.0
 10
1.9903
 20
10.4709
 30
0.0
 10
1.9903
 20
10.4709
 30
0.0
 10
1.9903
 20
10.4709
 30
0.0
 10
1.98903
 20
10.47023
 30
0.0
 10
1.98903
 20
10.47023
 30
0.0
 10
1.98903
 20
10.47023
 30
0.0
 10
1.98903
 20
10.47023
 30
0.0
 10
1.9878
 20
10.46911
 30
0.0
 10
1.9878
 20
10.46911
 30
0.0
 10
1.9878
 20
10.46911
 30
0.0
 10
1.9878
 20
10.46911
 30
0.0
 10
1.98664
 20
10.46758
 30
0.0
 10
1.98664
 20
10.46758
 30
0.0
 10
1.98664
 20
10.46758
 30
0.0
 10
1.98664
 20
10.46758
 30
0.0
 10
1.98557
 20
10.46566
 30
0.0
 10
1.98557
 20
10.46566
 30
0.0
 10
1.98557
 20
10.46566
 30
0.0
 10
1.98557
 20
10.46566
 30
0.0
 10
1.98461
 20
10.46338
 30
0.0
 10
1.98461
 20
10.46338
 30
0.0
 10
1.98461
 20
10.46338
 30
0.0
 10
1.98461
 20
10.46338
 30
0.0
 10
1.98378
 20
10.46079
 30
0.0
 10
1.98378
 20
10.46079
 30
0.0
 10
1.98378
 20
10.46079
 30
0.0
 10
1.98378
 20
10.46079
 30
0.0
 10
1.98308
 20
10.45794
 30
0.0
 10
1.98308
 20
10.45794
 30
0.0
  0
SPLINE
  5
D6
330
1F
100
AcDbEntity
  8
0
370
    15
100
AcDbSpline
210
0.0
220
0.0
230
1.0
 70
     8
 71
     3
 72
    12
 73
     8
 74
     0
 42
0.0000000001
 43
0.0000000001
 40
0.0
 40
0.0
 40
0.0
 40
0.0
 40
0.3333333333333333
 40
0.3333333333333333
 40
0.3333333333333333
 40
0.3333333333333333
 40
1.0
 40
1.0
 40
1.0
 40
1.0
 10
1.8353
 20
10.45374
 30
0.0
 10
1.69404
 20
10.45374
 30
0.0
 10
1.55857
 20
10.39762
 30
0.0
 10
1.45869
 20
10.29774
 30
0.0
 10
1.45869
 20
10.29774
 30
0.0
 10
1.3588
 20
10.19786
 30
0.0
 10
1.30269
 20
10.06239
 30
0.0
 10
1.30269
 20
9.92113
 30
0.0
  0
SPLINE
  5
D7
330
1F
100
AcDbEntity
  8
0
370
    15
100
AcDbSpline
210
0.0
220
0.0
230
1.0
 70
    24
 71
     3
 72
     8
 73
     4
 74
     0
 42
0.0000000001
 43
0.0000000001
 40
0.0
 40
0.0
 40
0.0
 40
0.0
 40
1.0
 40
1.0
 40
1.0
 40
1.0
 10
1.8353
 20
10.08852
 30
0.0
 10
1.8353
 20
10.08852
 30
0.0
 10
1.8353
 20
10.45374
 30
0.0
 10
1.8353
 20
10.45374
 30
0.0
  0
SPLINE
  5
D8
330
1F
100
AcDbEntity
  8
0
370
    15
100
AcDbSpline
210
0.0
220
0.0
230
1.0
 70
     8
 71
     3
 72
    12
 73
     8
 74
     0
 42
0.0000000001
 43
0.0000000001
 40
0.0
 40
0.0
 40
0.0
 40
0.0
 40
0.3333333333333333
 40
0.3333333333333333
 40
0.3333333333333333
 40
0.3333333333333333
 40
1.0
 40
1.0
 40
1.0
 40
1.0
 10
1.8353
 20
10.08852
 30
0.0
 10
1.7909
 20
10.08852
 30
0.0
 10
1.74833
 20
10.07088
 30
0.0
 10
1.71693
 20
10.03949
 30
0.0
 10
1.71693
 20
10.03949
 30
0.0
 10
1.68554
 20
10.0081
 30
0.0
 10
1.66791
 20
9.96552
 30
0.0
 10
1.66791
 20
9.92113
 30
0.0
  0
SPLINE
  5
D9
330
1F
100
AcDbEntity
  8
0
370
    15
100
AcDbSpline
210
0.0
220
0.0
230
1.0
 70
    24
 71
     3
 72
     8
 73
     4
 74
     0
 42
0.0000000001
 43
0.0000000001
 40
0.0
 40
0.0
 40
0.0
 40
0.0
 40
1.0
 40
1.0
 40
1.0
 40
1.0
 10
1.66791
 20
9.92113
 30
0.0
 10
1.66791
 20
9.92113
 30
0.0
 10
1.30269
 20
9.92113
 30
0.0
 10
1.30269
 20
9.92113
 30
0.0
  0
SPLINE
  5
DA
330
1F
100
AcDbEntity
  8
0
370
    15
100
AcDbSpline
210
0.0
220
0.0
230
1.0
 70
    24
 71
     3
 72
     8
 73
     4
 74
     0
 42
0.0000000001
 43
0.0000000001
 40
0.0
 40
0.0
 40
0.0
 40
0.0
 40
1.0
 40
1.0
 40
1.0
 40
1.0
 10
1.30269
 20
9.92113
 30
0.0
 10
1.30269
 20
9.92113
 30
0.0
 10
1.30269
 20
8.42113
 30
0.0
 10
1.30269
 20
8.42113
 30
0.0
  0
SPLINE
  5
DB
330
1F
100
AcDbEntity
  8
0
370
    15
100
AcDbSpline
210
0.0
220
0.0
230
1.0
 70
     8
 71
     3
 72
    12
 73
     8
 74
     0
 42
0.0000000001
 43
0.0000000001
 40
0.0
 40
0.0
 40
0.0
 40
0.0
 40
0.3333333333333333
 40
0.3333333333333333
 40
0.3333333333333333
 40
0.3333333333333333
 40
1.0
 40
1.0
 40
1.0
 40
1.0
 10
1.66866
 20
9.92461
 30
0.0
 10
1.66846
 20
9.9237
 30
0.0
 10
1.66825
 20
9.92278
 30
0.0
 10
1.66806
 20
9.92187
 30
0.0
 10
1.66806
 20
9.92187
 30
0.0
 10
1.66801
 20
9.92162
 30
0.0
 10
1.66796
 20
9.92137
 30
0.0
 10
1.66791
 20
9.92113
 30
0.0
  0
SPLINE
  5
DC
330
1F
100
AcDbEntity
  8
0
370
    15
100
AcDbSpline
210
0.0
220
0.0
230
1.0
 70
    24
 71
     3
 72
     8
 73
     4
 74
     0
 42
0.0000000001
 43
0.0000000001
 40
0.0
 40
0.0
 40
0.0
 40
0.0
 40
1.0
 40
1.0
 40
1.0
 40
1.0
 10
1.66866
 20
8.42113
 30
0.0
 10
1.66866
 20
8.42113
 30
0.0
 10
1.66866
 20
9.92461
 30
0.0
 10
1.66866
 20
9.92461
 30
0.0
  0
SPLINE
  5
DD
330
1F
100
AcDbEntity
  8
0
370
    15
100
AcDbSpline
210
0.0
220
0.0
230
1.0
 70
    24
 71
     3
 72
     8
 73
     4
 74
     0
 42
0.0000000001
 43
0.0000000001
 40
0.0
 40
0.0
 40
0.0
 40
0.0
 40
1.0
 40
1.0
 40
1.0
 40
1.0
 10
1.66866
 20
8.42113
 30
0.0
 10
1.66866
 20
8.42113
 30
0.0
 10
1.30269
 20
8.42113
 30
0.0
 10
1.30269
 20
8.42113
 30
0.0
  0
SPLINE
  5
DE
330
1F
100
AcDbEntity
  8
0
370
    15
100
AcDbSpline
210
0.0
220
0.0
230
1.0
 70
    24
 71
     3
 72
     8
 73
     4
 74
     0
 42
0.0000000001
 43
0.0000000001
 40
0.0
 40
0.0
 40
0.0
 40
0.0
 40
1.0
 40
1.0
 40
1.0
 40
1.0
 10
1.95915
 20
10.45374
 30
0.0
 10
1.95915
 20
10.45374
 30
0.0
 10
1.8353
 20
10.45374
 30
0.0
 10
1.8353
 20
10.45374
 30
0.0
  0
SPLINE
  5
DF
330
1F
100
AcDbEntity
  8
0
370
    15
100
AcDbSpline
210
0.0
220
0.0
230
1.0
 70
    24
 71
     3
 72
     8
 73
     4
 74
     0
 42
0.0000000001
 43
0.0000000001
 40
0.0
 40
0.0
 40
0.0
 40
0.0
 40
1.0
 40
1.0
 40
1.0
 40
1.0
 10
1.8353
 20
10.08852
 30
0.0
 10
1.8353
 20
10.08852
 30
0.0
 10
1.95915
 20
10.08852
 30
0.0
 10
1.95915
 20
10.08852
 30
0.0
  0
SPLINE
  5
E0
330
1F
100
AcDbEntity
  8
0
370
    15
100
AcDbSpline
210
0.0
220
0.0
230
1.0
 70
    24
 71
     3
 72
     8
 73
     4
 74
     0
 42
0.0000000001
 43
0.0000000001
 40
0.0
 40
0.0
 40
0.0
 40
0.0
 40
1.0
 40
1.0
 40
1.0
 40
1.0
 10
1.9916
 20
10.07113
 30
0.0
 10
1.9916
 20
10.07113
 30
0.0
 10
1.95915
 20
10.07113
 30
0.0
 10
1.95915
 20
10.07113
 30
0.0
  0
SPLINE
  5
E1
330
1F
100
AcDbEntity
  8
0
370
    15
100
AcDbSpline
210
0.0
220
0.0
230
1.0
 70
    24
 71
     3
 72
     8
 73
     4
 74
     0
 42
0.0000000001
 43
0.0000000001
 40
0.0
 40
0.0
 40
0.0
 40
0.0
 40
1.0
 40
1.0
 40
1.0
 40
1.0
 10
1.95915
 20
10.08852
 30
0.0
 10
1.95915
 20
10.08852
 30
0.0
 10
1.95915
 20
10.07113
 30
0.0
 10
1.95915
 20
10.07113
 30
0.0
  0
SPLINE
  5
E2
330
1F
100
AcDbEntity
  8
0
370
    15
100
AcDbSpline
210
0.0
220
0.0
230
1.0
 70
    24
 71
     3
 72
     8
 73
     4
 74
     0
 42
0.0000000001
 43
0.0000000001
 40
0.0
 40
0.0
 40
0.0
 40
0.0
 40
1.0
 40
1.0
 40
1.0
 40
1.0
 10
1.95915
 20
10.47113
 30
0.0
 10
1.95915
 20
10.47113
 30
0.0
 10
1.9916
 20
10.47113
 30
0.0
 10
1.9916
 20
10.47113
 30
0.0
  0
SPLINE
  5
E3
330
1F
100
AcDbEntity
  8
0
370
    15
100
AcDbSpline
210
0.0
220
0.0
230
1.0
 70
    24
 71
     3
 72
     8
 73
     4
 74
     0
 42
0.0000000001
 43
0.0000000001
 40
0.0
 40
0.0
 40
0.0
 40
0.0
 40
1.0
 40
1.0
 40
1.0
 40
1.0
 10
1.95915
 20
10.47113
 30
0.0
 10
1.95915
 20
10.47113
 30
0.0
 10
1.95915
 20
10.45374
 30
0.0
 10
1.95915
 20
10.45374
 30
0.0
  0
SPLINE
  5
E4
330
1F
100
AcDbEntity
  8
0
370
    15
100
AcDbSpline
210
0.0
220
0.0
230
1.0
 70
     8
 71
     3
 72
    32
 73
    28
 74
     0
 42
0.0000000001
 43
0.0000000001
 40
0.0
 40
0.0
 40
0.0
 40
0.0
 40
0.125
 40
0.125
 40
0.125
 40
0.125
 40
0.25
 40
0.25
 40
0.25
 40
0.25
 40
0.375
 40
0.375
 40
0.375
 40
0.375
 40
0.5
 40
0.5
 40
0.5
 40
0.5
 40
0.625
 40
0.625
 40
0.625
 40
0.625
 40
0.75
 40
0.75
 40
0.75
 40
0.75
 40
1.0
 40
1.0
 40
1.0
 40
1.0
 10
1.66866
 20
9.92461
 30
0.0
 10
1.66874
 20
9.92491
 30
0.0
 10
1.66881
 20
9.9252
 30
0.0
 10
1.6689
 20
9.9255
 30
0.0
 10
1.6689
 20
9.9255
 30
0.0
 10
1.6692
 20
9.92651
 30
0.0
 10
1.66964
 20
9.92749
 30
0.0
 10
1.67021
 20
9.92835
 30
0.0
 10
1.67021
 20
9.92835
 30
0.0
 10
1.67078
 20
9.92922
 30
0.0
 10
1.67149
 20
9.92998
 30
0.0
 10
1.67226
 20
9.93061
 30
0.0
 10
1.67226
 20
9.93061
 30
0.0
 10
1.67317
 20
9.93135
 30
0.0
 10
1.67417
 20
9.9319
 30
0.0
 10
1.67515
 20
9.93235
 30
0.0
 10
1.67515
 20
9.93235
 30
0.0
 10
1.67683
 20
9.93311
 30
0.0
 10
1.67844
 20
9.93357
 30
0.0
 10
1.67987
 20
9.93393
 30
0.0
 10
1.67987
 20
9.93393
 30
0.0
 10
1.68172
 20
9.93439
 30
0.0
 10
1.68327
 20
9.93471
 30
0.0
 10
1.68424
 20
9.93499
 30
0.0
 10
1.68424
 20
9.93499
 30
0.0
 10
1.68522
 20
9.93528
 30
0.0
 10
1.68561
 20
9.93553
 30
0.0
 10
1.686
 20
9.93579
 30
0.0
  0
SPLINE
  5
E5
330
1F
100
AcDbEntity
  8
0
370
    15
100
AcDbSpline
210
0.0
220
0.0
230
1.0
 70
    24
 71
     3
 72
     8
 73
     4
 74
     0
 42
0.0000000001
 43
0.0000000001
 40
0.0
 40
0.0
 40
0.0
 40
0.0
 40
1.0
 40
1.0
 40
1.0
 40
1.0
 10
1.8353
 20
10.08852
 30
0.0
 10
1.8353
 20
10.08852
 30
0.0
 10
1.8353
 20
10.07113
 30
0.0
 10
1.8353
 20
10.07113
 30
0.0
  0
SPLINE
  5
E6
330
1F
100
AcDbEntity
  8
0
370
    15
100
AcDbSpline
210
0.0
220
0.0
230
1.0
 70
     8
 71
     3
 72
     8
 73
     4
 74
     0
 42
0.0000000001
 43
0.0000000001
 40
0.0
 40
0.0
 40
0.0
 40
0.0
 40
1.0
 40
1.0
 40
1.0
 40
1.0
 10
1.8353
 20
10.07113
 30
0.0
 10
1.75821
 20
10.07113
 30
0.0
 10
1.69367
 20
10.0127
 30
0.0
 10
1.68603
 20
9.93599
 30
0.0
  0
SPLINE
  5
E7
330
1F
100
AcDbEntity
  8
0
370
    15
100
AcDbSpline
210
0.0
220
0.0
230
1.0
 70
    24
 71
     3
 72
     8
 73
     4
 74
     0
 42
0.0000000001
 43
0.0000000001
 40
0.0
 40
0.0
 40
0.0
 40
0.0
 40
1.0
 40
1.0
 40
1.0
 40
1.0
 10
1.68603
 20
9.93599
 30
0.0
 10
1.68603
 20
9.93599
 30
0.0
 10
1.686
 20
9.93579
 30
0.0
 10
1.686
 20
9.93579
 30
0.0
  0
SPLINE
  5
E8
330
1F
100
AcDbEntity
  8
0
370
    15
100
AcDbSpline
210
0.0
220
0.0
230
1.0
 70
    24
 71
     3
 72
     8
 73
     4
 74
     0
 42
0.0000000001
 43
0.0000000001
 40
0.0
 40
0.0
 40
0.0
 40
0.0
 40
1.0
 40
1.0
 40
1.0
 40
1.0
 10
1.686
 20
9.93579
 30
0.0
 10
1.686
 20
9.93579
 30
0.0
 10
1.686
 20
8.42113
 30
0.0
 10
1.686
 20
8.42113
 30
0.0
  0
SPLINE
  5
E9
330
1F
100
AcDbEntity
  8
0
370
    15
100
AcDbSpline
210
0.0
220
0.0
230
1.0
 70
    24
 71
     3
 72
     8
 73
     4
 74
     0
 42
0.0000000001
 43
0.0000000001
 40
0.0
 40
0.0
 40
0.0
 40
0.0
 40
1.0
 40
1.0
 40
1.0
 40
1.0
 10
1.686
 20
8.42113
 30
0.0
 10
1.686
 20
8.42113
 30
0.0
 10
1.66866
 20
8.42113
 30
0.0
 10
1.66866
 20
8.42113
 30
0.0
  0
SPLINE
  5
EA
330
1F
100
AcDbEntity
  8
0
370
    15
100
AcDbSpline
210
0.0
220
0.0
230
1.0
 70
     8
 71
     3
 72
    12
 73
     8
 74
     0
 42
0.0000000001
 43
0.0000000001
 40
0.0
 40
0.0
 40
0.0
 40
0.0
 40
0.3333333333333333
 40
0.3333333333333333
 40
0.3333333333333333
 40
0.3333333333333333
 40
1.0
 40
1.0
 40
1.0
 40
1.0
 10
1.8353
 20
10.47113
 30
0.0
 10
1.68943
 20
10.47113
 30
0.0
 10
1.54953
 20
10.41318
 30
0.0
 10
1.44639
 20
10.31004
 30
0.0
 10
1.44639
 20
10.31004
 30
0.0
 10
1.34324
 20
10.20689
 30
0.0
 10
1.2853
 20
10.067
 30
0.0
 10
1.2853
 20
9.92113
 30
0.0
  0
SPLINE
  5
EB
330
1F
100
AcDbEntity
  8
0
370
    15
100
AcDbSpline
210
0.0
220
0.0
230
1.0
 70
    24
 71
     3
 72
     8
 73
     4
 74
     0
 42
0.0000000001
 43
0.0000000001
 40
0.0
 40
0.0
 40
0.0
 40
0.0
 40
1.0
 40
1.0
 40
1.0
 40
1.0
 10
1.8353
 20
10.47113
 30
0.0
 10
1.8353
 20
10.47113
 30
0.0
 10
1.8353
 20
10.45374
 30
0.0
 10
1.8353
 20
10.45374
 30
0.0
  0
SPLINE
  5
EC
330
1F
100
AcDbEntity
  8
0
370
    15
100
AcDbSpline
210
0.0
220
0.0
230
1.0
 70
    24
 71
     3
 72
     8
 73
     4
 74
     0
 42
0.0000000001
 43
0.0000000001
 40
0.0
 40
0.0
 40
0.0
 40
0.0
 40
1.0
 40
1.0
 40
1.0
 40
1.0
 10
1.2853
 20
9.92113
 30
0.0
 10
1.2853
 20
9.92113
 30
0.0
 10
1.30269
 20
9.92113
 30
0.0
 10
1.30269
 20
9.92113
 30
0.0
  0
SPLINE
  5
ED
330
1F
100
AcDbEntity
  8
0
370
    15
100
AcDbSpline
210
0.0
220
0.0
230
1.0
 70
    24
 71
     3
 72
     8
 73
     4
 74
     0
 42
0.0000000001
 43
0.0000000001
 40
0.0
 40
0.0
 40
0.0
 40
0.0
 40
1.0
 40
1.0
 40
1.0
 40
1.0
 10
1.2853
 20
8.42113
 30
0.0
 10
1.2853
 20
8.42113
 30
0.0
 10
1.2853
 20
9.92113
 30
0.0
 10
1.2853
 20
9.92113
 30
0.0
  0
SPLINE
  5
EE
330
1F
100
AcDbEntity
  8
0
370
    15
100
AcDbSpline
210
0.0
220
0.0
230
1.0
 70
    24
 71
     3
 72
     8
 73
     4
 74
     0
 42
0.0000000001
 43
0.0000000001
 40
0.0
 40
0.0
 40
0.0
 40
0.0
 40
1.0
 40
1.0
 40
1.0
 40
1.0
 10
1.30269
 20
8.42113
 30
0.0
 10
1.30269
 20
8.42113
 30
0.0
 10
1.2853
 20
8.42113
 30
0.0
 10
1.2853
 20
8.42113
 30
0.0
  0
SPLINE
  5
EF
330
1F
100
AcDbEntity
  8
0
370
    15
100
AcDbSpline
210
0.0
220
0.0
230
1.0
 70
    24
 71
     3
 72
     8
 73
     4
 74
     0
 42
0.0000000001
 43
0.0000000001
 40
0.0
 40
0.0
 40
0.0
 40
0.0
 40
1.0
 40
1.0
 40
1.0
 40
1.0
 10
1.8353
 20
10.47113
 30
0.0
 10
1.8353
 20
10.47113
 30
0.0
 10
1.95915
 20
10.47113
 30
0.0
 10
1.95915
 20
10.47113
 30
0.0
  0
SPLINE
  5
F0
330
1F
100
AcDbEntity
  8
0
370
    15
100
AcDbSpline
210
0.0
220
0.0
230
1.0
 70
    24
 71
     3
 72
     8
 73
     4
 74
     0
 42
0.0000000001
 43
0.0000000001
 40
0.0
 40
0.0
 40
0.0
 40
0.0
 40
1.0
 40
1.0
 40
1.0
 40
1.0
 10
1.95915
 20
10.07113
 30
0.0
 10
1.95915
 20
10.07113
 30
0.0
 10
1.8353
 20
10.07113
 30
0.0
 10
1.8353
 20
10.07113
 30
0.0
  0
SPLINE
  5
F1
330
1F
100
AcDbEntity
  8
0
370
    15
100
AcDbSpline
210
0.0
220
0.0
230
1.0
 70
    24
 71
     3
 72
     8
 73
     4
 74
     0
 42
0.0000000001
 43
0.0000000001
 40
0.0
 40
0.0
 40
0.0
 40
0.0
 40
1.0
 40
1.0
 40
1.0
 40
1.0
 10
1.71934
 20
8.42113
 30
0.0
 10
1.71934
 20
8.42113
 30
0.0
 10
1.686
 20
8.42113
 30
0.0
 10
1.686
 20
8.42113
 30
0.0
  0
SPLINE
  5
F2
330
1F
100
AcDbEntity
  8
0
370
    15
100
AcDbSpline
210
0.0
220
0.0
230
1.0
 70
    24
 71
     3
 72
     8
 73
     4
 74
     0
 42
0.0000000001
 43
0.0000000001
 40
0.0
 40
0.0
 40
0.0
 40
0.0
 40
1.0
 40
1.0
 40
1.0
 40
1.0
 10
1.32124
 20
10.11668
 30
0.0
 10
1.32124
 20
10.11668
 30
0.0
 10
1.30955
 20
10.12113
 30
0.0
 10
1.30955
 20
10.12113
 30
0.0
  0
SPLINE
  5
F3
330
1F
100
AcDbEntity
  8
0
370
    15
100
AcDbSpline
210
0.0
220
0.0
230
1.0
 70
     8
 71
     3
 72
    24
 73
    20
 74
     0
 42
0.0000000001
 43
0.0000000001
 40
0.0
 40
0.0
 40
0.0
 40
0.0
 40
0.1666666666666667
 40
0.1666666666666667
 40
0.1666666666666667
 40
0.1666666666666667
 40
0.3333333333333333
 40
0.3333333333333333
 40
0.3333333333333333
 40
0.3333333333333333
 40
0.5
 40
0.5
 40
0.5
 40
0.5
 40
0.6666666666666666
 40
0.6666666666666666
 40
0.6666666666666666
 40
0.6666666666666666
 40
1.0
 40
1.0
 40
1.0
 40
1.0
 10
1.30955
 20
10.12113
 30
0.0
 10
1.31817
 20
10.13999
 30
0.0
 10
1.32678
 20
10.15886
 30
0.0
 10
1.33624
 20
10.17606
 30
0.0
 10
1.33624
 20
10.17606
 30
0.0
 10
1.34524
 20
10.19243
 30
0.0
 10
1.35501
 20
10.2073
 30
0.0
 10
1.36426
 20
10.22032
 30
0.0
 10
1.36426
 20
10.22032
 30
0.0
 10
1.37184
 20
10.23098
 30
0.0
 10
1.37907
 20
10.2404
 30
0.0
 10
1.38556
 20
10.24838
 30
0.0
 10
1.38556
 20
10.24838
 30
0.0
 10
1.39135
 20
10.25549
 30
0.0
 10
1.39655
 20
10.26145
 30
0.0
 10
1.39972
 20
10.26505
 30
0.0
 10
1.39972
 20
10.26505
 30
0.0
 10
1.40288
 20
10.26865
 30
0.0
 10
1.40403
 20
10.26989
 30
0.0
 10
1.40518
 20
10.27113
 30
0.0
  0
SPLINE
  5
F4
330
1F
100
AcDbEntity
  8
0
370
    15
100
AcDbSpline
210
0.0
220
0.0
230
1.0
 70
     8
 71
     3
 72
     8
 73
     4
 74
     0
 42
0.0000000001
 43
0.0000000001
 40
0.0
 40
0.0
 40
0.0
 40
0.0
 40
1.0
 40
1.0
 40
1.0
 40
1.0
 10
1.40518
 20
10.27113
 30
0.0
 10
1.40887
 20
10.27113
 30
0.0
 10
1.41236
 20
10.27276
 30
0.0
 10
1.41474
 20
10.27557
 30
0.0
  0
SPLINE
  5
F5
330
1F
100
AcDbEntity
  8
0
370
    15
100
AcDbSpline
210
0.0
220
0.0
230
1.0
 70
    24
 71
     3
 72
     8
 73
     4
 74
     0
 42
0.0000000001
 43
0.0000000001
 40
0.0
 40
0.0
 40
0.0
 40
0.0
 40
1.0
 40
1.0
 40
1.0
 40
1.0
 10
1.2728
 20
8.42113
 30
0.0
 10
1.2728
 20
8.42113
 30
0.0
 10
1.2728
 20
9.92113
 30
0.0
 10
1.2728
 20
9.92113
 30
0.0
  0
SPLINE
  5
F6
330
1F
100
AcDbEntity
  8
0
370
    15
100
AcDbSpline
210
0.0
220
0.0
230
1.0
 70
    24
 71
     3
 72
     8
 73
     4
 74
     0
 42
0.0000000001
 43
0.0000000001
 40
0.0
 40
0.0
 40
0.0
 40
0.0
 40
1.0
 40
1.0
 40
1.0
 40
1.0
 10
1.2853
 20
9.92113
 30
0.0
 10
1.2853
 20
9.92113
 30
0.0
 10
1.2728
 20
9.92113
 30
0.0
 10
1.2728
 20
9.92113
 30
0.0
  0
SPLINE
  5
F7
330
1F
100
AcDbEntity
  8
0
370
    15
100
AcDbSpline
210
0.0
220
0.0
230
1.0
 70
    24
 71
     3
 72
     8
 73
     4
 74
     0
 42
0.0000000001
 43
0.0000000001
 40
0.0
 40
0.0
 40
0.0
 40
0.0
 40
1.0
 40
1.0
 40
1.0
 40
1.0
 10
1.2853
 20
8.42113
 30
0.0
 10
1.2853
 20
8.42113
 30
0.0
 10
1.2728
 20
8.42113
 30
0.0
 10
1.2728
 20
8.42113
 30
0.0
  0
SPLINE
  5
F8
330
1F
100
AcDbEntity
  8
0
370
    15
100
AcDbSpline
210
0.0
220
0.0
230
1.0
 70
     8
 71
     3
 72
     8
 73
     4
 74
     0
 42
0.0000000001
 43
0.0000000001
 40
0.0
 40
0.0
 40
0.0
 40
0.0
 40
1.0
 40
1.0
 40
1.0
 40
1.0
 10
1.30955
 20
10.12113
 30
0.0
 10
1.28525
 20
10.05725
 30
0.0
 10
1.2728
 20
9.98947
 30
0.0
 10
1.2728
 20
9.92113
 30
0.0
  0
SPLINE
  5
F9
330
1F
100
AcDbEntity
  8
0
370
    15
100
AcDbSpline
210
0.0
220
0.0
230
1.0
 70
    24
 71
     3
 72
     8
 73
     4
 74
     0
 42
0.0000000001
 43
0.0000000001
 40
0.0
 40
0.0
 40
0.0
 40
0.0
 40
1.0
 40
1.0
 40
1.0
 40
1.0
 10
1.1853
 20
10.12113
 30
0.0
 10
1.1853
 20
10.12113
 30
0.0
 10
1.1853
 20
10.27113
 30
0.0
 10
1.1853
 20
10.27113
 30
0.0
  0
SPLINE
  5
FA
330
1F
100
AcDbEntity
  8
0
370
    15
100
AcDbSpline
210
0.0
220
0.0
230
1.0
 70
    24
 71
     3
 72
     8
 73
     4
 74
     0
 42
0.0000000001
 43
0.0000000001
 40
0.0
 40
0.0
 40
0.0
 40
0.0
 40
1.0
 40
1.0
 40
1.0
 40
1.0
 10
1.1853
 20
10.27113
 30
0.0
 10
1.1853
 20
10.27113
 30
0.0
 10
1.40518
 20
10.27113
 30
0.0
 10
1.40518
 20
10.27113
 30
0.0
  0
SPLINE
  5
FB
330
1F
100
AcDbEntity
  8
0
370
    15
100
AcDbSpline
210
0.0
220
0.0
230
1.0
 70
    24
 71
     3
 72
     8
 73
     4
 74
     0
 42
0.0000000001
 43
0.0000000001
 40
0.0
 40
0.0
 40
0.0
 40
0.0
 40
1.0
 40
1.0
 40
1.0
 40
1.0
 10
1.30955
 20
10.12113
 30
0.0
 10
1.30955
 20
10.12113
 30
0.0
 10
1.1853
 20
10.12113
 30
0.0
 10
1.1853
 20
10.12113
 30
0.0
  0
SPLINE
  5
FC
330
1F
100
AcDbEntity
  8
0
370
    15
100
AcDbSpline
210
0.0
220
0.0
230
1.0
 70
    24
 71
     3
 72
     8
 73
     4
 74
     0
 42
0.0000000001
 43
0.0000000001
 40
0.0
 40
0.0
 40
0.0
 40
0.0
 40
1.0
 40
1.0
 40
1.0
 40
1.0
 10
1.1853
 20
8.42113
 30
0.0
 10
1.1853
 20
8.42113
 30
0.0
 10
1.1853
 20
10.12113
 30
0.0
 10
1.1853
 20
10.12113
 30
0.0
  0
SPLINE
  5
FD
330
1F
100
AcDbEntity
  8
0
370
    15
100
AcDbSpline
210
0.0
220
0.0
230
1.0
 70
    24
 71
     3
 72
     8
 73
     4
 74
     0
 42
0.0000000001
 43
0.0000000001
 40
0.0
 40
0.0
 40
0.0
 40
0.0
 40
1.0
 40
1.0
 40
1.0
 40
1.0
 10
1.1853
 20
8.42113
 30
0.0
 10
1.1853
 20
8.42113
 30
0.0
 10
1.2728
 20
8.42113
 30
0.0
 10
1.2728
 20
8.42113
 30
0.0
  0
SPLINE
  5
FE
330
1F
100
AcDbEntity
  8
0
370
    15
100
AcDbSpline
210
0.0
220
0.0
230
1.0
 70
    24
 71
     3
 72
     8
 73
     4
 74
     0
 42
0.0000000001
 43
0.0000000001
 40
0.0
 40
0.0
 40
0.0
 40
0.0
 40
1.0
 40
1.0
 40
1.0
 40
1.0
 10
1.1703
 20
9.97225
 30
0.0
 10
1.1703
 20
9.97225
 30
0.0
 10
1.1703
 20
8.42113
 30
0.0
 10
1.1703
 20
8.42113
 30
0.0
  0
SPLINE
  5
FF
330
1F
100
AcDbEntity
  8
0
370
    15
100
AcDbSpline
210
0.0
220
0.0
230
1.0
 70
    24
 71
     3
 72
     8
 73
     4
 74
     0
 42
0.0000000001
 43
0.0000000001
 40
0.0
 40
0.0
 40
0.0
 40
0.0
 40
1.0
 40
1.0
 40
1.0
 40
1.0
 10
1.1703
 20
9.97225
 30
0.0
 10
1.1703
 20
9.97225
 30
0.0
 10
1.1853
 20
9.97212
 30
0.0
 10
1.1853
 20
9.97212
 30
0.0
  0
SPLINE
  5
100
330
1F
100
AcDbEntity
  8
0
370
    15
100
AcDbSpline
210
0.0
220
0.0
230
1.0
 70
    24
 71
     3
 72
     8
 73
     4
 74
     0
 42
0.0000000001
 43
0.0000000001
 40
0.0
 40
0.0
 40
0.0
 40
0.0
 40
1.0
 40
1.0
 40
1.0
 40
1.0
 10
1.1703
 20
8.42113
 30
0.0
 10
1.1703
 20
8.42113
 30
0.0
 10
1.1853
 20
8.42113
 30
0.0
 10
1.1853
 20
8.42113
 30
0.0
  0
SPLINE
  5
101
330
1F
100
AcDbEntity
  8
0
100
AcDbSpline
210
0.0
220
0.0
230
1.0
 70
    27
 71
     3
 72
    12
 73
     8
 74
     0
 42
0.0000000001
 43
0.0000000001
 40
0.0
 40
0.0
 40
0.0
 40
0.0
 40
0.3333333333333333
 40
0.3333333333333333
 40
0.3333333333333333
 40
0.3333333333333333
 40
1.0
 40
1.0
 40
1.0
 40
1.0
 10
1.1703
 20
1.66596
 30
0.0
 10
1.1703
 20
1.66596
 30
0.0
 10
1.5005
 20
1.71676
 30
0.0
 10
1.5005
 20
1.71676
 30
0.0
 10
1.5005
 20
1.71676
 30
0.0
 10
1.5005
 20
1.71676
 30
0.0
 10
1.1703
 20
1.66596
 30
0.0
 10
1.1703
 20
1.66596
 30
0.0
  0
SPLINE
  5
102
330
1F
100
AcDbEntity
  8
0
100
AcDbSpline
210
0.0
220
0.0
230
1.0
 70
     8
 71
     3
 72
    12
 73
     8
 74
     0
 42
0.0000000001
 43
0.0000000001
 40
0.0
 40
0.0
 40
0.0
 40
0.0
 40
0.3333333333333333
 40
0.3333333333333333
 40
0.3333333333333333
 40
0.3333333333333333
 40
1.0
 40
1.0
 40
1.0
 40
1.0
 10
1.5005
 20
1.71676
 30
0.0
 10
1.5005
 20
1.71676
 30
0.0
 10
1.5005
 20
1.61516
 30
0.0
 10
1.5005
 20
1.61516
 30
0.0
 10
1.5005
 20
1.61516
 30
0.0
 10
1.5005
 20
1.61516
 30
0.0
 10
1.1703
 20
1.66596
 30
0.0
 10
1.1703
 20
1.66596
 30
0.0
  0
SPLINE
  5
103
330
1F
100
AcDbEntity
  8
0
370
     9
100
AcDbSpline
210
0.0
220
0.0
230
1.0
 70
    24
 71
     3
 72
     8
 73
     4
 74
     0
 42
0.0000000001
 43
0.0000000001
 40
0.0
 40
0.0
 40
0.0
 40
0.0
 40
1.0
 40
1.0
 40
1.0
 40
1.0
 10
1.1703
 20
1.66596
 30
0.0
 10
1.1703
 20
1.66596
 30
0.0
 10
1.5005
 20
1.71676
 30
0.0
 10
1.5005
 20
1.71676
 30
0.0
  0
SPLINE
  5
104
330
1F
100
AcDbEntity
  8
0
370
     9
100
AcDbSpline
210
0.0
220
0.0
230
1.0
 70
     8
 71
     3
 72
    12
 73
     8
 74
     0
 42
0.0000000001
 43
0.0000000001
 40
0.0
 40
0.0
 40
0.0
 40
0.0
 40
0.3333333333333333
 40
0.3333333333333333
 40
0.3333333333333333
 40
0.3333333333333333
 40
1.0
 40
1.0
 40
1.0
 40
1.0
 10
1.5005
 20
1.71676
 30
0.0
 10
1.5005
 20
1.71676
 30
0.0
 10
1.5005
 20
1.61516
 30
0.0
 10
1.5005
 20
1.61516
 30
0.0
 10
1.5005
 20
1.61516
 30
0.0
 10
1.5005
 20
1.61516
 30
0.0
 10
1.1703
 20
1.66596
 30
0.0
 10
1.1703
 20
1.66596
 30
0.0
  0
SPLINE
  5
105
330
1F
100
AcDbEntity
  8
0
100
AcDbSpline
210
0.0
220
0.0
230
1.0
 70
    27
 71
     3
 72
    12
 73
     8
 74
     0
 42
0.0000000001
 43
0.0000000001
 40
0.0
 40
0.0
 40
0.0
 40
0.0
 40
0.3333333333333333
 40
0.3333333333333333
 40
0.3333333333333333
 40
0.3333333333333333
 40
1.0
 40
1.0
 40
1.0
 40
1.0
 10
7.4203
 20
1.66596
 30
0.0
 10
7.4203
 20
1.66596
 30
0.0
 10
7.0901
 20
1.61516
 30
0.0
 10
7.0901
 20
1.61516
 30
0.0
 10
7.0901
 20
1.61516
 30
0.0
 10
7.0901
 20
1.61516
 30
0.0
 10
7.4203
 20
1.66596
 30
0.0
 10
7.4203
 20
1.66596
 30
0.0
  0
SPLINE
  5
106
330
1F
100
AcDbEntity
  8
0
100
AcDbSpline
210
0.0
220
0.0
230
1.0
 70
     8
 71
     3
 72
    12
 73
     8
 74
     0
 42
0.0000000001
 43
0.0000000001
 40
0.0
 40
0.0
 40
0.0
 40
0.0
 40
0.3333333333333333
 40
0.3333333333333333
 40
0.3333333333333333
 40
0.3333333333333333
 40
1.0
 40
1.0
 40
1.0
 40
1.0
 10
7.0901
 20
1.61516
 30
0.0
 10
7.0901
 20
1.61516
 30
0.0
 10
7.0901
 20
1.71676
 30
0.0
 10
7.0901
 20
1.71676
 30
0.0
 10
7.0901
 20
1.71676
 30
0.0
 10
7.0901
 20
1.71676
 30
0.0
 10
7.4203
 20
1.66596
 30
0.0
 10
7.4203
 20
1.66596
 30
0.0
  0
SPLINE
  5
107
330
1F
100
AcDbEntity
  8
0
370
     9
100
AcDbSpline
210
0.0
220
0.0
230
1.0
 70
    24
 71
     3
 72
     8
 73
     4
 74
     0
 42
0.0000000001
 43
0.0000000001
 40
0.0
 40
0.0
 40
0.0
 40
0.0
 40
1.0
 40
1.0
 40
1.0
 40
1.0
 10
7.4203
 20
1.66596
 30
0.0
 10
7.4203
 20
1.66596
 30
0.0
 10
7.0901
 20
1.61516
 30
0.0
 10
7.0901
 20
1.61516
 30
0.0
  0
SPLINE
  5
108
330
1F
100
AcDbEntity
  8
0
370
     9
100
AcDbSpline
210
0.0
220
0.0
230
1.0
 70
     8
 71
     3
 72
    12
 73
     8
 74
     0
 42
0.0000000001
 43
0.0000000001
 40
0.0
 40
0.0
 40
0.0
 40
0.0
 40
0.3333333333333333
 40
0.3333333333333333
 40
0.3333333333333333
 40
0.3333333333333333
 40
1.0
 40
1.0
 40
1.0
 40
1.0
 10
7.0901
 20
1.61516
 30
0.0
 10
7.0901
 20
1.61516
 30
0.0
 10
7.0901
 20
1.71676
 30
0.0
 10
7.0901
 20
1.71676
 30
0.0
 10
7.0901
 20
1.71676
 30
0.0
 10
7.0901
 20
1.71676
 30
0.0
 10
7.4203
 20
1.66596
 30
0.0
 10
7.4203
 20
1.66596
 30
0.0
  0
SPLINE
  5
109
330
1F
100
AcDbEntity
  8
0
370
     9
100
AcDbSpline
210
0.0
220
0.0
230
1.0
 70
    24
 71
     3
 72
     8
 73
     4
 74
     0
 42
0.0000000001
 43
0.0000000001
 40
0.0
 40
0.0
 40
0.0
 40
0.0
 40
1.0
 40
1.0
 40
1.0
 40
1.0
 10
1.1703
 20
6.22183
 30
0.0
 10
1.1703
 20
6.22183
 30
0.0
 10
1.1703
 20
1.56596
 30
0.0
 10
1.1703
 20
1.56596
 30
0.0
  0
SPLINE
  5
10A
330
1F
100
AcDbEntity
  8
0
370
     9
100
AcDbSpline
210
0.0
220
0.0
230
1.0
 70
    24
 71
     3
 72
     8
 73
     4
 74
     0
 42
0.0000000001
 43
0.0000000001
 40
0.0
 40
0.0
 40
0.0
 40
0.0
 40
1.0
 40
1.0
 40
1.0
 40
1.0
 10
7.4203
 20
6.22183
 30
0.0
 10
7.4203
 20
6.22183
 30
0.0
 10
7.4203
 20
1.56596
 30
0.0
 10
7.4203
 20
1.56596
 30
0.0
  0
SPLINE
  5
10B
330
1F
100
AcDbEntity
  8
0
370
     9
100
AcDbSpline
210
0.0
220
0.0
230
1.0
 70
    24
 71
     3
 72
     8
 73
     4
 74
     0
 42
0.0000000001
 43
0.0000000001
 40
0.0
 40
0.0
 40
0.0
 40
0.0
 40
1.0
 40
1.0
 40
1.0
 40
1.0
 10
1.1703
 20
1.66596
 30
0.0
 10
1.1703
 20
1.66596
 30
0.0
 10
7.4203
 20
1.66596
 30
0.0
 10
7.4203
 20
1.66596
 30
0.0
  0
SPLINE
  5
10C
330
1F
100
AcDbEntity
  8
0
100
AcDbSpline
210
0.0
220
0.0
230
1.0
 70
    11
 71
     3
 72
    64
 73
    60
 74
     0
 42
0.0000000001
 43
0.0000000001
 40
0.0
 40
0.0
 40
0.0
 40
0.0
 40
0.0625
 40
0.0625
 40
0.0625
 40
0.0625
 40
0.125
 40
0.125
 40
0.125
 40
0.125
 40
0.1875
 40
0.1875
 40
0.1875
 40
0.1875
 40
0.25
 40
0.25
 40
0.25
 40
0.25
 40
0.3125
 40
0.3125
 40
0.3125
 40
0.3125
 40
0.375
 40
0.375
 40
0.375
 40
0.375
 40
0.4375
 40
0.4375
 40
0.4375
 40
0.4375
 40
0.5
 40
0.5
 40
0.5
 40
0.5
 40
0.5625
 40
0.5625
 40
0.5625
 40
0.5625
 40
0.625
 40
0.625
 40
0.625
 40
0.625
 40
0.6875
 40
0.6875
 40
0.6875
 40
0.6875
 40
0.75
 40
0.75
 40
0.75
 40
0.75
 40
0.8125
 40
0.8125
 40
0.8125
 40
0.8125
 40
0.875
 40
0.875
 40
0.875
 40
0.875
 40
1.0
 40
1.0
 40
1.0
 40
1.0
 10
2.82731
 20
1.80561
 30
0.0
 10
2.82731
 20
1.80561
 30
0.0
 10
2.82731
 20
2.05615
 30
0.0
 10
2.82731
 20
2.05615
 30
0.0
 10
2.82731
 20
2.05615
 30
0.0
 10
2.82731
 20
2.05615
 30
0.0
 10
2.87724
 20
2.05615
 30
0.0
 10
2.87724
 20
2.05615
 30
0.0
 10
2.87724
 20
2.05615
 30
0.0
 10
2.87724
 20
2.05615
 30
0.0
 10
2.93651
 20
1.87876
 30
0.0
 10
2.93651
 20
1.87876
 30
0.0
 10
2.93651
 20
1.87876
 30
0.0
 10
2.94199
 20
1.86225
 30
0.0
 10
2.94602
 20
1.84988
 30
0.0
 10
2.94847
 20
1.84166
 30
0.0
 10
2.94847
 20
1.84166
 30
0.0
 10
2.95132
 20
1.85076
 30
0.0
 10
2.95576
 20
1.86418
 30
0.0
 10
2.96182
 20
1.88185
 30
0.0
 10
2.96182
 20
1.88185
 30
0.0
 10
2.96182
 20
1.88185
 30
0.0
 10
3.02179
 20
2.05615
 30
0.0
 10
3.02179
 20
2.05615
 30
0.0
 10
3.02179
 20
2.05615
 30
0.0
 10
3.02179
 20
2.05615
 30
0.0
 10
3.06642
 20
2.05615
 30
0.0
 10
3.06642
 20
2.05615
 30
0.0
 10
3.06642
 20
2.05615
 30
0.0
 10
3.06642
 20
2.05615
 30
0.0
 10
3.06642
 20
1.80561
 30
0.0
 10
3.06642
 20
1.80561
 30
0.0
 10
3.06642
 20
1.80561
 30
0.0
 10
3.06642
 20
1.80561
 30
0.0
 10
3.03445
 20
1.80561
 30
0.0
 10
3.03445
 20
1.80561
 30
0.0
 10
3.03445
 20
1.80561
 30
0.0
 10
3.03445
 20
1.80561
 30
0.0
 10
3.03445
 20
2.01532
 30
0.0
 10
3.03445
 20
2.01532
 30
0.0
 10
3.03445
 20
2.01532
 30
0.0
 10
3.03445
 20
2.01532
 30
0.0
 10
2.96165
 20
1.80561
 30
0.0
 10
2.96165
 20
1.80561
 30
0.0
 10
2.96165
 20
1.80561
 30
0.0
 10
2.96165
 20
1.80561
 30
0.0
 10
2.93172
 20
1.80561
 30
0.0
 10
2.93172
 20
1.80561
 30
0.0
 10
2.93172
 20
1.80561
 30
0.0
 10
2.93172
 20
1.80561
 30
0.0
 10
2.85927
 20
2.01888
 30
0.0
 10
2.85927
 20
2.01888
 30
0.0
 10
2.85927
 20
2.01888
 30
0.0
 10
2.85927
 20
2.01888
 30
0.0
 10
2.85927
 20
1.80561
 30
0.0
 10
2.85927
 20
1.80561
 30
0.0
 10
2.85927
 20
1.80561
 30
0.0
 10
2.85927
 20
1.80561
 30
0.0
 10
2.82731
 20
1.80561
 30
0.0
 10
2.82731
 20
1.80561
 30
0.0
  0
SPLINE
  5
10D
330
1F
100
AcDbEntity
  8
0
100
AcDbSpline
210
0.0
220
0.0
230
1.0
 70
    11
 71
     3
 72
   112
 73
   108
 74
     0
 42
0.0000000001
 43
0.0000000001
 40
0.0
 40
0.0
 40
0.0
 40
0.0
 40
0.0357142857142857
 40
0.0357142857142857
 40
0.0357142857142857
 40
0.0357142857142857
 40
0.0714285714285714
 40
0.0714285714285714
 40
0.0714285714285714
 40
0.0714285714285714
 40
0.1071428571428571
 40
0.1071428571428571
 40
0.1071428571428571
 40
0.1071428571428571
 40
0.1428571428571428
 40
0.1428571428571428
 40
0.1428571428571428
 40
0.1428571428571428
 40
0.1785714285714286
 40
0.1785714285714286
 40
0.1785714285714286
 40
0.1785714285714286
 40
0.2142857142857143
 40
0.2142857142857143
 40
0.2142857142857143
 40
0.2142857142857143
 40
0.25
 40
0.25
 40
0.25
 40
0.25
 40
0.2857142857142857
 40
0.2857142857142857
 40
0.2857142857142857
 40
0.2857142857142857
 40
0.3214285714285715
 40
0.3214285714285715
 40
0.3214285714285715
 40
0.3214285714285715
 40
0.3571428571428572
 40
0.3571428571428572
 40
0.3571428571428572
 40
0.3571428571428572
 40
0.3928571428571428
 40
0.3928571428571428
 40
0.3928571428571428
 40
0.3928571428571428
 40
0.4285714285714285
 40
0.4285714285714285
 40
0.4285714285714285
 40
0.4285714285714285
 40
0.4642857142857143
 40
0.4642857142857143
 40
0.4642857142857143
 40
0.4642857142857143
 40
0.5
 40
0.5
 40
0.5
 40
0.5
 40
0.5357142857142857
 40
0.5357142857142857
 40
0.5357142857142857
 40
0.5357142857142857
 40
0.5714285714285714
 40
0.5714285714285714
 40
0.5714285714285714
 40
0.5714285714285714
 40
0.6071428571428571
 40
0.6071428571428571
 40
0.6071428571428571
 40
0.6071428571428571
 40
0.6428571428571429
 40
0.6428571428571429
 40
0.6428571428571429
 40
0.6428571428571429
 40
0.6785714285714286
 40
0.6785714285714286
 40
0.6785714285714286
 40
0.6785714285714286
 40
0.7142857142857143
 40
0.7142857142857143
 40
0.7142857142857143
 40
0.7142857142857143
 40
0.75
 40
0.75
 40
0.75
 40
0.75
 40
0.7857142857142857
 40
0.7857142857142857
 40
0.7857142857142857
 40
0.7857142857142857
 40
0.8214285714285714
 40
0.8214285714285714
 40
0.8214285714285714
 40
0.8214285714285714
 40
0.8571428571428571
 40
0.8571428571428571
 40
0.8571428571428571
 40
0.8571428571428571
 40
0.8928571428571429
 40
0.8928571428571429
 40
0.8928571428571429
 40
0.8928571428571429
 40
0.9285714285714286
 40
0.9285714285714286
 40
0.9285714285714286
 40
0.9285714285714286
 40
1.0
 40
1.0
 40
1.0
 40
1.0
 10
3.23442
 20
1.82801
 30
0.0
 10
3.22298
 20
1.81833
 30
0.0
 10
3.21202
 20
1.8115
 30
0.0
 10
3.20152
 20
1.80748
 30
0.0
 10
3.20152
 20
1.80748
 30
0.0
 10
3.19096
 20
1.80351
 30
0.0
 10
3.17964
 20
1.80153
 30
0.0
 10
3.16757
 20
1.80153
 30
0.0
 10
3.16757
 20
1.80153
 30
0.0
 10
3.14762
 20
1.80153
 30
0.0
 10
3.13233
 20
1.80637
 30
0.0
 10
3.1216
 20
1.81611
 30
0.0
 10
3.1216
 20
1.81611
 30
0.0
 10
3.11092
 20
1.82585
 30
0.0
 10
3.10556
 20
1.83833
 30
0.0
 10
3.10556
 20
1.85344
 30
0.0
 10
3.10556
 20
1.85344
 30
0.0
 10
3.10556
 20
1.86237
 30
0.0
 10
3.10754
 20
1.87048
 30
0.0
 10
3.11162
 20
1.87783
 30
0.0
 10
3.11162
 20
1.87783
 30
0.0
 10
3.11565
 20
1.88518
 30
0.0
 10
3.12096
 20
1.89107
 30
0.0
 10
3.12749
 20
1.8955
 30
0.0
 10
3.12749
 20
1.8955
 30
0.0
 10
3.13408
 20
1.89993
 30
0.0
 10
3.14143
 20
1.90332
 30
0.0
 10
3.14966
 20
1.90559
 30
0.0
 10
3.14966
 20
1.90559
 30
0.0
 10
3.15567
 20
1.90717
 30
0.0
 10
3.16477
 20
1.90874
 30
0.0
 10
3.17696
 20
1.9102
 30
0.0
 10
3.17696
 20
1.9102
 30
0.0
 10
3.20181
 20
1.91318
 30
0.0
 10
3.22012
 20
1.91668
 30
0.0
 10
3.23185
 20
1.92082
 30
0.0
 10
3.23185
 20
1.92082
 30
0.0
 10
3.23197
 20
1.92502
 30
0.0
 10
3.23202
 20
1.9277
 30
0.0
 10
3.23202
 20
1.92881
 30
0.0
 10
3.23202
 20
1.92881
 30
0.0
 10
3.23202
 20
1.94135
 30
0.0
 10
3.22911
 20
1.95022
 30
0.0
 10
3.22327
 20
1.95529
 30
0.0
 10
3.22327
 20
1.95529
 30
0.0
 10
3.21546
 20
1.96229
 30
0.0
 10
3.20373
 20
1.96573
 30
0.0
 10
3.18827
 20
1.96573
 30
0.0
 10
3.18827
 20
1.96573
 30
0.0
 10
3.17381
 20
1.96573
 30
0.0
 10
3.16313
 20
1.96323
 30
0.0
 10
3.15619
 20
1.95815
 30
0.0
 10
3.15619
 20
1.95815
 30
0.0
 10
3.14931
 20
1.95308
 30
0.0
 10
3.14423
 20
1.94409
 30
0.0
 10
3.14091
 20
1.9312
 30
0.0
 10
3.14091
 20
1.9312
 30
0.0
 10
3.14091
 20
1.9312
 30
0.0
 10
3.11087
 20
1.93534
 30
0.0
 10
3.11087
 20
1.93534
 30
0.0
 10
3.11087
 20
1.93534
 30
0.0
 10
3.11361
 20
1.94818
 30
0.0
 10
3.1181
 20
1.95862
 30
0.0
 10
3.12434
 20
1.96649
 30
0.0
 10
3.12434
 20
1.96649
 30
0.0
 10
3.13058
 20
1.97443
 30
0.0
 10
3.13968
 20
1.98055
 30
0.0
 10
3.15152
 20
1.98481
 30
0.0
 10
3.15152
 20
1.98481
 30
0.0
 10
3.16337
 20
1.98907
 30
0.0
 10
3.17707
 20
1.99123
 30
0.0
 10
3.19271
 20
1.99123
 30
0.0
 10
3.19271
 20
1.99123
 30
0.0
 10
3.20822
 20
1.99123
 30
0.0
 10
3.22077
 20
1.98936
 30
0.0
 10
3.23045
 20
1.98574
 30
0.0
 10
3.23045
 20
1.98574
 30
0.0
 10
3.24013
 20
1.98207
 30
0.0
 10
3.24725
 20
1.97752
 30
0.0
 10
3.25186
 20
1.97198
 30
0.0
 10
3.25186
 20
1.97198
 30
0.0
 10
3.25641
 20
1.96643
 30
0.0
 10
3.25956
 20
1.95949
 30
0.0
 10
3.26142
 20
1.95103
 30
0.0
 10
3.26142
 20
1.95103
 30
0.0
 10
3.26242
 20
1.94578
 30
0.0
 10
3.26294
 20
1.93633
 30
0.0
 10
3.26294
 20
1.92268
 30
0.0
 10
3.26294
 20
1.92268
 30
0.0
 10
3.26294
 20
1.92268
 30
0.0
 10
3.26294
 20
1.88168
 30
0.0
 10
3.26294
 20
1.88168
 30
0.0
 10
3.26294
 20
1.88168
 30
0.0
 10
3.26294
 20
1.85303
 30
0.0
 10
3.26358
 20
1.83495
 30
0.0
 10
3.26492
 20
1.82743
 30
0.0
 10
3.26492
 20
1.82743
 30
0.0
 10
3.26621
 20
1.81984
 30
0.0
 10
3.26883
 20
1.81255
 30
0.0
 10
3.27268
 20
1.80561
 30
0.0
 10
3.27268
 20
1.80561
 30
0.0
 10
3.27268
 20
1.80561
 30
0.0
 10
3.24054
 20
1.80561
 30
0.0
 10
3.24054
 20
1.80561
 30
0.0
 10
3.24054
 20
1.80561
 30
0.0
 10
3.23739
 20
1.81197
 30
0.0
 10
3.23529
 20
1.81943
 30
0.0
 10
3.23442
 20
1.82801
 30
0.0
  0
SPLINE
  5
10E
330
1F
100
AcDbEntity
  8
0
100
AcDbSpline
210
0.0
220
0.0
230
1.0
 70
    11
 71
     3
 72
    44
 73
    40
 74
     0
 42
0.0000000001
 43
0.0000000001
 40
0.0
 40
0.0
 40
0.0
 40
0.0
 40
0.0909090909090909
 40
0.0909090909090909
 40
0.0909090909090909
 40
0.0909090909090909
 40
0.1818181818181818
 40
0.1818181818181818
 40
0.1818181818181818
 40
0.1818181818181818
 40
0.2727272727272727
 40
0.2727272727272727
 40
0.2727272727272727
 40
0.2727272727272727
 40
0.3636363636363636
 40
0.3636363636363636
 40
0.3636363636363636
 40
0.3636363636363636
 40
0.4545454545454545
 40
0.4545454545454545
 40
0.4545454545454545
 40
0.4545454545454545
 40
0.5454545454545454
 40
0.5454545454545454
 40
0.5454545454545454
 40
0.5454545454545454
 40
0.6363636363636364
 40
0.6363636363636364
 40
0.6363636363636364
 40
0.6363636363636364
 40
0.7272727272727273
 40
0.7272727272727273
 40
0.7272727272727273
 40
0.7272727272727273
 40
0.8181818181818182
 40
0.8181818181818182
 40
0.8181818181818182
 40
0.8181818181818182
 40
1.0
 40
1.0
 40
1.0
 40
1.0
 10
3.23185
 20
1.89673
 30
0.0
 10
3.22065
 20
1.89212
 30
0.0
 10
3.20391
 20
1.88827
 30
0.0
 10
3.18162
 20
1.88506
 30
0.0
 10
3.18162
 20
1.88506
 30
0.0
 10
3.16897
 20
1.88325
 30
0.0
 10
3.15998
 20
1.88121
 30
0.0
 10
3.15479
 20
1.87893
 30
0.0
 10
3.15479
 20
1.87893
 30
0.0
 10
3.14954
 20
1.87666
 30
0.0
 10
3.14546
 20
1.87333
 30
0.0
 10
3.14266
 20
1.8689
 30
0.0
 10
3.14266
 20
1.8689
 30
0.0
 10
3.1398
 20
1.86453
 30
0.0
 10
3.13834
 20
1.85968
 30
0.0
 10
3.13834
 20
1.85432
 30
0.0
 10
3.13834
 20
1.85432
 30
0.0
 10
3.13834
 20
1.84609
 30
0.0
 10
3.14149
 20
1.83927
 30
0.0
 10
3.14767
 20
1.83378
 30
0.0
 10
3.14767
 20
1.83378
 30
0.0
 10
3.15386
 20
1.82836
 30
0.0
 10
3.16296
 20
1.82562
 30
0.0
 10
3.17492
 20
1.82562
 30
0.0
 10
3.17492
 20
1.82562
 30
0.0
 10
3.18676
 20
1.82562
 30
0.0
 10
3.19732
 20
1.82818
 30
0.0
 10
3.20653
 20
1.83338
 30
0.0
 10
3.20653
 20
1.83338
 30
0.0
 10
3.21575
 20
1.83857
 30
0.0
 10
3.22257
 20
1.84568
 30
0.0
 10
3.22689
 20
1.85467
 30
0.0
 10
3.22689
 20
1.85467
 30
0.0
 10
3.23022
 20
1.86161
 30
0.0
 10
3.23185
 20
1.87188
 30
0.0
 10
3.23185
 20
1.88541
 30
0.0
 10
3.23185
 20
1.88541
 30
0.0
 10
3.23185
 20
1.88541
 30
0.0
 10
3.23185
 20
1.89673
 30
0.0
 10
3.23185
 20
1.89673
 30
0.0
  0
SPLINE
  5
10F
330
1F
100
AcDbEntity
  8
0
100
AcDbSpline
210
0.0
220
0.0
230
1.0
 70
    11
 71
     3
 72
    64
 73
    60
 74
     0
 42
0.0000000001
 43
0.0000000001
 40
0.0
 40
0.0
 40
0.0
 40
0.0
 40
0.0625
 40
0.0625
 40
0.0625
 40
0.0625
 40
0.125
 40
0.125
 40
0.125
 40
0.125
 40
0.1875
 40
0.1875
 40
0.1875
 40
0.1875
 40
0.25
 40
0.25
 40
0.25
 40
0.25
 40
0.3125
 40
0.3125
 40
0.3125
 40
0.3125
 40
0.375
 40
0.375
 40
0.375
 40
0.375
 40
0.4375
 40
0.4375
 40
0.4375
 40
0.4375
 40
0.5
 40
0.5
 40
0.5
 40
0.5
 40
0.5625
 40
0.5625
 40
0.5625
 40
0.5625
 40
0.625
 40
0.625
 40
0.625
 40
0.625
 40
0.6875
 40
0.6875
 40
0.6875
 40
0.6875
 40
0.75
 40
0.75
 40
0.75
 40
0.75
 40
0.8125
 40
0.8125
 40
0.8125
 40
0.8125
 40
0.875
 40
0.875
 40
0.875
 40
0.875
 40
1.0
 40
1.0
 40
1.0
 40
1.0
 10
3.29013
 20
1.80561
 30
0.0
 10
3.29013
 20
1.80561
 30
0.0
 10
3.35645
 20
1.89993
 30
0.0
 10
3.35645
 20
1.89993
 30
0.0
 10
3.35645
 20
1.89993
 30
0.0
 10
3.35645
 20
1.89993
 30
0.0
 10
3.29508
 20
1.98708
 30
0.0
 10
3.29508
 20
1.98708
 30
0.0
 10
3.29508
 20
1.98708
 30
0.0
 10
3.29508
 20
1.98708
 30
0.0
 10
3.33353
 20
1.98708
 30
0.0
 10
3.33353
 20
1.98708
 30
0.0
 10
3.33353
 20
1.98708
 30
0.0
 10
3.33353
 20
1.98708
 30
0.0
 10
3.36141
 20
1.94456
 30
0.0
 10
3.36141
 20
1.94456
 30
0.0
 10
3.36141
 20
1.94456
 30
0.0
 10
3.3666
 20
1.93645
 30
0.0
 10
3.37086
 20
1.92968
 30
0.0
 10
3.37401
 20
1.9242
 30
0.0
 10
3.37401
 20
1.9242
 30
0.0
 10
3.37903
 20
1.93173
 30
0.0
 10
3.38363
 20
1.93838
 30
0.0
 10
3.38789
 20
1.94421
 30
0.0
 10
3.38789
 20
1.94421
 30
0.0
 10
3.38789
 20
1.94421
 30
0.0
 10
3.41846
 20
1.98708
 30
0.0
 10
3.41846
 20
1.98708
 30
0.0
 10
3.41846
 20
1.98708
 30
0.0
 10
3.41846
 20
1.98708
 30
0.0
 10
3.45521
 20
1.98708
 30
0.0
 10
3.45521
 20
1.98708
 30
0.0
 10
3.45521
 20
1.98708
 30
0.0
 10
3.45521
 20
1.98708
 30
0.0
 10
3.3925
 20
1.90163
 30
0.0
 10
3.3925
 20
1.90163
 30
0.0
 10
3.3925
 20
1.90163
 30
0.0
 10
3.3925
 20
1.90163
 30
0.0
 10
3.45999
 20
1.80561
 30
0.0
 10
3.45999
 20
1.80561
 30
0.0
 10
3.45999
 20
1.80561
 30
0.0
 10
3.45999
 20
1.80561
 30
0.0
 10
3.42225
 20
1.80561
 30
0.0
 10
3.42225
 20
1.80561
 30
0.0
 10
3.42225
 20
1.80561
 30
0.0
 10
3.42225
 20
1.80561
 30
0.0
 10
3.38498
 20
1.86202
 30
0.0
 10
3.38498
 20
1.86202
 30
0.0
 10
3.38498
 20
1.86202
 30
0.0
 10
3.38498
 20
1.86202
 30
0.0
 10
3.37506
 20
1.87724
 30
0.0
 10
3.37506
 20
1.87724
 30
0.0
 10
3.37506
 20
1.87724
 30
0.0
 10
3.37506
 20
1.87724
 30
0.0
 10
3.3274
 20
1.80561
 30
0.0
 10
3.3274
 20
1.80561
 30
0.0
 10
3.3274
 20
1.80561
 30
0.0
 10
3.3274
 20
1.80561
 30
0.0
 10
3.29013
 20
1.80561
 30
0.0
 10
3.29013
 20
1.80561
 30
0.0
  0
SPLINE
  5
110
330
1F
100
AcDbEntity
  8
0
100
AcDbSpline
210
0.0
220
0.0
230
1.0
 70
    11
 71
     3
 72
    20
 73
    16
 74
     0
 42
0.0000000001
 43
0.0000000001
 40
0.0
 40
0.0
 40
0.0
 40
0.0
 40
0.2
 40
0.2
 40
0.2
 40
0.2
 40
0.4
 40
0.4
 40
0.4
 40
0.4
 40
0.6
 40
0.6
 40
0.6
 40
0.6
 40
1.0
 40
1.0
 40
1.0
 40
1.0
 10
3.49435
 20
1.80561
 30
0.0
 10
3.49435
 20
1.80561
 30
0.0
 10
3.49435
 20
1.84067
 30
0.0
 10
3.49435
 20
1.84067
 30
0.0
 10
3.49435
 20
1.84067
 30
0.0
 10
3.49435
 20
1.84067
 30
0.0
 10
3.52941
 20
1.84067
 30
0.0
 10
3.52941
 20
1.84067
 30
0.0
 10
3.52941
 20
1.84067
 30
0.0
 10
3.52941
 20
1.84067
 30
0.0
 10
3.52941
 20
1.80561
 30
0.0
 10
3.52941
 20
1.80561
 30
0.0
 10
3.52941
 20
1.80561
 30
0.0
 10
3.52941
 20
1.80561
 30
0.0
 10
3.49435
 20
1.80561
 30
0.0
 10
3.49435
 20
1.80561
 30
0.0
  0
SPLINE
  5
111
330
1F
100
AcDbEntity
  8
0
100
AcDbSpline
210
0.0
220
0.0
230
1.0
 70
    11
 71
     3
 72
    84
 73
    80
 74
     0
 42
0.0000000001
 43
0.0000000001
 40
0.0
 40
0.0
 40
0.0
 40
0.0
 40
0.0476190476190476
 40
0.0476190476190476
 40
0.0476190476190476
 40
0.0476190476190476
 40
0.0952380952380952
 40
0.0952380952380952
 40
0.0952380952380952
 40
0.0952380952380952
 40
0.1428571428571428
 40
0.1428571428571428
 40
0.1428571428571428
 40
0.1428571428571428
 40
0.1904761904761905
 40
0.1904761904761905
 40
0.1904761904761905
 40
0.1904761904761905
 40
0.2380952380952381
 40
0.2380952380952381
 40
0.2380952380952381
 40
0.2380952380952381
 40
0.2857142857142857
 40
0.2857142857142857
 40
0.2857142857142857
 40
0.2857142857142857
 40
0.3333333333333333
 40
0.3333333333333333
 40
0.3333333333333333
 40
0.3333333333333333
 40
0.3809523809523809
 40
0.3809523809523809
 40
0.3809523809523809
 40
0.3809523809523809
 40
0.4285714285714285
 40
0.4285714285714285
 40
0.4285714285714285
 40
0.4285714285714285
 40
0.4761904761904762
 40
0.4761904761904762
 40
0.4761904761904762
 40
0.4761904761904762
 40
0.5238095238095238
 40
0.5238095238095238
 40
0.5238095238095238
 40
0.5238095238095238
 40
0.5714285714285714
 40
0.5714285714285714
 40
0.5714285714285714
 40
0.5714285714285714
 40
0.6190476190476191
 40
0.6190476190476191
 40
0.6190476190476191
 40
0.6190476190476191
 40
0.6666666666666666
 40
0.6666666666666666
 40
0.6666666666666666
 40
0.6666666666666666
 40
0.7142857142857143
 40
0.7142857142857143
 40
0.7142857142857143
 40
0.7142857142857143
 40
0.7619047619047619
 40
0.7619047619047619
 40
0.7619047619047619
 40
0.7619047619047619
 40
0.8095238095238095
 40
0.8095238095238095
 40
0.8095238095238095
 40
0.8095238095238095
 40
0.8571428571428571
 40
0.8571428571428571
 40
0.8571428571428571
 40
0.8571428571428571
 40
0.9047619047619048
 40
0.9047619047619048
 40
0.9047619047619048
 40
0.9047619047619048
 40
1.0
 40
1.0
 40
1.0
 40
1.0
 10
4.24532
 20
2.02789
 30
0.0
 10
4.24532
 20
2.02789
 30
0.0
 10
4.27402
 20
2.06003
 30
0.0
 10
4.27402
 20
2.06003
 30
0.0
 10
4.27402
 20
2.06003
 30
0.0
 10
4.27402
 20
2.06003
 30
0.0
 10
4.29093
 20
2.04568
 30
0.0
 10
4.29093
 20
2.04568
 30
0.0
 10
4.29093
 20
2.04568
 30
0.0
 10
4.29093
 20
2.04568
 30
0.0
 10
4.26089
 20
2.01184
 30
0.0
 10
4.26089
 20
2.01184
 30
0.0
 10
4.26089
 20
2.01184
 30
0.0
 10
4.27069
 20
1.99726
 30
0.0
 10
4.27728
 20
1.98449
 30
0.0
 10
4.28072
 20
1.97358
 30
0.0
 10
4.28072
 20
1.97358
 30
0.0
 10
4.28527
 20
1.95923
 30
0.0
 10
4.28755
 20
1.94313
 30
0.0
 10
4.28755
 20
1.92539
 30
0.0
 10
4.28755
 20
1.92539
 30
0.0
 10
4.28755
 20
1.89973
 30
0.0
 10
4.28236
 20
1.87686
 30
0.0
 10
4.27197
 20
1.85685
 30
0.0
 10
4.27197
 20
1.85685
 30
0.0
 10
4.26159
 20
1.83679
 30
0.0
 10
4.24707
 20
1.82162
 30
0.0
 10
4.22834
 20
1.81135
 30
0.0
 10
4.22834
 20
1.81135
 30
0.0
 10
4.20956
 20
1.80114
 30
0.0
 10
4.18967
 20
1.79601
 30
0.0
 10
4.16861
 20
1.79601
 30
0.0
 10
4.16861
 20
1.79601
 30
0.0
 10
4.15286
 20
1.79601
 30
0.0
 10
4.13862
 20
1.79823
 30
0.0
 10
4.12585
 20
1.80266
 30
0.0
 10
4.12585
 20
1.80266
 30
0.0
 10
4.11605
 20
1.8061
 30
0.0
 10
4.10462
 20
1.81264
 30
0.0
 10
4.09149
 20
1.82232
 30
0.0
 10
4.09149
 20
1.82232
 30
0.0
 10
4.09149
 20
1.82232
 30
0.0
 10
4.06279
 20
1.79018
 30
0.0
 10
4.06279
 20
1.79018
 30
0.0
 10
4.06279
 20
1.79018
 30
0.0
 10
4.06279
 20
1.79018
 30
0.0
 10
4.04587
 20
1.80453
 30
0.0
 10
4.04587
 20
1.80453
 30
0.0
 10
4.04587
 20
1.80453
 30
0.0
 10
4.04587
 20
1.80453
 30
0.0
 10
4.07597
 20
1.83819
 30
0.0
 10
4.07597
 20
1.83819
 30
0.0
 10
4.07597
 20
1.83819
 30
0.0
 10
4.06477
 20
1.85516
 30
0.0
 10
4.05731
 20
1.86969
 30
0.0
 10
4.05357
 20
1.8817
 30
0.0
 10
4.05357
 20
1.8817
 30
0.0
 10
4.04984
 20
1.89372
 30
0.0
 10
4.04792
 20
1.90819
 30
0.0
 10
4.04792
 20
1.92504
 30
0.0
 10
4.04792
 20
1.92504
 30
0.0
 10
4.04792
 20
1.95077
 30
0.0
 10
4.05305
 20
1.97369
 30
0.0
 10
4.06332
 20
1.99382
 30
0.0
 10
4.06332
 20
1.99382
 30
0.0
 10
4.07358
 20
2.01394
 30
0.0
 10
4.08793
 20
2.02917
 30
0.0
 10
4.10648
 20
2.03955
 30
0.0
 10
4.10648
 20
2.03955
 30
0.0
 10
4.12497
 20
2.04988
 30
0.0
 10
4.14557
 20
2.05507
 30
0.0
 10
4.16826
 20
2.05507
 30
0.0
 10
4.16826
 20
2.05507
 30
0.0
 10
4.18354
 20
2.05507
 30
0.0
 10
4.1969
 20
2.05309
 30
0.0
 10
4.20833
 20
2.049
 30
0.0
 10
4.20833
 20
2.049
 30
0.0
 10
4.21977
 20
2.04498
 30
0.0
 10
4.23213
 20
2.03792
 30
0.0
 10
4.24532
 20
2.02789
 30
0.0
  0
SPLINE
  5
112
330
1F
100
AcDbEntity
  8
0
100
AcDbSpline
210
0.0
220
0.0
230
1.0
 70
    11
 71
     3
 72
    32
 73
    28
 74
     0
 42
0.0000000001
 43
0.0000000001
 40
0.0
 40
0.0
 40
0.0
 40
0.0
 40
0.125
 40
0.125
 40
0.125
 40
0.125
 40
0.25
 40
0.25
 40
0.25
 40
0.25
 40
0.375
 40
0.375
 40
0.375
 40
0.375
 40
0.5
 40
0.5
 40
0.5
 40
0.5
 40
0.625
 40
0.625
 40
0.625
 40
0.625
 40
0.75
 40
0.75
 40
0.75
 40
0.75
 40
1.0
 40
1.0
 40
1.0
 40
1.0
 10
4.22484
 20
2.00484
 30
0.0
 10
4.21411
 20
2.01324
 30
0.0
 10
4.20472
 20
2.01902
 30
0.0
 10
4.19672
 20
2.02211
 30
0.0
 10
4.19672
 20
2.02211
 30
0.0
 10
4.18867
 20
2.02514
 30
0.0
 10
4.17922
 20
2.02672
 30
0.0
 10
4.16843
 20
2.02672
 30
0.0
 10
4.16843
 20
2.02672
 30
0.0
 10
4.14347
 20
2.02672
 30
0.0
 10
4.12287
 20
2.01826
 30
0.0
 10
4.10654
 20
2.00134
 30
0.0
 10
4.10654
 20
2.00134
 30
0.0
 10
4.09027
 20
1.98443
 30
0.0
 10
4.0821
 20
1.95917
 30
0.0
 10
4.0821
 20
1.92551
 30
0.0
 10
4.0821
 20
1.92551
 30
0.0
 10
4.0821
 20
1.91233
 30
0.0
 10
4.08338
 20
1.9006
 30
0.0
 10
4.08589
 20
1.89034
 30
0.0
 10
4.08589
 20
1.89034
 30
0.0
 10
4.0877
 20
1.88269
 30
0.0
 10
4.09149
 20
1.8733
 30
0.0
 10
4.09732
 20
1.86216
 30
0.0
 10
4.09732
 20
1.86216
 30
0.0
 10
4.09732
 20
1.86216
 30
0.0
 10
4.22484
 20
2.00484
 30
0.0
 10
4.22484
 20
2.00484
 30
0.0
  0
SPLINE
  5
113
330
1F
100
AcDbEntity
  8
0
100
AcDbSpline
210
0.0
220
0.0
230
1.0
 70
    11
 71
     3
 72
    28
 73
    24
 74
     0
 42
0.0000000001
 43
0.0000000001
 40
0.0
 40
0.0
 40
0.0
 40
0.0
 40
0.1428571428571428
 40
0.1428571428571428
 40
0.1428571428571428
 40
0.1428571428571428
 40
0.2857142857142857
 40
0.2857142857142857
 40
0.2857142857142857
 40
0.2857142857142857
 40
0.4285714285714285
 40
0.4285714285714285
 40
0.4285714285714285
 40
0.4285714285714285
 40
0.5714285714285714
 40
0.5714285714285714
 40
0.5714285714285714
 40
0.5714285714285714
 40
0.7142857142857143
 40
0.7142857142857143
 40
0.7142857142857143
 40
0.7142857142857143
 40
1.0
 40
1.0
 40
1.0
 40
1.0
 10
4.23884
 20
1.98723
 30
0.0
 10
4.23884
 20
1.98723
 30
0.0
 10
4.11185
 20
1.84507
 30
0.0
 10
4.11185
 20
1.84507
 30
0.0
 10
4.11185
 20
1.84507
 30
0.0
 10
4.1206
 20
1.83789
 30
0.0
 10
4.12871
 20
1.83288
 30
0.0
 10
4.13612
 20
1.83002
 30
0.0
 10
4.13612
 20
1.83002
 30
0.0
 10
4.1458
 20
1.82623
 30
0.0
 10
4.1563
 20
1.82436
 30
0.0
 10
4.16756
 20
1.82436
 30
0.0
 10
4.16756
 20
1.82436
 30
0.0
 10
4.19241
 20
1.82436
 30
0.0
 10
4.21288
 20
1.83311
 30
0.0
 10
4.2291
 20
1.85067
 30
0.0
 10
4.2291
 20
1.85067
 30
0.0
 10
4.24526
 20
1.86823
 30
0.0
 10
4.25337
 20
1.89284
 30
0.0
 10
4.25337
 20
1.92452
 30
0.0
 10
4.25337
 20
1.92452
 30
0.0
 10
4.25337
 20
1.9482
 30
0.0
 10
4.24852
 20
1.96914
 30
0.0
 10
4.23884
 20
1.98723
 30
0.0
  0
SPLINE
  5
114
330
1F
100
AcDbEntity
  8
0
100
AcDbSpline
210
0.0
220
0.0
230
1.0
 70
    11
 71
     3
 72
    40
 73
    36
 74
     0
 42
0.0000000001
 43
0.0000000001
 40
0.0
 40
0.0
 40
0.0
 40
0.0
 40
0.1
 40
0.1
 40
0.1
 40
0.1
 40
0.2
 40
0.2
 40
0.2
 40
0.2
 40
0.3
 40
0.3
 40
0.3
 40
0.3
 40
0.4
 40
0.4
 40
0.4
 40
0.4
 40
0.5
 40
0.5
 40
0.5
 40
0.5
 40
0.6
 40
0.6
 40
0.6
 40
0.6
 40
0.7
 40
0.7
 40
0.7
 40
0.7
 40
0.8
 40
0.8
 40
0.8
 40
0.8
 40
1.0
 40
1.0
 40
1.0
 40
1.0
 10
4.68991
 20
1.80561
 30
0.0
 10
4.68991
 20
1.80561
 30
0.0
 10
4.65917
 20
1.80561
 30
0.0
 10
4.65917
 20
1.80561
 30
0.0
 10
4.65917
 20
1.80561
 30
0.0
 10
4.65917
 20
1.80561
 30
0.0
 10
4.65917
 20
2.00161
 30
0.0
 10
4.65917
 20
2.00161
 30
0.0
 10
4.65917
 20
2.00161
 30
0.0
 10
4.65176
 20
1.99455
 30
0.0
 10
4.64208
 20
1.98749
 30
0.0
 10
4.63006
 20
1.98043
 30
0.0
 10
4.63006
 20
1.98043
 30
0.0
 10
4.61799
 20
1.97338
 30
0.0
 10
4.6072
 20
1.96807
 30
0.0
 10
4.59763
 20
1.96457
 30
0.0
 10
4.59763
 20
1.96457
 30
0.0
 10
4.59763
 20
1.96457
 30
0.0
 10
4.59763
 20
1.99426
 30
0.0
 10
4.59763
 20
1.99426
 30
0.0
 10
4.59763
 20
1.99426
 30
0.0
 10
4.61484
 20
2.00237
 30
0.0
 10
4.62989
 20
2.01217
 30
0.0
 10
4.64278
 20
2.02366
 30
0.0
 10
4.64278
 20
2.02366
 30
0.0
 10
4.65561
 20
2.03521
 30
0.0
 10
4.66477
 20
2.04635
 30
0.0
 10
4.67014
 20
2.0572
 30
0.0
 10
4.67014
 20
2.0572
 30
0.0
 10
4.67014
 20
2.0572
 30
0.0
 10
4.68991
 20
2.0572
 30
0.0
 10
4.68991
 20
2.0572
 30
0.0
 10
4.68991
 20
2.0572
 30
0.0
 10
4.68991
 20
2.0572
 30
0.0
 10
4.68991
 20
1.80561
 30
0.0
 10
4.68991
 20
1.80561
 30
0.0
  0
SPLINE
  5
115
330
1F
100
AcDbEntity
  8
0
100
AcDbSpline
210
0.0
220
0.0
230
1.0
 70
    11
 71
     3
 72
   124
 73
   120
 74
     0
 42
0.0000000001
 43
0.0000000001
 40
0.0
 40
0.0
 40
0.0
 40
0.0
 40
0.032258064516129
 40
0.032258064516129
 40
0.032258064516129
 40
0.032258064516129
 40
0.0645161290322581
 40
0.0645161290322581
 40
0.0645161290322581
 40
0.0645161290322581
 40
0.0967741935483871
 40
0.0967741935483871
 40
0.0967741935483871
 40
0.0967741935483871
 40
0.1290322580645161
 40
0.1290322580645161
 40
0.1290322580645161
 40
0.1290322580645161
 40
0.1612903225806452
 40
0.1612903225806452
 40
0.1612903225806452
 40
0.1612903225806452
 40
0.1935483870967742
 40
0.1935483870967742
 40
0.1935483870967742
 40
0.1935483870967742
 40
0.2258064516129032
 40
0.2258064516129032
 40
0.2258064516129032
 40
0.2258064516129032
 40
0.2580645161290323
 40
0.2580645161290323
 40
0.2580645161290323
 40
0.2580645161290323
 40
0.2903225806451613
 40
0.2903225806451613
 40
0.2903225806451613
 40
0.2903225806451613
 40
0.3225806451612903
 40
0.3225806451612903
 40
0.3225806451612903
 40
0.3225806451612903
 40
0.3548387096774194
 40
0.3548387096774194
 40
0.3548387096774194
 40
0.3548387096774194
 40
0.3870967741935484
 40
0.3870967741935484
 40
0.3870967741935484
 40
0.3870967741935484
 40
0.4193548387096774
 40
0.4193548387096774
 40
0.4193548387096774
 40
0.4193548387096774
 40
0.4516129032258064
 40
0.4516129032258064
 40
0.4516129032258064
 40
0.4516129032258064
 40
0.4838709677419355
 40
0.4838709677419355
 40
0.4838709677419355
 40
0.4838709677419355
 40
0.5161290322580645
 40
0.5161290322580645
 40
0.5161290322580645
 40
0.5161290322580645
 40
0.5483870967741935
 40
0.5483870967741935
 40
0.5483870967741935
 40
0.5483870967741935
 40
0.5806451612903226
 40
0.5806451612903226
 40
0.5806451612903226
 40
0.5806451612903226
 40
0.6129032258064516
 40
0.6129032258064516
 40
0.6129032258064516
 40
0.6129032258064516
 40
0.6451612903225806
 40
0.6451612903225806
 40
0.6451612903225806
 40
0.6451612903225806
 40
0.6774193548387096
 40
0.6774193548387096
 40
0.6774193548387096
 40
0.6774193548387096
 40
0.7096774193548387
 40
0.7096774193548387
 40
0.7096774193548387
 40
0.7096774193548387
 40
0.7419354838709677
 40
0.7419354838709677
 40
0.7419354838709677
 40
0.7419354838709677
 40
0.7741935483870968
 40
0.7741935483870968
 40
0.7741935483870968
 40
0.7741935483870968
 40
0.8064516129032258
 40
0.8064516129032258
 40
0.8064516129032258
 40
0.8064516129032258
 40
0.8387096774193549
 40
0.8387096774193549
 40
0.8387096774193549
 40
0.8387096774193549
 40
0.8709677419354839
 40
0.8709677419354839
 40
0.8709677419354839
 40
0.8709677419354839
 40
0.9032258064516129
 40
0.9032258064516129
 40
0.9032258064516129
 40
0.9032258064516129
 40
0.9354838709677419
 40
0.9354838709677419
 40
0.9354838709677419
 40
0.9354838709677419
 40
1.0
 40
1.0
 40
1.0
 40
1.0
 10
4.7689
 20
1.87176
 30
0.0
 10
4.7689
 20
1.87176
 30
0.0
 10
4.79964
 20
1.87584
 30
0.0
 10
4.79964
 20
1.87584
 30
0.0
 10
4.79964
 20
1.87584
 30
0.0
 10
4.8032
 20
1.8584
 30
0.0
 10
4.80921
 20
1.84586
 30
0.0
 10
4.81767
 20
1.83816
 30
0.0
 10
4.81767
 20
1.83816
 30
0.0
 10
4.82618
 20
1.83046
 30
0.0
 10
4.83651
 20
1.82661
 30
0.0
 10
4.8487
 20
1.82661
 30
0.0
 10
4.8487
 20
1.82661
 30
0.0
 10
4.86317
 20
1.82661
 30
0.0
 10
4.87542
 20
1.83163
 30
0.0
 10
4.88539
 20
1.84166
 30
0.0
 10
4.88539
 20
1.84166
 30
0.0
 10
4.89531
 20
1.85169
 30
0.0
 10
4.90032
 20
1.86412
 30
0.0
 10
4.90032
 20
1.87893
 30
0.0
 10
4.90032
 20
1.87893
 30
0.0
 10
4.90032
 20
1.89305
 30
0.0
 10
4.89572
 20
1.90472
 30
0.0
 10
4.8865
 20
1.91388
 30
0.0
 10
4.8865
 20
1.91388
 30
0.0
 10
4.87722
 20
1.92303
 30
0.0
 10
4.8655
 20
1.92764
 30
0.0
 10
4.85127
 20
1.92764
 30
0.0
 10
4.85127
 20
1.92764
 30
0.0
 10
4.84543
 20
1.92764
 30
0.0
 10
4.8382
 20
1.92648
 30
0.0
 10
4.82957
 20
1.9242
 30
0.0
 10
4.82957
 20
1.9242
 30
0.0
 10
4.82957
 20
1.9242
 30
0.0
 10
4.83301
 20
1.95121
 30
0.0
 10
4.83301
 20
1.95121
 30
0.0
 10
4.83301
 20
1.95121
 30
0.0
 10
4.83505
 20
1.95098
 30
0.0
 10
4.83668
 20
1.95086
 30
0.0
 10
4.83797
 20
1.95086
 30
0.0
 10
4.83797
 20
1.95086
 30
0.0
 10
4.85103
 20
1.95086
 30
0.0
 10
4.86282
 20
1.9543
 30
0.0
 10
4.87332
 20
1.96113
 30
0.0
 10
4.87332
 20
1.96113
 30
0.0
 10
4.88382
 20
1.96795
 30
0.0
 10
4.88907
 20
1.97851
 30
0.0
 10
4.88907
 20
1.99274
 30
0.0
 10
4.88907
 20
1.99274
 30
0.0
 10
4.88907
 20
2.004
 30
0.0
 10
4.88522
 20
2.01339
 30
0.0
 10
4.87757
 20
2.02074
 30
0.0
 10
4.87757
 20
2.02074
 30
0.0
 10
4.86993
 20
2.02815
 30
0.0
 10
4.86007
 20
2.03188
 30
0.0
 10
4.848
 20
2.03188
 30
0.0
 10
4.848
 20
2.03188
 30
0.0
 10
4.83604
 20
2.03188
 30
0.0
 10
4.82607
 20
2.02809
 30
0.0
 10
4.81813
 20
2.02063
 30
0.0
 10
4.81813
 20
2.02063
 30
0.0
 10
4.81014
 20
2.0131
 30
0.0
 10
4.80501
 20
2.00178
 30
0.0
 10
4.80273
 20
1.98673
 30
0.0
 10
4.80273
 20
1.98673
 30
0.0
 10
4.80273
 20
1.98673
 30
0.0
 10
4.77199
 20
1.99222
 30
0.0
 10
4.77199
 20
1.99222
 30
0.0
 10
4.77199
 20
1.99222
 30
0.0
 10
4.77572
 20
2.01287
 30
0.0
 10
4.7843
 20
2.02885
 30
0.0
 10
4.7976
 20
2.04017
 30
0.0
 10
4.7976
 20
2.04017
 30
0.0
 10
4.81096
 20
2.05148
 30
0.0
 10
4.82752
 20
2.0572
 30
0.0
 10
4.84736
 20
2.0572
 30
0.0
 10
4.84736
 20
2.0572
 30
0.0
 10
4.86101
 20
2.0572
 30
0.0
 10
4.87361
 20
2.05423
 30
0.0
 10
4.8851
 20
2.04839
 30
0.0
 10
4.8851
 20
2.04839
 30
0.0
 10
4.89659
 20
2.0425
 30
0.0
 10
4.9054
 20
2.03451
 30
0.0
 10
4.91152
 20
2.02436
 30
0.0
 10
4.91152
 20
2.02436
 30
0.0
 10
4.91759
 20
2.01421
 30
0.0
 10
4.92068
 20
2.00348
 30
0.0
 10
4.92068
 20
1.99204
 30
0.0
 10
4.92068
 20
1.99204
 30
0.0
 10
4.92068
 20
1.98125
 30
0.0
 10
4.91777
 20
1.97139
 30
0.0
 10
4.91193
 20
1.96247
 30
0.0
 10
4.91193
 20
1.96247
 30
0.0
 10
4.9061
 20
1.9536
 30
0.0
 10
4.89752
 20
1.94654
 30
0.0
 10
4.88615
 20
1.94129
 30
0.0
 10
4.88615
 20
1.94129
 30
0.0
 10
4.90097
 20
1.93791
 30
0.0
 10
4.91246
 20
1.93079
 30
0.0
 10
4.92068
 20
1.92
 30
0.0
 10
4.92068
 20
1.92
 30
0.0
 10
4.92885
 20
1.90927
 30
0.0
 10
4.93293
 20
1.89579
 30
0.0
 10
4.93293
 20
1.87963
 30
0.0
 10
4.93293
 20
1.87963
 30
0.0
 10
4.93293
 20
1.85776
 30
0.0
 10
4.925
 20
1.83921
 30
0.0
 10
4.90902
 20
1.82398
 30
0.0
 10
4.90902
 20
1.82398
 30
0.0
 10
4.89309
 20
1.80876
 30
0.0
 10
4.87291
 20
1.80118
 30
0.0
 10
4.84852
 20
1.80118
 30
0.0
 10
4.84852
 20
1.80118
 30
0.0
 10
4.82653
 20
1.80118
 30
0.0
 10
4.80827
 20
1.80771
 30
0.0
 10
4.79375
 20
1.82083
 30
0.0
 10
4.79375
 20
1.82083
 30
0.0
 10
4.77922
 20
1.8339
 30
0.0
 10
4.77094
 20
1.85088
 30
0.0
 10
4.7689
 20
1.87176
 30
0.0
  0
SPLINE
  5
116
330
1F
100
AcDbEntity
  8
0
100
AcDbSpline
210
0.0
220
0.0
230
1.0
 70
    11
 71
     3
 72
    52
 73
    48
 74
     0
 42
0.0000000001
 43
0.0000000001
 40
0.0
 40
0.0
 40
0.0
 40
0.0
 40
0.0769230769230769
 40
0.0769230769230769
 40
0.0769230769230769
 40
0.0769230769230769
 40
0.1538461538461539
 40
0.1538461538461539
 40
0.1538461538461539
 40
0.1538461538461539
 40
0.2307692307692308
 40
0.2307692307692308
 40
0.2307692307692308
 40
0.2307692307692308
 40
0.3076923076923077
 40
0.3076923076923077
 40
0.3076923076923077
 40
0.3076923076923077
 40
0.3846153846153846
 40
0.3846153846153846
 40
0.3846153846153846
 40
0.3846153846153846
 40
0.4615384615384616
 40
0.4615384615384616
 40
0.4615384615384616
 40
0.4615384615384616
 40
0.5384615384615384
 40
0.5384615384615384
 40
0.5384615384615384
 40
0.5384615384615384
 40
0.6153846153846154
 40
0.6153846153846154
 40
0.6153846153846154
 40
0.6153846153846154
 40
0.6923076923076923
 40
0.6923076923076923
 40
0.6923076923076923
 40
0.6923076923076923
 40
0.7692307692307693
 40
0.7692307692307693
 40
0.7692307692307693
 40
0.7692307692307693
 40
0.8461538461538461
 40
0.8461538461538461
 40
0.8461538461538461
 40
0.8461538461538461
 40
1.0
 40
1.0
 40
1.0
 40
1.0
 10
4.96338
 20
1.92916
 30
0.0
 10
4.96338
 20
1.95879
 30
0.0
 10
4.96642
 20
1.98265
 30
0.0
 10
4.97254
 20
2.00068
 30
0.0
 10
4.97254
 20
2.00068
 30
0.0
 10
4.97861
 20
2.01876
 30
0.0
 10
4.98771
 20
2.0327
 30
0.0
 10
4.99973
 20
2.0425
 30
0.0
 10
4.99973
 20
2.0425
 30
0.0
 10
5.01174
 20
2.0523
 30
0.0
 10
5.02685
 20
2.0572
 30
0.0
 10
5.04505
 20
2.0572
 30
0.0
 10
5.04505
 20
2.0572
 30
0.0
 10
5.05853
 20
2.0572
 30
0.0
 10
5.07031
 20
2.05446
 30
0.0
 10
5.08046
 20
2.04903
 30
0.0
 10
5.08046
 20
2.04903
 30
0.0
 10
5.09061
 20
2.04367
 30
0.0
 10
5.09895
 20
2.03585
 30
0.0
 10
5.1056
 20
2.02564
 30
0.0
 10
5.1056
 20
2.02564
 30
0.0
 10
5.11219
 20
2.01543
 30
0.0
 10
5.11738
 20
2.00301
 30
0.0
 10
5.12112
 20
1.98837
 30
0.0
 10
5.12112
 20
1.98837
 30
0.0
 10
5.12491
 20
1.97373
 30
0.0
 10
5.12678
 20
1.95401
 30
0.0
 10
5.12678
 20
1.92916
 30
0.0
 10
5.12678
 20
1.92916
 30
0.0
 10
5.12678
 20
1.89976
 30
0.0
 10
5.12374
 20
1.87608
 30
0.0
 10
5.11773
 20
1.85799
 30
0.0
 10
5.11773
 20
1.85799
 30
0.0
 10
5.11167
 20
1.83991
 30
0.0
 10
5.10263
 20
1.82597
 30
0.0
 10
5.09061
 20
1.81611
 30
0.0
 10
5.09061
 20
1.81611
 30
0.0
 10
5.07859
 20
1.80625
 30
0.0
 10
5.06343
 20
1.80135
 30
0.0
 10
5.04505
 20
1.80135
 30
0.0
 10
5.04505
 20
1.80135
 30
0.0
 10
5.0209
 20
1.80135
 30
0.0
 10
5.00194
 20
1.80998
 30
0.0
 10
4.98818
 20
1.82731
 30
0.0
 10
4.98818
 20
1.82731
 30
0.0
 10
4.97167
 20
1.84813
 30
0.0
 10
4.96338
 20
1.88214
 30
0.0
 10
4.96338
 20
1.92916
 30
0.0
  0
SPLINE
  5
117
330
1F
100
AcDbEntity
  8
0
100
AcDbSpline
210
0.0
220
0.0
230
1.0
 70
    11
 71
     3
 72
    36
 73
    32
 74
     0
 42
0.0000000001
 43
0.0000000001
 40
0.0
 40
0.0
 40
0.0
 40
0.0
 40
0.1111111111111111
 40
0.1111111111111111
 40
0.1111111111111111
 40
0.1111111111111111
 40
0.2222222222222222
 40
0.2222222222222222
 40
0.2222222222222222
 40
0.2222222222222222
 40
0.3333333333333333
 40
0.3333333333333333
 40
0.3333333333333333
 40
0.3333333333333333
 40
0.4444444444444444
 40
0.4444444444444444
 40
0.4444444444444444
 40
0.4444444444444444
 40
0.5555555555555556
 40
0.5555555555555556
 40
0.5555555555555556
 40
0.5555555555555556
 40
0.6666666666666666
 40
0.6666666666666666
 40
0.6666666666666666
 40
0.6666666666666666
 40
0.7777777777777778
 40
0.7777777777777778
 40
0.7777777777777778
 40
0.7777777777777778
 40
1.0
 40
1.0
 40
1.0
 40
1.0
 10
4.995
 20
1.92916
 30
0.0
 10
4.995
 20
1.88803
 30
0.0
 10
4.99984
 20
1.86068
 30
0.0
 10
5.00947
 20
1.84703
 30
0.0
 10
5.00947
 20
1.84703
 30
0.0
 10
5.01909
 20
1.83343
 30
0.0
 10
5.03093
 20
1.82661
 30
0.0
 10
5.04505
 20
1.82661
 30
0.0
 10
5.04505
 20
1.82661
 30
0.0
 10
5.05923
 20
1.82661
 30
0.0
 10
5.07107
 20
1.83349
 30
0.0
 10
5.08069
 20
1.84714
 30
0.0
 10
5.08069
 20
1.84714
 30
0.0
 10
5.09032
 20
1.86079
 30
0.0
 10
5.09516
 20
1.88815
 30
0.0
 10
5.09516
 20
1.92916
 30
0.0
 10
5.09516
 20
1.92916
 30
0.0
 10
5.09516
 20
1.9704
 30
0.0
 10
5.09032
 20
1.99782
 30
0.0
 10
5.08069
 20
2.01135
 30
0.0
 10
5.08069
 20
2.01135
 30
0.0
 10
5.07107
 20
2.02494
 30
0.0
 10
5.05911
 20
2.03171
 30
0.0
 10
5.04476
 20
2.03171
 30
0.0
 10
5.04476
 20
2.03171
 30
0.0
 10
5.03058
 20
2.03171
 30
0.0
 10
5.01933
 20
2.0257
 30
0.0
 10
5.01087
 20
2.01374
 30
0.0
 10
5.01087
 20
2.01374
 30
0.0
 10
5.00031
 20
1.99852
 30
0.0
 10
4.995
 20
1.97028
 30
0.0
 10
4.995
 20
1.92916
 30
0.0
  0
SPLINE
  5
118
330
1F
100
AcDbEntity
  8
0
100
AcDbSpline
210
0.0
220
0.0
230
1.0
 70
    27
 71
     3
 72
    12
 73
     8
 74
     0
 42
0.0000000001
 43
0.0000000001
 40
0.0
 40
0.0
 40
0.0
 40
0.0
 40
0.3333333333333333
 40
0.3333333333333333
 40
0.3333333333333333
 40
0.3333333333333333
 40
1.0
 40
1.0
 40
1.0
 40
1.0
 10
0.14522
 20
3.19683
 30
0.0
 10
0.14522
 20
3.19683
 30
0.0
 10
0.09442
 20
3.52703
 30
0.0
 10
0.09442
 20
3.52703
 30
0.0
 10
0.09442
 20
3.52703
 30
0.0
 10
0.09442
 20
3.52703
 30
0.0
 10
0.14522
 20
3.19683
 30
0.0
 10
0.14522
 20
3.19683
 30
0.0
  0
SPLINE
  5
119
330
1F
100
AcDbEntity
  8
0
100
AcDbSpline
210
0.0
220
0.0
230
1.0
 70
     8
 71
     3
 72
    12
 73
     8
 74
     0
 42
0.0000000001
 43
0.0000000001
 40
0.0
 40
0.0
 40
0.0
 40
0.0
 40
0.3333333333333333
 40
0.3333333333333333
 40
0.3333333333333333
 40
0.3333333333333333
 40
1.0
 40
1.0
 40
1.0
 40
1.0
 10
0.09442
 20
3.52703
 30
0.0
 10
0.09442
 20
3.52703
 30
0.0
 10
0.19602
 20
3.52703
 30
0.0
 10
0.19602
 20
3.52703
 30
0.0
 10
0.19602
 20
3.52703
 30
0.0
 10
0.19602
 20
3.52703
 30
0.0
 10
0.14522
 20
3.19683
 30
0.0
 10
0.14522
 20
3.19683
 30
0.0
  0
SPLINE
  5
11A
330
1F
100
AcDbEntity
  8
0
370
     9
100
AcDbSpline
210
0.0
220
0.0
230
1.0
 70
    24
 71
     3
 72
     8
 73
     4
 74
     0
 42
0.0000000001
 43
0.0000000001
 40
0.0
 40
0.0
 40
0.0
 40
0.0
 40
1.0
 40
1.0
 40
1.0
 40
1.0
 10
0.14522
 20
3.19683
 30
0.0
 10
0.14522
 20
3.19683
 30
0.0
 10
0.09442
 20
3.52703
 30
0.0
 10
0.09442
 20
3.52703
 30
0.0
  0
SPLINE
  5
11B
330
1F
100
AcDbEntity
  8
0
370
     9
100
AcDbSpline
210
0.0
220
0.0
230
1.0
 70
     8
 71
     3
 72
    12
 73
     8
 74
     0
 42
0.0000000001
 43
0.0000000001
 40
0.0
 40
0.0
 40
0.0
 40
0.0
 40
0.3333333333333333
 40
0.3333333333333333
 40
0.3333333333333333
 40
0.3333333333333333
 40
1.0
 40
1.0
 40
1.0
 40
1.0
 10
0.09442
 20
3.52703
 30
0.0
 10
0.09442
 20
3.52703
 30
0.0
 10
0.19602
 20
3.52703
 30
0.0
 10
0.19602
 20
3.52703
 30
0.0
 10
0.19602
 20
3.52703
 30
0.0
 10
0.19602
 20
3.52703
 30
0.0
 10
0.14522
 20
3.19683
 30
0.0
 10
0.14522
 20
3.19683
 30
0.0
  0
SPLINE
  5
11C
330
1F
100
AcDbEntity
  8
0
100
AcDbSpline
210
0.0
220
0.0
230
1.0
 70
    27
 71
     3
 72
    12
 73
     8
 74
     0
 42
0.0000000001
 43
0.0000000001
 40
0.0
 40
0.0
 40
0.0
 40
0.0
 40
0.3333333333333333
 40
0.3333333333333333
 40
0.3333333333333333
 40
0.3333333333333333
 40
1.0
 40
1.0
 40
1.0
 40
1.0
 10
0.14522
 20
10.64613
 30
0.0
 10
0.14522
 20
10.64613
 30
0.0
 10
0.19602
 20
10.31593
 30
0.0
 10
0.19602
 20
10.31593
 30
0.0
 10
0.19602
 20
10.31593
 30
0.0
 10
0.19602
 20
10.31593
 30
0.0
 10
0.14522
 20
10.64613
 30
0.0
 10
0.14522
 20
10.64613
 30
0.0
  0
SPLINE
  5
11D
330
1F
100
AcDbEntity
  8
0
100
AcDbSpline
210
0.0
220
0.0
230
1.0
 70
     8
 71
     3
 72
    12
 73
     8
 74
     0
 42
0.0000000001
 43
0.0000000001
 40
0.0
 40
0.0
 40
0.0
 40
0.0
 40
0.3333333333333333
 40
0.3333333333333333
 40
0.3333333333333333
 40
0.3333333333333333
 40
1.0
 40
1.0
 40
1.0
 40
1.0
 10
0.19602
 20
10.31593
 30
0.0
 10
0.19602
 20
10.31593
 30
0.0
 10
0.09442
 20
10.31593
 30
0.0
 10
0.09442
 20
10.31593
 30
0.0
 10
0.09442
 20
10.31593
 30
0.0
 10
0.09442
 20
10.31593
 30
0.0
 10
0.14522
 20
10.64613
 30
0.0
 10
0.14522
 20
10.64613
 30
0.0
  0
SPLINE
  5
11E
330
1F
100
AcDbEntity
  8
0
370
     9
100
AcDbSpline
210
0.0
220
0.0
230
1.0
 70
    24
 71
     3
 72
     8
 73
     4
 74
     0
 42
0.0000000001
 43
0.0000000001
 40
0.0
 40
0.0
 40
0.0
 40
0.0
 40
1.0
 40
1.0
 40
1.0
 40
1.0
 10
0.14522
 20
10.64613
 30
0.0
 10
0.14522
 20
10.64613
 30
0.0
 10
0.19602
 20
10.31593
 30
0.0
 10
0.19602
 20
10.31593
 30
0.0
  0
SPLINE
  5
11F
330
1F
100
AcDbEntity
  8
0
370
     9
100
AcDbSpline
210
0.0
220
0.0
230
1.0
 70
     8
 71
     3
 72
    12
 73
     8
 74
     0
 42
0.0000000001
 43
0.0000000001
 40
0.0
 40
0.0
 40
0.0
 40
0.0
 40
0.3333333333333333
 40
0.3333333333333333
 40
0.3333333333333333
 40
0.3333333333333333
 40
1.0
 40
1.0
 40
1.0
 40
1.0
 10
0.19602
 20
10.31593
 30
0.0
 10
0.19602
 20
10.31593
 30
0.0
 10
0.09442
 20
10.31593
 30
0.0
 10
0.09442
 20
10.31593
 30
0.0
 10
0.09442
 20
10.31593
 30
0.0
 10
0.09442
 20
10.31593
 30
0.0
 10
0.14522
 20
10.64613
 30
0.0
 10
0.14522
 20
10.64613
 30
0.0
  0
SPLINE
  5
120
330
1F
100
AcDbEntity
  8
0
370
     9
100
AcDbSpline
210
0.0
220
0.0
230
1.0
 70
    24
 71
     3
 72
     8
 73
     4
 74
     0
 42
0.0000000001
 43
0.0000000001
 40
0.0
 40
0.0
 40
0.0
 40
0.0
 40
1.0
 40
1.0
 40
1.0
 40
1.0
 10
4.1953
 20
3.19683
 30
0.0
 10
4.1953
 20
3.19683
 30
0.0
 10
0.04522
 20
3.19683
 30
0.0
 10
0.04522
 20
3.19683
 30
0.0
  0
SPLINE
  5
121
330
1F
100
AcDbEntity
  8
0
370
     9
100
AcDbSpline
210
0.0
220
0.0
230
1.0
 70
    24
 71
     3
 72
     8
 73
     4
 74
     0
 42
0.0000000001
 43
0.0000000001
 40
0.0
 40
0.0
 40
0.0
 40
0.0
 40
1.0
 40
1.0
 40
1.0
 40
1.0
 10
2.2353
 20
10.64613
 30
0.0
 10
2.2353
 20
10.64613
 30
0.0
 10
0.04522
 20
10.64613
 30
0.0
 10
0.04522
 20
10.64613
 30
0.0
  0
SPLINE
  5
122
330
1F
100
AcDbEntity
  8
0
370
     9
100
AcDbSpline
210
0.0
220
0.0
230
1.0
 70
    24
 71
     3
 72
     8
 73
     4
 74
     0
 42
0.0000000001
 43
0.0000000001
 40
0.0
 40
0.0
 40
0.0
 40
0.0
 40
1.0
 40
1.0
 40
1.0
 40
1.0
 10
0.14522
 20
3.19683
 30
0.0
 10
0.14522
 20
3.19683
 30
0.0
 10
0.14522
 20
10.64613
 30
0.0
 10
0.14522
 20
10.64613
 30
0.0
  0
SPLINE
  5
123
330
1F
100
AcDbEntity
  8
0
100
AcDbSpline
210
0.0
220
0.0
230
1.0
 70
    11
 71
     3
 72
    40
 73
    36
 74
     0
 42
0.0000000001
 43
0.0000000001
 40
0.0
 40
0.0
 40
0.0
 40
0.0
 40
0.1
 40
0.1
 40
0.1
 40
0.1
 40
0.2
 40
0.2
 40
0.2
 40
0.2
 40
0.3
 40
0.3
 40
0.3
 40
0.3
 40
0.4
 40
0.4
 40
0.4
 40
0.4
 40
0.5
 40
0.5
 40
0.5
 40
0.5
 40
0.6
 40
0.6
 40
0.6
 40
0.6
 40
0.7
 40
0.7
 40
0.7
 40
0.7
 40
0.8
 40
0.8
 40
0.8
 40
0.8
 40
1.0
 40
1.0
 40
1.0
 40
1.0
 10
0.01092
 20
6.51796
 30
0.0
 10
0.01092
 20
6.51796
 30
0.0
 10
0.01092
 20
6.48722
 30
0.0
 10
0.01092
 20
6.48722
 30
0.0
 10
0.01092
 20
6.48722
 30
0.0
 10
0.01092
 20
6.48722
 30
0.0
 10
-0.18508
 20
6.48722
 30
0.0
 10
-0.18508
 20
6.48722
 30
0.0
 10
-0.18508
 20
6.48722
 30
0.0
 10
-0.17802
 20
6.47981
 30
0.0
 10
-0.17096
 20
6.47013
 30
0.0
 10
-0.1639
 20
6.45811
 30
0.0
 10
-0.1639
 20
6.45811
 30
0.0
 10
-0.15685
 20
6.44604
 30
0.0
 10
-0.15154
 20
6.43525
 30
0.0
 10
-0.14804
 20
6.42568
 30
0.0
 10
-0.14804
 20
6.42568
 30
0.0
 10
-0.14804
 20
6.42568
 30
0.0
 10
-0.17773
 20
6.42568
 30
0.0
 10
-0.17773
 20
6.42568
 30
0.0
 10
-0.17773
 20
6.42568
 30
0.0
 10
-0.18584
 20
6.44289
 30
0.0
 10
-0.19564
 20
6.45794
 30
0.0
 10
-0.20713
 20
6.47083
 30
0.0
 10
-0.20713
 20
6.47083
 30
0.0
 10
-0.21868
 20
6.48366
 30
0.0
 10
-0.22982
 20
6.49282
 30
0.0
 10
-0.24061
 20
6.49819
 30
0.0
 10
-0.24061
 20
6.49819
 30
0.0
 10
-0.24061
 20
6.49819
 30
0.0
 10
-0.24061
 20
6.51796
 30
0.0
 10
-0.24061
 20
6.51796
 30
0.0
 10
-0.24061
 20
6.51796
 30
0.0
 10
-0.24061
 20
6.51796
 30
0.0
 10
0.01092
 20
6.51796
 30
0.0
 10
0.01092
 20
6.51796
 30
0.0
  0
SPLINE
  5
124
330
1F
100
AcDbEntity
  8
0
100
AcDbSpline
210
0.0
220
0.0
230
1.0
 70
    11
 71
     3
 72
    92
 73
    88
 74
     0
 42
0.0000000001
 43
0.0000000001
 40
0.0
 40
0.0
 40
0.0
 40
0.0
 40
0.0434782608695652
 40
0.0434782608695652
 40
0.0434782608695652
 40
0.0434782608695652
 40
0.0869565217391304
 40
0.0869565217391304
 40
0.0869565217391304
 40
0.0869565217391304
 40
0.1304347826086956
 40
0.1304347826086956
 40
0.1304347826086956
 40
0.1304347826086956
 40
0.1739130434782609
 40
0.1739130434782609
 40
0.1739130434782609
 40
0.1739130434782609
 40
0.2173913043478261
 40
0.2173913043478261
 40
0.2173913043478261
 40
0.2173913043478261
 40
0.2608695652173913
 40
0.2608695652173913
 40
0.2608695652173913
 40
0.2608695652173913
 40
0.3043478260869565
 40
0.3043478260869565
 40
0.3043478260869565
 40
0.3043478260869565
 40
0.3478260869565217
 40
0.3478260869565217
 40
0.3478260869565217
 40
0.3478260869565217
 40
0.391304347826087
 40
0.391304347826087
 40
0.391304347826087
 40
0.391304347826087
 40
0.4347826086956522
 40
0.4347826086956522
 40
0.4347826086956522
 40
0.4347826086956522
 40
0.4782608695652174
 40
0.4782608695652174
 40
0.4782608695652174
 40
0.4782608695652174
 40
0.5217391304347826
 40
0.5217391304347826
 40
0.5217391304347826
 40
0.5217391304347826
 40
0.5652173913043478
 40
0.5652173913043478
 40
0.5652173913043478
 40
0.5652173913043478
 40
0.6086956521739131
 40
0.6086956521739131
 40
0.6086956521739131
 40
0.6086956521739131
 40
0.6521739130434783
 40
0.6521739130434783
 40
0.6521739130434783
 40
0.6521739130434783
 40
0.6956521739130435
 40
0.6956521739130435
 40
0.6956521739130435
 40
0.6956521739130435
 40
0.7391304347826086
 40
0.7391304347826086
 40
0.7391304347826086
 40
0.7391304347826086
 40
0.782608695652174
 40
0.782608695652174
 40
0.782608695652174
 40
0.782608695652174
 40
0.8260869565217391
 40
0.8260869565217391
 40
0.8260869565217391
 40
0.8260869565217391
 40
0.8695652173913043
 40
0.8695652173913043
 40
0.8695652173913043
 40
0.8695652173913043
 40
0.9130434782608695
 40
0.9130434782608695
 40
0.9130434782608695
 40
0.9130434782608695
 40
1.0
 40
1.0
 40
1.0
 40
1.0
 10
-0.0547
 20
6.59677
 30
0.0
 10
-0.0547
 20
6.59677
 30
0.0
 10
-0.05745
 20
6.62909
 30
0.0
 10
-0.05745
 20
6.62909
 30
0.0
 10
-0.05745
 20
6.62909
 30
0.0
 10
-0.0417
 20
6.63148
 30
0.0
 10
-0.02991
 20
6.63702
 30
0.0
 10
-0.02198
 20
6.64572
 30
0.0
 10
-0.02198
 20
6.64572
 30
0.0
 10
-0.01405
 20
6.65447
 30
0.0
 10
-0.01008
 20
6.66497
 30
0.0
 10
-0.01008
 20
6.67727
 30
0.0
 10
-0.01008
 20
6.67727
 30
0.0
 10
-0.01008
 20
6.69209
 30
0.0
 10
-0.01568
 20
6.70463
 30
0.0
 10
-0.02682
 20
6.71484
 30
0.0
 10
-0.02682
 20
6.71484
 30
0.0
 10
-0.03802
 20
6.72511
 30
0.0
 10
-0.05284
 20
6.73024
 30
0.0
 10
-0.07127
 20
6.73024
 30
0.0
 10
-0.07127
 20
6.73024
 30
0.0
 10
-0.08883
 20
6.73024
 30
0.0
 10
-0.10265
 20
6.72534
 30
0.0
 10
-0.1128
 20
6.71548
 30
0.0
 10
-0.1128
 20
6.71548
 30
0.0
 10
-0.12295
 20
6.70562
 30
0.0
 10
-0.12803
 20
6.69273
 30
0.0
 10
-0.12803
 20
6.67675
 30
0.0
 10
-0.12803
 20
6.67675
 30
0.0
 10
-0.12803
 20
6.66683
 30
0.0
 10
-0.12575
 20
6.65791
 30
0.0
 10
-0.12126
 20
6.64992
 30
0.0
 10
-0.12126
 20
6.64992
 30
0.0
 10
-0.11677
 20
6.64192
 30
0.0
 10
-0.11094
 20
6.63568
 30
0.0
 10
-0.10376
 20
6.63113
 30
0.0
 10
-0.10376
 20
6.63113
 30
0.0
 10
-0.10376
 20
6.63113
 30
0.0
 10
-0.1075
 20
6.60226
 30
0.0
 10
-0.1075
 20
6.60226
 30
0.0
 10
-0.1075
 20
6.60226
 30
0.0
 10
-0.1075
 20
6.60226
 30
0.0
 10
-0.23618
 20
6.62652
 30
0.0
 10
-0.23618
 20
6.62652
 30
0.0
 10
-0.23618
 20
6.62652
 30
0.0
 10
-0.23618
 20
6.62652
 30
0.0
 10
-0.23618
 20
6.75112
 30
0.0
 10
-0.23618
 20
6.75112
 30
0.0
 10
-0.23618
 20
6.75112
 30
0.0
 10
-0.23618
 20
6.75112
 30
0.0
 10
-0.20678
 20
6.75112
 30
0.0
 10
-0.20678
 20
6.75112
 30
0.0
 10
-0.20678
 20
6.75112
 30
0.0
 10
-0.20678
 20
6.75112
 30
0.0
 10
-0.20678
 20
6.65114
 30
0.0
 10
-0.20678
 20
6.65114
 30
0.0
 10
-0.20678
 20
6.65114
 30
0.0
 10
-0.20678
 20
6.65114
 30
0.0
 10
-0.13946
 20
6.63761
 30
0.0
 10
-0.13946
 20
6.63761
 30
0.0
 10
-0.13946
 20
6.63761
 30
0.0
 10
-0.14996
 20
6.65266
 30
0.0
 10
-0.15521
 20
6.66847
 30
0.0
 10
-0.15521
 20
6.68497
 30
0.0
 10
-0.15521
 20
6.68497
 30
0.0
 10
-0.15521
 20
6.70685
 30
0.0
 10
-0.14763
 20
6.72528
 30
0.0
 10
-0.13246
 20
6.74033
 30
0.0
 10
-0.13246
 20
6.74033
 30
0.0
 10
-0.1173
 20
6.75538
 30
0.0
 10
-0.09781
 20
6.76291
 30
0.0
 10
-0.07401
 20
6.76291
 30
0.0
 10
-0.07401
 20
6.76291
 30
0.0
 10
-0.05132
 20
6.76291
 30
0.0
 10
-0.03172
 20
6.75626
 30
0.0
 10
-0.01521
 20
6.74307
 30
0.0
 10
-0.01521
 20
6.74307
 30
0.0
 10
0.00503
 20
6.72697
 30
0.0
 10
0.01518
 20
6.70504
 30
0.0
 10
0.01518
 20
6.67727
 30
0.0
 10
0.01518
 20
6.67727
 30
0.0
 10
0.01518
 20
6.65447
 30
0.0
 10
0.00882
 20
6.63586
 30
0.0
 10
-0.00395
 20
6.62145
 30
0.0
 10
-0.00395
 20
6.62145
 30
0.0
 10
-0.01673
 20
6.60704
 30
0.0
 10
-0.03365
 20
6.59882
 30
0.0
 10
-0.0547
 20
6.59677
 30
0.0
  0
SPLINE
  5
125
330
1F
100
AcDbEntity
  8
0
100
AcDbSpline
210
0.0
220
0.0
230
1.0
 70
    11
 71
     3
 72
    52
 73
    48
 74
     0
 42
0.0000000001
 43
0.0000000001
 40
0.0
 40
0.0
 40
0.0
 40
0.0
 40
0.0769230769230769
 40
0.0769230769230769
 40
0.0769230769230769
 40
0.0769230769230769
 40
0.1538461538461539
 40
0.1538461538461539
 40
0.1538461538461539
 40
0.1538461538461539
 40
0.2307692307692308
 40
0.2307692307692308
 40
0.2307692307692308
 40
0.2307692307692308
 40
0.3076923076923077
 40
0.3076923076923077
 40
0.3076923076923077
 40
0.3076923076923077
 40
0.3846153846153846
 40
0.3846153846153846
 40
0.3846153846153846
 40
0.3846153846153846
 40
0.4615384615384616
 40
0.4615384615384616
 40
0.4615384615384616
 40
0.4615384615384616
 40
0.5384615384615384
 40
0.5384615384615384
 40
0.5384615384615384
 40
0.5384615384615384
 40
0.6153846153846154
 40
0.6153846153846154
 40
0.6153846153846154
 40
0.6153846153846154
 40
0.6923076923076923
 40
0.6923076923076923
 40
0.6923076923076923
 40
0.6923076923076923
 40
0.7692307692307693
 40
0.7692307692307693
 40
0.7692307692307693
 40
0.7692307692307693
 40
0.8461538461538461
 40
0.8461538461538461
 40
0.8461538461538461
 40
0.8461538461538461
 40
1.0
 40
1.0
 40
1.0
 40
1.0
 10
-0.11263
 20
6.79143
 30
0.0
 10
-0.14226
 20
6.79143
 30
0.0
 10
-0.16612
 20
6.79447
 30
0.0
 10
-0.18415
 20
6.80059
 30
0.0
 10
-0.18415
 20
6.80059
 30
0.0
 10
-0.20223
 20
6.80666
 30
0.0
 10
-0.21617
 20
6.81576
 30
0.0
 10
-0.22597
 20
6.82778
 30
0.0
 10
-0.22597
 20
6.82778
 30
0.0
 10
-0.23577
 20
6.83979
 30
0.0
 10
-0.24061
 20
6.8549
 30
0.0
 10
-0.24061
 20
6.8731
 30
0.0
 10
-0.24061
 20
6.8731
 30
0.0
 10
-0.24061
 20
6.88658
 30
0.0
 10
-0.23793
 20
6.89836
 30
0.0
 10
-0.2325
 20
6.90851
 30
0.0
 10
-0.2325
 20
6.90851
 30
0.0
 10
-0.22714
 20
6.91866
 30
0.0
 10
-0.21932
 20
6.927
 30
0.0
 10
-0.20911
 20
6.93365
 30
0.0
 10
-0.20911
 20
6.93365
 30
0.0
 10
-0.1989
 20
6.94024
 30
0.0
 10
-0.18648
 20
6.94543
 30
0.0
 10
-0.17184
 20
6.94917
 30
0.0
 10
-0.17184
 20
6.94917
 30
0.0
 10
-0.1572
 20
6.95296
 30
0.0
 10
-0.13748
 20
6.95483
 30
0.0
 10
-0.11263
 20
6.95483
 30
0.0
 10
-0.11263
 20
6.95483
 30
0.0
 10
-0.08323
 20
6.95483
 30
0.0
 10
-0.05955
 20
6.95179
 30
0.0
 10
-0.04146
 20
6.94578
 30
0.0
 10
-0.04146
 20
6.94578
 30
0.0
 10
-0.02338
 20
6.93972
 30
0.0
 10
-0.00944
 20
6.93068
 30
0.0
 10
0.00042
 20
6.91866
 30
0.0
 10
0.00042
 20
6.91866
 30
0.0
 10
0.01028
 20
6.90664
 30
0.0
 10
0.01518
 20
6.89148
 30
0.0
 10
0.01518
 20
6.8731
 30
0.0
 10
0.01518
 20
6.8731
 30
0.0
 10
0.01518
 20
6.84895
 30
0.0
 10
0.00655
 20
6.82999
 30
0.0
 10
-0.01078
 20
6.81623
 30
0.0
 10
-0.01078
 20
6.81623
 30
0.0
 10
-0.0316
 20
6.79972
 30
0.0
 10
-0.06561
 20
6.79143
 30
0.0
 10
-0.11263
 20
6.79143
 30
0.0
  0
SPLINE
  5
126
330
1F
100
AcDbEntity
  8
0
100
AcDbSpline
210
0.0
220
0.0
230
1.0
 70
    11
 71
     3
 72
    36
 73
    32
 74
     0
 42
0.0000000001
 43
0.0000000001
 40
0.0
 40
0.0
 40
0.0
 40
0.0
 40
0.1111111111111111
 40
0.1111111111111111
 40
0.1111111111111111
 40
0.1111111111111111
 40
0.2222222222222222
 40
0.2222222222222222
 40
0.2222222222222222
 40
0.2222222222222222
 40
0.3333333333333333
 40
0.3333333333333333
 40
0.3333333333333333
 40
0.3333333333333333
 40
0.4444444444444444
 40
0.4444444444444444
 40
0.4444444444444444
 40
0.4444444444444444
 40
0.5555555555555556
 40
0.5555555555555556
 40
0.5555555555555556
 40
0.5555555555555556
 40
0.6666666666666666
 40
0.6666666666666666
 40
0.6666666666666666
 40
0.6666666666666666
 40
0.7777777777777778
 40
0.7777777777777778
 40
0.7777777777777778
 40
0.7777777777777778
 40
1.0
 40
1.0
 40
1.0
 40
1.0
 10
-0.11263
 20
6.82305
 30
0.0
 10
-0.0715
 20
6.82305
 30
0.0
 10
-0.04415
 20
6.82789
 30
0.0
 10
-0.0305
 20
6.83752
 30
0.0
 10
-0.0305
 20
6.83752
 30
0.0
 10
-0.0169
 20
6.84714
 30
0.0
 10
-0.01008
 20
6.85898
 30
0.0
 10
-0.01008
 20
6.8731
 30
0.0
 10
-0.01008
 20
6.8731
 30
0.0
 10
-0.01008
 20
6.88728
 30
0.0
 10
-0.01696
 20
6.89912
 30
0.0
 10
-0.03061
 20
6.90874
 30
0.0
 10
-0.03061
 20
6.90874
 30
0.0
 10
-0.04426
 20
6.91837
 30
0.0
 10
-0.07162
 20
6.92321
 30
0.0
 10
-0.11263
 20
6.92321
 30
0.0
 10
-0.11263
 20
6.92321
 30
0.0
 10
-0.15387
 20
6.92321
 30
0.0
 10
-0.18129
 20
6.91837
 30
0.0
 10
-0.19482
 20
6.90874
 30
0.0
 10
-0.19482
 20
6.90874
 30
0.0
 10
-0.20841
 20
6.89912
 30
0.0
 10
-0.21518
 20
6.88716
 30
0.0
 10
-0.21518
 20
6.87281
 30
0.0
 10
-0.21518
 20
6.87281
 30
0.0
 10
-0.21518
 20
6.85863
 30
0.0
 10
-0.20917
 20
6.84738
 30
0.0
 10
-0.19721
 20
6.83892
 30
0.0
 10
-0.19721
 20
6.83892
 30
0.0
 10
-0.18199
 20
6.82836
 30
0.0
 10
-0.15375
 20
6.82305
 30
0.0
 10
-0.11263
 20
6.82305
 30
0.0
  0
SPLINE
  5
127
330
1F
100
AcDbEntity
  8
0
370
    15
100
AcDbSpline
210
0.0
220
0.0
230
1.0
 70
    24
 71
     3
 72
     8
 73
     4
 74
     0
 42
0.0000000001
 43
0.0000000001
 40
0.0
 40
0.0
 40
0.0
 40
0.0
 40
1.0
 40
1.0
 40
1.0
 40
1.0
 10
-8.68329
 20
-2.30387
 30
0.0
 10
-8.68329
 20
-2.30387
 30
0.0
 10
-8.98329
 20
-2.30387
 30
0.0
 10
-8.98329
 20
-2.30387
 30
0.0
  0
SPLINE
  5
128
330
1F
100
AcDbEntity
  8
0
370
    15
100
AcDbSpline
210
0.0
220
0.0
230
1.0
 70
    24
 71
     3
 72
     8
 73
     4
 74
     0
 42
0.0000000001
 43
0.0000000001
 40
0.0
 40
0.0
 40
0.0
 40
0.0
 40
1.0
 40
1.0
 40
1.0
 40
1.0
 10
-8.98329
 20
-3.05387
 30
0.0
 10
-8.98329
 20
-3.05387
 30
0.0
 10
-8.68329
 20
-3.05387
 30
0.0
 10
-8.68329
 20
-3.05387
 30
0.0
  0
SPLINE
  5
129
330
1F
100
AcDbEntity
  8
0
370
    15
100
AcDbSpline
210
0.0
220
0.0
230
1.0
 70
     8
 71
     3
 72
     8
 73
     4
 74
     0
 42
0.0000000001
 43
0.0000000001
 40
0.0
 40
0.0
 40
0.0
 40
0.0
 40
1.0
 40
1.0
 40
1.0
 40
1.0
 10
-9.05028
 20
-2.67964
 30
0.0
 10
-9.05019
 20
-2.80736
 30
0.0
 10
-9.02751
 20
-2.93405
 30
0.0
 10
-8.98329
 20
-3.05387
 30
0.0
  0
SPLINE
  5
12A
330
1F
100
AcDbEntity
  8
0
370
    15
100
AcDbSpline
210
0.0
220
0.0
230
1.0
 70
     8
 71
     3
 72
     8
 73
     4
 74
     0
 42
0.0000000001
 43
0.0000000001
 40
0.0
 40
0.0
 40
0.0
 40
0.0
 40
1.0
 40
1.0
 40
1.0
 40
1.0
 10
-8.98329
 20
-2.30387
 30
0.0
 10
-9.02769
 20
-2.42417
 30
0.0
 10
-9.05037
 20
-2.5514
 30
0.0
 10
-9.05028
 20
-2.67964
 30
0.0
  0
SPLINE
  5
12B
330
1F
100
AcDbEntity
  8
0
370
    15
100
AcDbSpline
210
0.0
220
0.0
230
1.0
 70
    24
 71
     3
 72
     8
 73
     4
 74
     0
 42
0.0000000001
 43
0.0000000001
 40
0.0
 40
0.0
 40
0.0
 40
0.0
 40
1.0
 40
1.0
 40
1.0
 40
1.0
 10
-3.88329
 20
-2.47887
 30
0.0
 10
-3.88329
 20
-2.47887
 30
0.0
 10
-3.89579
 20
-2.47887
 30
0.0
 10
-3.89579
 20
-2.47887
 30
0.0
  0
SPLINE
  5
12C
330
1F
100
AcDbEntity
  8
0
370
    15
100
AcDbSpline
210
0.0
220
0.0
230
1.0
 70
    24
 71
     3
 72
     8
 73
     4
 74
     0
 42
0.0000000001
 43
0.0000000001
 40
0.0
 40
0.0
 40
0.0
 40
0.0
 40
1.0
 40
1.0
 40
1.0
 40
1.0
 10
-7.54579
 20
-2.47887
 30
0.0
 10
-7.54579
 20
-2.47887
 30
0.0
 10
-7.55829
 20
-2.47887
 30
0.0
 10
-7.55829
 20
-2.47887
 30
0.0
  0
SPLINE
  5
12D
330
1F
100
AcDbEntity
  8
0
370
    15
100
AcDbSpline
210
0.0
220
0.0
230
1.0
 70
    24
 71
     3
 72
     8
 73
     4
 74
     0
 42
0.0000000001
 43
0.0000000001
 40
0.0
 40
0.0
 40
0.0
 40
0.0
 40
1.0
 40
1.0
 40
1.0
 40
1.0
 10
-7.55829
 20
-2.87887
 30
0.0
 10
-7.55829
 20
-2.87887
 30
0.0
 10
-7.54579
 20
-2.87887
 30
0.0
 10
-7.54579
 20
-2.87887
 30
0.0
  0
SPLINE
  5
12E
330
1F
100
AcDbEntity
  8
0
370
    15
100
AcDbSpline
210
0.0
220
0.0
230
1.0
 70
    24
 71
     3
 72
     8
 73
     4
 74
     0
 42
0.0000000001
 43
0.0000000001
 40
0.0
 40
0.0
 40
0.0
 40
0.0
 40
1.0
 40
1.0
 40
1.0
 40
1.0
 10
-3.89579
 20
-2.87887
 30
0.0
 10
-3.89579
 20
-2.87887
 30
0.0
 10
-3.88329
 20
-2.87887
 30
0.0
 10
-3.88329
 20
-2.87887
 30
0.0
  0
SPLINE
  5
12F
330
1F
100
AcDbEntity
  8
0
370
    15
100
AcDbSpline
210
0.0
220
0.0
230
1.0
 70
    24
 71
     3
 72
     8
 73
     4
 74
     0
 42
0.0000000001
 43
0.0000000001
 40
0.0
 40
0.0
 40
0.0
 40
0.0
 40
1.0
 40
1.0
 40
1.0
 40
1.0
 10
-9.05028
 20
-2.67887
 30
0.0
 10
-9.05028
 20
-2.67887
 30
0.0
 10
-9.05028
 20
-4.20887
 30
0.0
 10
-9.05028
 20
-4.20887
 30
0.0
  0
SPLINE
  5
130
330
1F
100
AcDbEntity
  8
0
370
    15
100
AcDbSpline
210
0.0
220
0.0
230
1.0
 70
    24
 71
     3
 72
     8
 73
     4
 74
     0
 42
0.0000000001
 43
0.0000000001
 40
0.0
 40
0.0
 40
0.0
 40
0.0
 40
1.0
 40
1.0
 40
1.0
 40
1.0
 10
-8.7663
 20
-4.20887
 30
0.0
 10
-8.7663
 20
-4.20887
 30
0.0
 10
-8.7663
 20
-3.05387
 30
0.0
 10
-8.7663
 20
-3.05387
 30
0.0
  0
SPLINE
  5
131
330
1F
100
AcDbEntity
  8
0
370
    15
100
AcDbSpline
210
0.0
220
0.0
230
1.0
 70
     8
 71
     3
 72
     8
 73
     4
 74
     0
 42
0.0000000001
 43
0.0000000001
 40
0.0
 40
0.0
 40
0.0
 40
0.0
 40
1.0
 40
1.0
 40
1.0
 40
1.0
 10
-2.63329
 20
-3.90887
 30
0.0
 10
-2.67717
 20
-3.98488
 30
0.0
 10
-2.70028
 20
-4.0711
 30
0.0
 10
-2.70028
 20
-4.15887
 30
0.0
  0
SPLINE
  5
132
330
1F
100
AcDbEntity
  8
0
370
    15
100
AcDbSpline
210
0.0
220
0.0
230
1.0
 70
    24
 71
     3
 72
     8
 73
     4
 74
     0
 42
0.0000000001
 43
0.0000000001
 40
0.0
 40
0.0
 40
0.0
 40
0.0
 40
1.0
 40
1.0
 40
1.0
 40
1.0
 10
-2.48329
 20
-3.90887
 30
0.0
 10
-2.48329
 20
-3.90887
 30
0.0
 10
-2.63329
 20
-3.90887
 30
0.0
 10
-2.63329
 20
-3.90887
 30
0.0
  0
SPLINE
  5
133
330
1F
100
AcDbEntity
  8
0
370
    15
100
AcDbSpline
210
0.0
220
0.0
230
1.0
 70
     8
 71
     3
 72
     8
 73
     4
 74
     0
 42
0.0000000001
 43
0.0000000001
 40
0.0
 40
0.0
 40
0.0
 40
0.0
 40
1.0
 40
1.0
 40
1.0
 40
1.0
 10
-2.4163
 20
-4.15887
 30
0.0
 10
-2.4163
 20
-4.0711
 30
0.0
 10
-2.43941
 20
-3.98488
 30
0.0
 10
-2.48329
 20
-3.90887
 30
0.0
  0
SPLINE
  5
134
330
1F
100
AcDbEntity
  8
0
370
    15
100
AcDbSpline
210
0.0
220
0.0
230
1.0
 70
    24
 71
     3
 72
     8
 73
     4
 74
     0
 42
0.0000000001
 43
0.0000000001
 40
0.0
 40
0.0
 40
0.0
 40
0.0
 40
1.0
 40
1.0
 40
1.0
 40
1.0
 10
-2.4163
 20
-4.20887
 30
0.0
 10
-2.4163
 20
-4.20887
 30
0.0
 10
-2.4163
 20
-4.15887
 30
0.0
 10
-2.4163
 20
-4.15887
 30
0.0
  0
SPLINE
  5
135
330
1F
100
AcDbEntity
  8
0
370
    15
100
AcDbSpline
210
0.0
220
0.0
230
1.0
 70
    24
 71
     3
 72
     8
 73
     4
 74
     0
 42
0.0000000001
 43
0.0000000001
 40
0.0
 40
0.0
 40
0.0
 40
0.0
 40
1.0
 40
1.0
 40
1.0
 40
1.0
 10
-2.70028
 20
-4.15887
 30
0.0
 10
-2.70028
 20
-4.15887
 30
0.0
 10
-2.70028
 20
-4.20887
 30
0.0
 10
-2.70028
 20
-4.20887
 30
0.0
  0
SPLINE
  5
136
330
1F
100
AcDbEntity
  8
0
370
    15
100
AcDbSpline
210
0.0
220
0.0
230
1.0
 70
     8
 71
     3
 72
    32
 73
    28
 74
     0
 42
0.0000000001
 43
0.0000000001
 40
0.0
 40
0.0
 40
0.0
 40
0.0
 40
0.125
 40
0.125
 40
0.125
 40
0.125
 40
0.25
 40
0.25
 40
0.25
 40
0.25
 40
0.375
 40
0.375
 40
0.375
 40
0.375
 40
0.5
 40
0.5
 40
0.5
 40
0.5
 40
0.625
 40
0.625
 40
0.625
 40
0.625
 40
0.75
 40
0.75
 40
0.75
 40
0.75
 40
1.0
 40
1.0
 40
1.0
 40
1.0
 10
-9.05028
 20
-4.20887
 30
0.0
 10
-9.04981
 20
-4.22548
 30
0.0
 10
-9.04935
 20
-4.2421
 30
0.0
 10
-9.04788
 20
-4.25863
 30
0.0
 10
-9.04788
 20
-4.25863
 30
0.0
 10
-9.04637
 20
-4.27551
 30
0.0
 10
-9.04381
 20
-4.29231
 30
0.0
 10
-9.0405
 20
-4.30895
 30
0.0
 10
-9.0405
 20
-4.30895
 30
0.0
 10
-9.03722
 20
-4.32536
 30
0.0
 10
-9.03321
 20
-4.34162
 30
0.0
 10
-9.02841
 20
-4.35765
 30
0.0
 10
-9.02841
 20
-4.35765
 30
0.0
 10
-9.02367
 20
-4.37348
 30
0.0
 10
-9.01816
 20
-4.38909
 30
0.0
 10
-9.0119
 20
-4.40438
 30
0.0
 10
-9.0119
 20
-4.40438
 30
0.0
 10
-9.00571
 20
-4.4195
 30
0.0
 10
-8.99877
 20
-4.4343
 30
0.0
 10
-8.99128
 20
-4.44883
 30
0.0
 10
-8.99128
 20
-4.44883
 30
0.0
 10
-8.98386
 20
-4.46322
 30
0.0
 10
-8.9759
 20
-4.47734
 30
0.0
 10
-8.96685
 20
-4.49073
 30
0.0
 10
-8.96685
 20
-4.49073
 30
0.0
 10
-8.96247
 20
-4.49723
 30
0.0
 10
-8.95783
 20
-4.50355
 30
0.0
 10
-8.95319
 20
-4.50987
 30
0.0
  0
SPLINE
  5
137
330
1F
100
AcDbEntity
  8
0
370
    15
100
AcDbSpline
210
0.0
220
0.0
230
1.0
 70
     8
 71
     3
 72
    36
 73
    32
 74
     0
 42
0.0000000001
 43
0.0000000001
 40
0.0
 40
0.0
 40
0.0
 40
0.0
 40
0.1111111111111111
 40
0.1111111111111111
 40
0.1111111111111111
 40
0.1111111111111111
 40
0.2222222222222222
 40
0.2222222222222222
 40
0.2222222222222222
 40
0.2222222222222222
 40
0.3333333333333333
 40
0.3333333333333333
 40
0.3333333333333333
 40
0.3333333333333333
 40
0.4444444444444444
 40
0.4444444444444444
 40
0.4444444444444444
 40
0.4444444444444444
 40
0.5555555555555556
 40
0.5555555555555556
 40
0.5555555555555556
 40
0.5555555555555556
 40
0.6666666666666666
 40
0.6666666666666666
 40
0.6666666666666666
 40
0.6666666666666666
 40
0.7777777777777778
 40
0.7777777777777778
 40
0.7777777777777778
 40
0.7777777777777778
 40
1.0
 40
1.0
 40
1.0
 40
1.0
 10
-2.51295
 20
-4.50963
 30
0.0
 10
-2.51115
 20
-4.50728
 30
0.0
 10
-2.50935
 20
-4.50493
 30
0.0
 10
-2.5076
 20
-4.50255
 30
0.0
 10
-2.5076
 20
-4.50255
 30
0.0
 10
-2.49795
 20
-4.48945
 30
0.0
 10
-2.48968
 20
-4.47535
 30
0.0
 10
-2.48188
 20
-4.46103
 30
0.0
 10
-2.48188
 20
-4.46103
 30
0.0
 10
-2.47408
 20
-4.44672
 30
0.0
 10
-2.46674
 20
-4.43219
 30
0.0
 10
-2.46016
 20
-4.41731
 30
0.0
 10
-2.46016
 20
-4.41731
 30
0.0
 10
-2.45358
 20
-4.40244
 30
0.0
 10
-2.44775
 20
-4.38722
 30
0.0
 10
-2.44263
 20
-4.37177
 30
0.0
 10
-2.44263
 20
-4.37177
 30
0.0
 10
-2.43697
 20
-4.35466
 30
0.0
 10
-2.43218
 20
-4.33727
 30
0.0
 10
-2.42832
 20
-4.31967
 30
0.0
 10
-2.42832
 20
-4.31967
 30
0.0
 10
-2.42451
 20
-4.30231
 30
0.0
 10
-2.42161
 20
-4.28476
 30
0.0
 10
-2.41959
 20
-4.2671
 30
0.0
 10
-2.41959
 20
-4.2671
 30
0.0
 10
-2.41775
 20
-4.25092
 30
0.0
 10
-2.41665
 20
-4.23466
 30
0.0
 10
-2.41639
 20
-4.21839
 30
0.0
 10
-2.41639
 20
-4.21839
 30
0.0
 10
-2.41634
 20
-4.21522
 30
0.0
 10
-2.41632
 20
-4.21204
 30
0.0
 10
-2.4163
 20
-4.20887
 30
0.0
  0
SPLINE
  5
138
330
1F
100
AcDbEntity
  8
0
370
    15
100
AcDbSpline
210
0.0
220
0.0
230
1.0
 70
    24
 71
     3
 72
     8
 73
     4
 74
     0
 42
0.0000000001
 43
0.0000000001
 40
0.0
 40
0.0
 40
0.0
 40
0.0
 40
1.0
 40
1.0
 40
1.0
 40
1.0
 10
-8.68329
 20
-3.05387
 30
0.0
 10
-8.68329
 20
-3.05387
 30
0.0
 10
-7.55829
 20
-3.05387
 30
0.0
 10
-7.55829
 20
-3.05387
 30
0.0
  0
SPLINE
  5
139
330
1F
100
AcDbEntity
  8
0
370
    15
100
AcDbSpline
210
0.0
220
0.0
230
1.0
 70
    24
 71
     3
 72
     8
 73
     4
 74
     0
 42
0.0000000001
 43
0.0000000001
 40
0.0
 40
0.0
 40
0.0
 40
0.0
 40
1.0
 40
1.0
 40
1.0
 40
1.0
 10
-7.55829
 20
-2.30387
 30
0.0
 10
-7.55829
 20
-2.30387
 30
0.0
 10
-8.68329
 20
-2.30387
 30
0.0
 10
-8.68329
 20
-2.30387
 30
0.0
  0
SPLINE
  5
13A
330
1F
100
AcDbEntity
  8
0
370
    15
100
AcDbSpline
210
0.0
220
0.0
230
1.0
 70
    24
 71
     3
 72
     8
 73
     4
 74
     0
 42
0.0000000001
 43
0.0000000001
 40
0.0
 40
0.0
 40
0.0
 40
0.0
 40
1.0
 40
1.0
 40
1.0
 40
1.0
 10
-2.50829
 20
-2.30387
 30
0.0
 10
-2.50829
 20
-2.30387
 30
0.0
 10
-3.88329
 20
-2.30387
 30
0.0
 10
-3.88329
 20
-2.30387
 30
0.0
  0
SPLINE
  5
13B
330
1F
100
AcDbEntity
  8
0
370
    15
100
AcDbSpline
210
0.0
220
0.0
230
1.0
 70
    24
 71
     3
 72
     8
 73
     4
 74
     0
 42
0.0000000001
 43
0.0000000001
 40
0.0
 40
0.0
 40
0.0
 40
0.0
 40
1.0
 40
1.0
 40
1.0
 40
1.0
 10
-3.88329
 20
-3.05387
 30
0.0
 10
-3.88329
 20
-3.05387
 30
0.0
 10
-2.50829
 20
-3.05387
 30
0.0
 10
-2.50829
 20
-3.05387
 30
0.0
  0
SPLINE
  5
13C
330
1F
100
AcDbEntity
  8
0
370
    15
100
AcDbSpline
210
0.0
220
0.0
230
1.0
 70
     8
 71
     3
 72
     8
 73
     4
 74
     0
 42
0.0000000001
 43
0.0000000001
 40
0.0
 40
0.0
 40
0.0
 40
0.0
 40
1.0
 40
1.0
 40
1.0
 40
1.0
 10
-2.50829
 20
-3.05387
 30
0.0
 10
-2.40829
 20
-2.81387
 30
0.0
 10
-2.40829
 20
-2.54387
 30
0.0
 10
-2.50829
 20
-2.30387
 30
0.0
  0
SPLINE
  5
13D
330
1F
100
AcDbEntity
  8
0
370
    15
100
AcDbSpline
210
0.0
220
0.0
230
1.0
 70
     8
 71
     3
 72
    12
 73
     8
 74
     0
 42
0.0000000001
 43
0.0000000001
 40
0.0
 40
0.0
 40
0.0
 40
0.0
 40
0.3333333333333333
 40
0.3333333333333333
 40
0.3333333333333333
 40
0.3333333333333333
 40
1.0
 40
1.0
 40
1.0
 40
1.0
 10
-3.89579
 20
-2.38387
 30
0.0
 10
-3.89579
 20
-2.38254
 30
0.0
 10
-3.89632
 20
-2.38127
 30
0.0
 10
-3.89725
 20
-2.38033
 30
0.0
 10
-3.89725
 20
-2.38033
 30
0.0
 10
-3.89819
 20
-2.37939
 30
0.0
 10
-3.89946
 20
-2.37887
 30
0.0
 10
-3.90079
 20
-2.37887
 30
0.0
  0
SPLINE
  5
13E
330
1F
100
AcDbEntity
  8
0
370
    15
100
AcDbSpline
210
0.0
220
0.0
230
1.0
 70
     8
 71
     3
 72
    12
 73
     8
 74
     0
 42
0.0000000001
 43
0.0000000001
 40
0.0
 40
0.0
 40
0.0
 40
0.0
 40
0.3333333333333333
 40
0.3333333333333333
 40
0.3333333333333333
 40
0.3333333333333333
 40
1.0
 40
1.0
 40
1.0
 40
1.0
 10
-3.90079
 20
-2.97887
 30
0.0
 10
-3.89946
 20
-2.97887
 30
0.0
 10
-3.89819
 20
-2.97834
 30
0.0
 10
-3.89725
 20
-2.9774
 30
0.0
 10
-3.89725
 20
-2.9774
 30
0.0
 10
-3.89632
 20
-2.97646
 30
0.0
 10
-3.89579
 20
-2.97519
 30
0.0
 10
-3.89579
 20
-2.97387
 30
0.0
  0
SPLINE
  5
13F
330
1F
100
AcDbEntity
  8
0
370
    15
100
AcDbSpline
210
0.0
220
0.0
230
1.0
 70
    24
 71
     3
 72
     8
 73
     4
 74
     0
 42
0.0000000001
 43
0.0000000001
 40
0.0
 40
0.0
 40
0.0
 40
0.0
 40
1.0
 40
1.0
 40
1.0
 40
1.0
 10
-3.92079
 20
-2.97887
 30
0.0
 10
-3.92079
 20
-2.97887
 30
0.0
 10
-3.90079
 20
-2.97887
 30
0.0
 10
-3.90079
 20
-2.97887
 30
0.0
  0
SPLINE
  5
140
330
1F
100
AcDbEntity
  8
0
370
    15
100
AcDbSpline
210
0.0
220
0.0
230
1.0
 70
    24
 71
     3
 72
     8
 73
     4
 74
     0
 42
0.0000000001
 43
0.0000000001
 40
0.0
 40
0.0
 40
0.0
 40
0.0
 40
1.0
 40
1.0
 40
1.0
 40
1.0
 10
-3.90079
 20
-2.37887
 30
0.0
 10
-3.90079
 20
-2.37887
 30
0.0
 10
-3.92079
 20
-2.37887
 30
0.0
 10
-3.92079
 20
-2.37887
 30
0.0
  0
SPLINE
  5
141
330
1F
100
AcDbEntity
  8
0
370
    15
100
AcDbSpline
210
0.0
220
0.0
230
1.0
 70
    24
 71
     3
 72
     8
 73
     4
 74
     0
 42
0.0000000001
 43
0.0000000001
 40
0.0
 40
0.0
 40
0.0
 40
0.0
 40
1.0
 40
1.0
 40
1.0
 40
1.0
 10
-7.52079
 20
-2.37887
 30
0.0
 10
-7.52079
 20
-2.37887
 30
0.0
 10
-7.54079
 20
-2.37887
 30
0.0
 10
-7.54079
 20
-2.37887
 30
0.0
  0
SPLINE
  5
142
330
1F
100
AcDbEntity
  8
0
370
    15
100
AcDbSpline
210
0.0
220
0.0
230
1.0
 70
    24
 71
     3
 72
     8
 73
     4
 74
     0
 42
0.0000000001
 43
0.0000000001
 40
0.0
 40
0.0
 40
0.0
 40
0.0
 40
1.0
 40
1.0
 40
1.0
 40
1.0
 10
-7.54079
 20
-2.97887
 30
0.0
 10
-7.54079
 20
-2.97887
 30
0.0
 10
-7.52079
 20
-2.97887
 30
0.0
 10
-7.52079
 20
-2.97887
 30
0.0
  0
SPLINE
  5
143
330
1F
100
AcDbEntity
  8
0
370
    15
100
AcDbSpline
210
0.0
220
0.0
230
1.0
 70
     8
 71
     3
 72
    12
 73
     8
 74
     0
 42
0.0000000001
 43
0.0000000001
 40
0.0
 40
0.0
 40
0.0
 40
0.0
 40
0.3333333333333333
 40
0.3333333333333333
 40
0.3333333333333333
 40
0.3333333333333333
 40
1.0
 40
1.0
 40
1.0
 40
1.0
 10
-7.54579
 20
-2.97387
 30
0.0
 10
-7.54579
 20
-2.97519
 30
0.0
 10
-7.54526
 20
-2.97646
 30
0.0
 10
-7.54433
 20
-2.9774
 30
0.0
 10
-7.54433
 20
-2.9774
 30
0.0
 10
-7.54339
 20
-2.97834
 30
0.0
 10
-7.54212
 20
-2.97887
 30
0.0
 10
-7.54079
 20
-2.97887
 30
0.0
  0
SPLINE
  5
144
330
1F
100
AcDbEntity
  8
0
370
    15
100
AcDbSpline
210
0.0
220
0.0
230
1.0
 70
     8
 71
     3
 72
    12
 73
     8
 74
     0
 42
0.0000000001
 43
0.0000000001
 40
0.0
 40
0.0
 40
0.0
 40
0.0
 40
0.3333333333333333
 40
0.3333333333333333
 40
0.3333333333333333
 40
0.3333333333333333
 40
1.0
 40
1.0
 40
1.0
 40
1.0
 10
-7.54079
 20
-2.37887
 30
0.0
 10
-7.54212
 20
-2.37887
 30
0.0
 10
-7.54339
 20
-2.37939
 30
0.0
 10
-7.54433
 20
-2.38033
 30
0.0
 10
-7.54433
 20
-2.38033
 30
0.0
 10
-7.54526
 20
-2.38127
 30
0.0
 10
-7.54579
 20
-2.38254
 30
0.0
 10
-7.54579
 20
-2.38387
 30
0.0
  0
SPLINE
  5
145
330
1F
100
AcDbEntity
  8
0
370
    15
100
AcDbSpline
210
0.0
220
0.0
230
1.0
 70
     8
 71
     3
 72
    12
 73
     8
 74
     0
 42
0.0000000001
 43
0.0000000001
 40
0.0
 40
0.0
 40
0.0
 40
0.0
 40
0.3333333333333333
 40
0.3333333333333333
 40
0.3333333333333333
 40
0.3333333333333333
 40
1.0
 40
1.0
 40
1.0
 40
1.0
 10
-3.92079
 20
-2.32887
 30
0.0
 10
-3.92079
 20
-2.32224
 30
0.0
 10
-3.92342
 20
-2.31588
 30
0.0
 10
-3.92811
 20
-2.31119
 30
0.0
 10
-3.92811
 20
-2.31119
 30
0.0
 10
-3.9328
 20
-2.3065
 30
0.0
 10
-3.93916
 20
-2.30387
 30
0.0
 10
-3.94579
 20
-2.30387
 30
0.0
  0
SPLINE
  5
146
330
1F
100
AcDbEntity
  8
0
370
    15
100
AcDbSpline
210
0.0
220
0.0
230
1.0
 70
     8
 71
     3
 72
     8
 73
     4
 74
     0
 42
0.0000000001
 43
0.0000000001
 40
0.0
 40
0.0
 40
0.0
 40
0.0
 40
1.0
 40
1.0
 40
1.0
 40
1.0
 10
-3.94579
 20
-3.05387
 30
0.0
 10
-3.93198
 20
-3.05387
 30
0.0
 10
-3.92079
 20
-3.04267
 30
0.0
 10
-3.92079
 20
-3.02887
 30
0.0
  0
SPLINE
  5
147
330
1F
100
AcDbEntity
  8
0
370
    15
100
AcDbSpline
210
0.0
220
0.0
230
1.0
 70
    24
 71
     3
 72
     8
 73
     4
 74
     0
 42
0.0000000001
 43
0.0000000001
 40
0.0
 40
0.0
 40
0.0
 40
0.0
 40
1.0
 40
1.0
 40
1.0
 40
1.0
 10
-7.45502
 20
-2.30387
 30
0.0
 10
-7.45502
 20
-2.30387
 30
0.0
 10
-7.49579
 20
-2.30387
 30
0.0
 10
-7.49579
 20
-2.30387
 30
0.0
  0
SPLINE
  5
148
330
1F
100
AcDbEntity
  8
0
370
    15
100
AcDbSpline
210
0.0
220
0.0
230
1.0
 70
    24
 71
     3
 72
     8
 73
     4
 74
     0
 42
0.0000000001
 43
0.0000000001
 40
0.0
 40
0.0
 40
0.0
 40
0.0
 40
1.0
 40
1.0
 40
1.0
 40
1.0
 10
-3.94579
 20
-2.30387
 30
0.0
 10
-3.94579
 20
-2.30387
 30
0.0
 10
-3.98656
 20
-2.30387
 30
0.0
 10
-3.98656
 20
-2.30387
 30
0.0
  0
SPLINE
  5
149
330
1F
100
AcDbEntity
  8
0
370
    15
100
AcDbSpline
210
0.0
220
0.0
230
1.0
 70
    24
 71
     3
 72
     8
 73
     4
 74
     0
 42
0.0000000001
 43
0.0000000001
 40
0.0
 40
0.0
 40
0.0
 40
0.0
 40
1.0
 40
1.0
 40
1.0
 40
1.0
 10
-7.49579
 20
-3.05387
 30
0.0
 10
-7.49579
 20
-3.05387
 30
0.0
 10
-3.94579
 20
-3.05387
 30
0.0
 10
-3.94579
 20
-3.05387
 30
0.0
  0
SPLINE
  5
14A
330
1F
100
AcDbEntity
  8
0
370
    15
100
AcDbSpline
210
0.0
220
0.0
230
1.0
 70
     8
 71
     3
 72
    12
 73
     8
 74
     0
 42
0.0000000001
 43
0.0000000001
 40
0.0
 40
0.0
 40
0.0
 40
0.0
 40
0.3333333333333333
 40
0.3333333333333333
 40
0.3333333333333333
 40
0.3333333333333333
 40
1.0
 40
1.0
 40
1.0
 40
1.0
 10
-7.49579
 20
-2.30387
 30
0.0
 10
-7.50242
 20
-2.30387
 30
0.0
 10
-7.50878
 20
-2.3065
 30
0.0
 10
-7.51347
 20
-2.31119
 30
0.0
 10
-7.51347
 20
-2.31119
 30
0.0
 10
-7.51816
 20
-2.31588
 30
0.0
 10
-7.52079
 20
-2.32224
 30
0.0
 10
-7.52079
 20
-2.32887
 30
0.0
  0
SPLINE
  5
14B
330
1F
100
AcDbEntity
  8
0
370
    15
100
AcDbSpline
210
0.0
220
0.0
230
1.0
 70
     8
 71
     3
 72
    12
 73
     8
 74
     0
 42
0.0000000001
 43
0.0000000001
 40
0.0
 40
0.0
 40
0.0
 40
0.0
 40
0.3333333333333333
 40
0.3333333333333333
 40
0.3333333333333333
 40
0.3333333333333333
 40
1.0
 40
1.0
 40
1.0
 40
1.0
 10
-7.52079
 20
-3.02887
 30
0.0
 10
-7.52079
 20
-3.0355
 30
0.0
 10
-7.51816
 20
-3.04186
 30
0.0
 10
-7.51347
 20
-3.04654
 30
0.0
 10
-7.51347
 20
-3.04654
 30
0.0
 10
-7.50878
 20
-3.05123
 30
0.0
 10
-7.50242
 20
-3.05387
 30
0.0
 10
-7.49579
 20
-3.05387
 30
0.0
  0
SPLINE
  5
14C
330
1F
100
AcDbEntity
  8
0
370
    15
100
AcDbSpline
210
0.0
220
0.0
230
1.0
 70
     8
 71
     3
 72
    32
 73
    28
 74
     0
 42
0.0000000001
 43
0.0000000001
 40
0.0
 40
0.0
 40
0.0
 40
0.0
 40
0.125
 40
0.125
 40
0.125
 40
0.125
 40
0.25
 40
0.25
 40
0.25
 40
0.25
 40
0.375
 40
0.375
 40
0.375
 40
0.375
 40
0.5
 40
0.5
 40
0.5
 40
0.5
 40
0.625
 40
0.625
 40
0.625
 40
0.625
 40
0.75
 40
0.75
 40
0.75
 40
0.75
 40
1.0
 40
1.0
 40
1.0
 40
1.0
 10
-3.98655
 20
-2.30339
 30
0.0
 10
-3.98915
 20
-2.30346
 30
0.0
 10
-3.99175
 20
-2.30352
 30
0.0
 10
-3.99431
 20
-2.30325
 30
0.0
 10
-3.99431
 20
-2.30325
 30
0.0
 10
-3.99918
 20
-2.30275
 30
0.0
 10
-4.00394
 20
-2.30105
 30
0.0
 10
-4.00838
 20
-2.29882
 30
0.0
 10
-4.00838
 20
-2.29882
 30
0.0
 10
-4.01296
 20
-2.29651
 30
0.0
 10
-4.0172
 20
-2.29363
 30
0.0
 10
-4.02091
 20
-2.29013
 30
0.0
 10
-4.02091
 20
-2.29013
 30
0.0
 10
-4.02451
 20
-2.28674
 30
0.0
 10
-4.02761
 20
-2.28277
 30
0.0
 10
-4.03002
 20
-2.27846
 30
0.0
 10
-4.03002
 20
-2.27846
 30
0.0
 10
-4.03206
 20
-2.2748
 30
0.0
 10
-4.0336
 20
-2.2709
 30
0.0
 10
-4.03477
 20
-2.26685
 30
0.0
 10
-4.03477
 20
-2.26685
 30
0.0
 10
-4.03579
 20
-2.26331
 30
0.0
 10
-4.03654
 20
-2.25967
 30
0.0
 10
-4.03644
 20
-2.25602
 30
0.0
 10
-4.03644
 20
-2.25602
 30
0.0
 10
-4.03642
 20
-2.25544
 30
0.0
 10
-4.03638
 20
-2.25485
 30
0.0
 10
-4.03634
 20
-2.25427
 30
0.0
  0
SPLINE
  5
14D
330
1F
100
AcDbEntity
  8
0
370
    15
100
AcDbSpline
210
0.0
220
0.0
230
1.0
 70
     8
 71
     3
 72
    32
 73
    28
 74
     0
 42
0.0000000001
 43
0.0000000001
 40
0.0
 40
0.0
 40
0.0
 40
0.0
 40
0.125
 40
0.125
 40
0.125
 40
0.125
 40
0.25
 40
0.25
 40
0.25
 40
0.25
 40
0.375
 40
0.375
 40
0.375
 40
0.375
 40
0.5
 40
0.5
 40
0.5
 40
0.5
 40
0.625
 40
0.625
 40
0.625
 40
0.625
 40
0.75
 40
0.75
 40
0.75
 40
0.75
 40
1.0
 40
1.0
 40
1.0
 40
1.0
 10
-7.40511
 20
-2.25427
 30
0.0
 10
-7.40511
 20
-2.25431
 30
0.0
 10
-7.4051
 20
-2.25435
 30
0.0
 10
-7.4051
 20
-2.25438
 30
0.0
 10
-7.4051
 20
-2.25438
 30
0.0
 10
-7.4046
 20
-2.25966
 30
0.0
 10
-7.40593
 20
-2.26502
 30
0.0
 10
-7.40779
 20
-2.27007
 30
0.0
 10
-7.40779
 20
-2.27007
 30
0.0
 10
-7.40943
 20
-2.2745
 30
0.0
 10
-7.41148
 20
-2.27869
 30
0.0
 10
-7.41412
 20
-2.28252
 30
0.0
 10
-7.41412
 20
-2.28252
 30
0.0
 10
-7.41697
 20
-2.28666
 30
0.0
 10
-7.42052
 20
-2.29038
 30
0.0
 10
-7.42453
 20
-2.29344
 30
0.0
 10
-7.42453
 20
-2.29344
 30
0.0
 10
-7.42884
 20
-2.29673
 30
0.0
 10
-7.43369
 20
-2.29926
 30
0.0
 10
-7.43883
 20
-2.30115
 30
0.0
 10
-7.43883
 20
-2.30115
 30
0.0
 10
-7.44309
 20
-2.30271
 30
0.0
 10
-7.44755
 20
-2.30385
 30
0.0
 10
-7.45203
 20
-2.30377
 30
0.0
 10
-7.45203
 20
-2.30377
 30
0.0
 10
-7.45302
 20
-2.30376
 30
0.0
 10
-7.45401
 20
-2.30368
 30
0.0
 10
-7.455
 20
-2.30361
 30
0.0
  0
SPLINE
  5
14E
330
1F
100
AcDbEntity
  8
0
370
    15
100
AcDbSpline
210
0.0
220
0.0
230
1.0
 70
    24
 71
     3
 72
     8
 73
     4
 74
     0
 42
0.0000000001
 43
0.0000000001
 40
0.0
 40
0.0
 40
0.0
 40
0.0
 40
1.0
 40
1.0
 40
1.0
 40
1.0
 10
-4.03648
 20
-2.25418
 30
0.0
 10
-4.03648
 20
-2.25418
 30
0.0
 10
-4.03648
 20
-2.17887
 30
0.0
 10
-4.03648
 20
-2.17887
 30
0.0
  0
SPLINE
  5
14F
330
1F
100
AcDbEntity
  8
0
370
    15
100
AcDbSpline
210
0.0
220
0.0
230
1.0
 70
    24
 71
     3
 72
     8
 73
     4
 74
     0
 42
0.0000000001
 43
0.0000000001
 40
0.0
 40
0.0
 40
0.0
 40
0.0
 40
1.0
 40
1.0
 40
1.0
 40
1.0
 10
-4.03648
 20
-2.17887
 30
0.0
 10
-4.03648
 20
-2.17887
 30
0.0
 10
-4.03648
 20
-1.82887
 30
0.0
 10
-4.03648
 20
-1.82887
 30
0.0
  0
SPLINE
  5
150
330
1F
100
AcDbEntity
  8
0
370
    15
100
AcDbSpline
210
0.0
220
0.0
230
1.0
 70
    24
 71
     3
 72
     8
 73
     4
 74
     0
 42
0.0000000001
 43
0.0000000001
 40
0.0
 40
0.0
 40
0.0
 40
0.0
 40
1.0
 40
1.0
 40
1.0
 40
1.0
 10
-7.4051
 20
-1.82887
 30
0.0
 10
-7.4051
 20
-1.82887
 30
0.0
 10
-7.4051
 20
-2.17887
 30
0.0
 10
-7.4051
 20
-2.17887
 30
0.0
  0
SPLINE
  5
151
330
1F
100
AcDbEntity
  8
0
370
    15
100
AcDbSpline
210
0.0
220
0.0
230
1.0
 70
    24
 71
     3
 72
     8
 73
     4
 74
     0
 42
0.0000000001
 43
0.0000000001
 40
0.0
 40
0.0
 40
0.0
 40
0.0
 40
1.0
 40
1.0
 40
1.0
 40
1.0
 10
-7.4051
 20
-2.17887
 30
0.0
 10
-7.4051
 20
-2.17887
 30
0.0
 10
-7.4051
 20
-2.25418
 30
0.0
 10
-7.4051
 20
-2.25418
 30
0.0
  0
SPLINE
  5
152
330
1F
100
AcDbEntity
  8
0
370
    15
100
AcDbSpline
210
0.0
220
0.0
230
1.0
 70
    24
 71
     3
 72
     8
 73
     4
 74
     0
 42
0.0000000001
 43
0.0000000001
 40
0.0
 40
0.0
 40
0.0
 40
0.0
 40
1.0
 40
1.0
 40
1.0
 40
1.0
 10
-8.98329
 20
-2.30387
 30
0.0
 10
-8.98329
 20
-2.30387
 30
0.0
 10
-8.98329
 20
-3.05387
 30
0.0
 10
-8.98329
 20
-3.05387
 30
0.0
  0
SPLINE
  5
153
330
1F
100
AcDbEntity
  8
0
370
    15
100
AcDbSpline
210
0.0
220
0.0
230
1.0
 70
    24
 71
     3
 72
     8
 73
     4
 74
     0
 42
0.0000000001
 43
0.0000000001
 40
0.0
 40
0.0
 40
0.0
 40
0.0
 40
1.0
 40
1.0
 40
1.0
 40
1.0
 10
-8.68329
 20
-2.49137
 30
0.0
 10
-8.68329
 20
-2.49137
 30
0.0
 10
-8.68329
 20
-3.05387
 30
0.0
 10
-8.68329
 20
-3.05387
 30
0.0
  0
SPLINE
  5
154
330
1F
100
AcDbEntity
  8
0
370
    15
100
AcDbSpline
210
0.0
220
0.0
230
1.0
 70
    24
 71
     3
 72
     8
 73
     4
 74
     0
 42
0.0000000001
 43
0.0000000001
 40
0.0
 40
0.0
 40
0.0
 40
0.0
 40
1.0
 40
1.0
 40
1.0
 40
1.0
 10
-8.68329
 20
-2.30387
 30
0.0
 10
-8.68329
 20
-2.30387
 30
0.0
 10
-8.68329
 20
-2.49137
 30
0.0
 10
-8.68329
 20
-2.49137
 30
0.0
  0
SPLINE
  5
155
330
1F
100
AcDbEntity
  8
0
370
    15
100
AcDbSpline
210
0.0
220
0.0
230
1.0
 70
    24
 71
     3
 72
     8
 73
     4
 74
     0
 42
0.0000000001
 43
0.0000000001
 40
0.0
 40
0.0
 40
0.0
 40
0.0
 40
1.0
 40
1.0
 40
1.0
 40
1.0
 10
-8.98329
 20
-4.42537
 30
0.0
 10
-8.98329
 20
-4.42537
 30
0.0
 10
-8.98329
 20
-3.05387
 30
0.0
 10
-8.98329
 20
-3.05387
 30
0.0
  0
SPLINE
  5
156
330
1F
100
AcDbEntity
  8
0
370
    15
100
AcDbSpline
210
0.0
220
0.0
230
1.0
 70
    24
 71
     3
 72
     8
 73
     4
 74
     0
 42
0.0000000001
 43
0.0000000001
 40
0.0
 40
0.0
 40
0.0
 40
0.0
 40
1.0
 40
1.0
 40
1.0
 40
1.0
 10
-8.83329
 20
-4.42537
 30
0.0
 10
-8.83329
 20
-4.42537
 30
0.0
 10
-8.83329
 20
-3.05387
 30
0.0
 10
-8.83329
 20
-3.05387
 30
0.0
  0
SPLINE
  5
157
330
1F
100
AcDbEntity
  8
0
370
    15
100
AcDbSpline
210
0.0
220
0.0
230
1.0
 70
     8
 71
     3
 72
    52
 73
    48
 74
     0
 42
0.0000000001
 43
0.0000000001
 40
0.0
 40
0.0
 40
0.0
 40
0.0
 40
0.0769230769230769
 40
0.0769230769230769
 40
0.0769230769230769
 40
0.0769230769230769
 40
0.1538461538461539
 40
0.1538461538461539
 40
0.1538461538461539
 40
0.1538461538461539
 40
0.2307692307692308
 40
0.2307692307692308
 40
0.2307692307692308
 40
0.2307692307692308
 40
0.3076923076923077
 40
0.3076923076923077
 40
0.3076923076923077
 40
0.3076923076923077
 40
0.3846153846153846
 40
0.3846153846153846
 40
0.3846153846153846
 40
0.3846153846153846
 40
0.4615384615384616
 40
0.4615384615384616
 40
0.4615384615384616
 40
0.4615384615384616
 40
0.5384615384615384
 40
0.5384615384615384
 40
0.5384615384615384
 40
0.5384615384615384
 40
0.6153846153846154
 40
0.6153846153846154
 40
0.6153846153846154
 40
0.6153846153846154
 40
0.6923076923076923
 40
0.6923076923076923
 40
0.6923076923076923
 40
0.6923076923076923
 40
0.7692307692307693
 40
0.7692307692307693
 40
0.7692307692307693
 40
0.7692307692307693
 40
0.8461538461538461
 40
0.8461538461538461
 40
0.8461538461538461
 40
0.8461538461538461
 40
1.0
 40
1.0
 40
1.0
 40
1.0
 10
-8.83329
 20
-4.42537
 30
0.0
 10
-8.83329
 20
-4.42537
 30
0.0
 10
-8.8303
 20
-4.44821
 30
0.0
 10
-8.8303
 20
-4.44821
 30
0.0
 10
-8.8303
 20
-4.44821
 30
0.0
 10
-8.8303
 20
-4.44821
 30
0.0
 10
-8.82136
 20
-4.47067
 30
0.0
 10
-8.82136
 20
-4.47067
 30
0.0
 10
-8.82136
 20
-4.47067
 30
0.0
 10
-8.82136
 20
-4.47067
 30
0.0
 10
-8.80665
 20
-4.49234
 30
0.0
 10
-8.80665
 20
-4.49234
 30
0.0
 10
-8.80665
 20
-4.49234
 30
0.0
 10
-8.80665
 20
-4.49234
 30
0.0
 10
-8.7864
 20
-4.51287
 30
0.0
 10
-8.7864
 20
-4.51287
 30
0.0
 10
-8.7864
 20
-4.51287
 30
0.0
 10
-8.7864
 20
-4.51287
 30
0.0
 10
-8.76096
 20
-4.53191
 30
0.0
 10
-8.76096
 20
-4.53191
 30
0.0
 10
-8.76096
 20
-4.53191
 30
0.0
 10
-8.76096
 20
-4.53191
 30
0.0
 10
-8.73078
 20
-4.54912
 30
0.0
 10
-8.73078
 20
-4.54912
 30
0.0
 10
-8.73078
 20
-4.54912
 30
0.0
 10
-8.73078
 20
-4.54912
 30
0.0
 10
-8.69636
 20
-4.56421
 30
0.0
 10
-8.69636
 20
-4.56421
 30
0.0
 10
-8.69636
 20
-4.56421
 30
0.0
 10
-8.69636
 20
-4.56421
 30
0.0
 10
-8.65829
 20
-4.57693
 30
0.0
 10
-8.65829
 20
-4.57693
 30
0.0
 10
-8.65829
 20
-4.57693
 30
0.0
 10
-8.65829
 20
-4.57693
 30
0.0
 10
-8.61723
 20
-4.58705
 30
0.0
 10
-8.61723
 20
-4.58705
 30
0.0
 10
-8.61723
 20
-4.58705
 30
0.0
 10
-8.61723
 20
-4.58705
 30
0.0
 10
-8.57388
 20
-4.59441
 30
0.0
 10
-8.57388
 20
-4.59441
 30
0.0
 10
-8.57388
 20
-4.59441
 30
0.0
 10
-8.57388
 20
-4.59441
 30
0.0
 10
-8.52897
 20
-4.59888
 30
0.0
 10
-8.52897
 20
-4.59888
 30
0.0
 10
-8.52897
 20
-4.59888
 30
0.0
 10
-8.52897
 20
-4.59888
 30
0.0
 10
-8.48329
 20
-4.60037
 30
0.0
 10
-8.48329
 20
-4.60037
 30
0.0
  0
SPLINE
  5
158
330
1F
100
AcDbEntity
  8
0
370
    15
100
AcDbSpline
210
0.0
220
0.0
230
1.0
 70
    24
 71
     3
 72
     8
 73
     4
 74
     0
 42
0.0000000001
 43
0.0000000001
 40
0.0
 40
0.0
 40
0.0
 40
0.0
 40
1.0
 40
1.0
 40
1.0
 40
1.0
 10
-8.48329
 20
-4.60037
 30
0.0
 10
-8.48329
 20
-4.60037
 30
0.0
 10
-2.98329
 20
-4.60037
 30
0.0
 10
-2.98329
 20
-4.60037
 30
0.0
  0
SPLINE
  5
159
330
1F
100
AcDbEntity
  8
0
370
    15
100
AcDbSpline
210
0.0
220
0.0
230
1.0
 70
     8
 71
     3
 72
    52
 73
    48
 74
     0
 42
0.0000000001
 43
0.0000000001
 40
0.0
 40
0.0
 40
0.0
 40
0.0
 40
0.0769230769230769
 40
0.0769230769230769
 40
0.0769230769230769
 40
0.0769230769230769
 40
0.1538461538461539
 40
0.1538461538461539
 40
0.1538461538461539
 40
0.1538461538461539
 40
0.2307692307692308
 40
0.2307692307692308
 40
0.2307692307692308
 40
0.2307692307692308
 40
0.3076923076923077
 40
0.3076923076923077
 40
0.3076923076923077
 40
0.3076923076923077
 40
0.3846153846153846
 40
0.3846153846153846
 40
0.3846153846153846
 40
0.3846153846153846
 40
0.4615384615384616
 40
0.4615384615384616
 40
0.4615384615384616
 40
0.4615384615384616
 40
0.5384615384615384
 40
0.5384615384615384
 40
0.5384615384615384
 40
0.5384615384615384
 40
0.6153846153846154
 40
0.6153846153846154
 40
0.6153846153846154
 40
0.6153846153846154
 40
0.6923076923076923
 40
0.6923076923076923
 40
0.6923076923076923
 40
0.6923076923076923
 40
0.7692307692307693
 40
0.7692307692307693
 40
0.7692307692307693
 40
0.7692307692307693
 40
0.8461538461538461
 40
0.8461538461538461
 40
0.8461538461538461
 40
0.8461538461538461
 40
1.0
 40
1.0
 40
1.0
 40
1.0
 10
-2.98329
 20
-4.60037
 30
0.0
 10
-2.98329
 20
-4.60037
 30
0.0
 10
-2.93761
 20
-4.59888
 30
0.0
 10
-2.93761
 20
-4.59888
 30
0.0
 10
-2.93761
 20
-4.59888
 30
0.0
 10
-2.93761
 20
-4.59888
 30
0.0
 10
-2.8927
 20
-4.59441
 30
0.0
 10
-2.8927
 20
-4.59441
 30
0.0
 10
-2.8927
 20
-4.59441
 30
0.0
 10
-2.8927
 20
-4.59441
 30
0.0
 10
-2.84935
 20
-4.58705
 30
0.0
 10
-2.84935
 20
-4.58705
 30
0.0
 10
-2.84935
 20
-4.58705
 30
0.0
 10
-2.84935
 20
-4.58705
 30
0.0
 10
-2.80829
 20
-4.57693
 30
0.0
 10
-2.80829
 20
-4.57693
 30
0.0
 10
-2.80829
 20
-4.57693
 30
0.0
 10
-2.80829
 20
-4.57693
 30
0.0
 10
-2.77022
 20
-4.56421
 30
0.0
 10
-2.77022
 20
-4.56421
 30
0.0
 10
-2.77022
 20
-4.56421
 30
0.0
 10
-2.77022
 20
-4.56421
 30
0.0
 10
-2.7358
 20
-4.54912
 30
0.0
 10
-2.7358
 20
-4.54912
 30
0.0
 10
-2.7358
 20
-4.54912
 30
0.0
 10
-2.7358
 20
-4.54912
 30
0.0
 10
-2.70562
 20
-4.53191
 30
0.0
 10
-2.70562
 20
-4.53191
 30
0.0
 10
-2.70562
 20
-4.53191
 30
0.0
 10
-2.70562
 20
-4.53191
 30
0.0
 10
-2.68018
 20
-4.51287
 30
0.0
 10
-2.68018
 20
-4.51287
 30
0.0
 10
-2.68018
 20
-4.51287
 30
0.0
 10
-2.68018
 20
-4.51287
 30
0.0
 10
-2.65993
 20
-4.49234
 30
0.0
 10
-2.65993
 20
-4.49234
 30
0.0
 10
-2.65993
 20
-4.49234
 30
0.0
 10
-2.65993
 20
-4.49234
 30
0.0
 10
-2.64522
 20
-4.47067
 30
0.0
 10
-2.64522
 20
-4.47067
 30
0.0
 10
-2.64522
 20
-4.47067
 30
0.0
 10
-2.64522
 20
-4.47067
 30
0.0
 10
-2.63628
 20
-4.44821
 30
0.0
 10
-2.63628
 20
-4.44821
 30
0.0
 10
-2.63628
 20
-4.44821
 30
0.0
 10
-2.63628
 20
-4.44821
 30
0.0
 10
-2.63329
 20
-4.42537
 30
0.0
 10
-2.63329
 20
-4.42537
 30
0.0
  0
SPLINE
  5
15A
330
1F
100
AcDbEntity
  8
0
370
    15
100
AcDbSpline
210
0.0
220
0.0
230
1.0
 70
    24
 71
     3
 72
     8
 73
     4
 74
     0
 42
0.0000000001
 43
0.0000000001
 40
0.0
 40
0.0
 40
0.0
 40
0.0
 40
1.0
 40
1.0
 40
1.0
 40
1.0
 10
-2.63329
 20
-4.42537
 30
0.0
 10
-2.63329
 20
-4.42537
 30
0.0
 10
-2.63329
 20
-4.37537
 30
0.0
 10
-2.63329
 20
-4.37537
 30
0.0
  0
SPLINE
  5
15B
330
1F
100
AcDbEntity
  8
0
370
    15
100
AcDbSpline
210
0.0
220
0.0
230
1.0
 70
    24
 71
     3
 72
     8
 73
     4
 74
     0
 42
0.0000000001
 43
0.0000000001
 40
0.0
 40
0.0
 40
0.0
 40
0.0
 40
1.0
 40
1.0
 40
1.0
 40
1.0
 10
-2.48329
 20
-4.37537
 30
0.0
 10
-2.48329
 20
-4.37537
 30
0.0
 10
-2.63329
 20
-4.37537
 30
0.0
 10
-2.63329
 20
-4.37537
 30
0.0
  0
SPLINE
  5
15C
330
1F
100
AcDbEntity
  8
0
370
    15
100
AcDbSpline
210
0.0
220
0.0
230
1.0
 70
    24
 71
     3
 72
     8
 73
     4
 74
     0
 42
0.0000000001
 43
0.0000000001
 40
0.0
 40
0.0
 40
0.0
 40
0.0
 40
1.0
 40
1.0
 40
1.0
 40
1.0
 10
-2.48329
 20
-4.42537
 30
0.0
 10
-2.48329
 20
-4.42537
 30
0.0
 10
-2.48329
 20
-4.37537
 30
0.0
 10
-2.48329
 20
-4.37537
 30
0.0
  0
SPLINE
  5
15D
330
1F
100
AcDbEntity
  8
0
370
    15
100
AcDbSpline
210
0.0
220
0.0
230
1.0
 70
     8
 71
     3
 72
    60
 73
    56
 74
     0
 42
0.0000000001
 43
0.0000000001
 40
0.0
 40
0.0
 40
0.0
 40
0.0
 40
0.0666666666666667
 40
0.0666666666666667
 40
0.0666666666666667
 40
0.0666666666666667
 40
0.1333333333333333
 40
0.1333333333333333
 40
0.1333333333333333
 40
0.1333333333333333
 40
0.2
 40
0.2
 40
0.2
 40
0.2
 40
0.2666666666666667
 40
0.2666666666666667
 40
0.2666666666666667
 40
0.2666666666666667
 40
0.3333333333333333
 40
0.3333333333333333
 40
0.3333333333333333
 40
0.3333333333333333
 40
0.4
 40
0.4
 40
0.4
 40
0.4
 40
0.4666666666666667
 40
0.4666666666666667
 40
0.4666666666666667
 40
0.4666666666666667
 40
0.5333333333333333
 40
0.5333333333333333
 40
0.5333333333333333
 40
0.5333333333333333
 40
0.6
 40
0.6
 40
0.6
 40
0.6
 40
0.6666666666666666
 40
0.6666666666666666
 40
0.6666666666666666
 40
0.6666666666666666
 40
0.7333333333333333
 40
0.7333333333333333
 40
0.7333333333333333
 40
0.7333333333333333
 40
0.8
 40
0.8
 40
0.8
 40
0.8
 40
0.8666666666666667
 40
0.8666666666666667
 40
0.8666666666666667
 40
0.8666666666666667
 40
1.0
 40
1.0
 40
1.0
 40
1.0
 10
-2.98329
 20
-4.67537
 30
0.0
 10
-2.98329
 20
-4.67537
 30
0.0
 10
-2.92731
 20
-4.6738
 30
0.0
 10
-2.92731
 20
-4.6738
 30
0.0
 10
-2.92731
 20
-4.6738
 30
0.0
 10
-2.92731
 20
-4.6738
 30
0.0
 10
-2.87203
 20
-4.6691
 30
0.0
 10
-2.87203
 20
-4.6691
 30
0.0
 10
-2.87203
 20
-4.6691
 30
0.0
 10
-2.87203
 20
-4.6691
 30
0.0
 10
-2.81815
 20
-4.66134
 30
0.0
 10
-2.81815
 20
-4.66134
 30
0.0
 10
-2.81815
 20
-4.66134
 30
0.0
 10
-2.81815
 20
-4.66134
 30
0.0
 10
-2.76635
 20
-4.65061
 30
0.0
 10
-2.76635
 20
-4.65061
 30
0.0
 10
-2.76635
 20
-4.65061
 30
0.0
 10
-2.76635
 20
-4.65061
 30
0.0
 10
-2.71727
 20
-4.63705
 30
0.0
 10
-2.71727
 20
-4.63705
 30
0.0
 10
-2.71727
 20
-4.63705
 30
0.0
 10
-2.71727
 20
-4.63705
 30
0.0
 10
-2.67155
 20
-4.62083
 30
0.0
 10
-2.67155
 20
-4.62083
 30
0.0
 10
-2.67155
 20
-4.62083
 30
0.0
 10
-2.67155
 20
-4.62083
 30
0.0
 10
-2.62974
 20
-4.60215
 30
0.0
 10
-2.62974
 20
-4.60215
 30
0.0
 10
-2.62974
 20
-4.60215
 30
0.0
 10
-2.62974
 20
-4.60215
 30
0.0
 10
-2.59237
 20
-4.58125
 30
0.0
 10
-2.59237
 20
-4.58125
 30
0.0
 10
-2.59237
 20
-4.58125
 30
0.0
 10
-2.59237
 20
-4.58125
 30
0.0
 10
-2.55993
 20
-4.55838
 30
0.0
 10
-2.55993
 20
-4.55838
 30
0.0
 10
-2.55993
 20
-4.55838
 30
0.0
 10
-2.55993
 20
-4.55838
 30
0.0
 10
-2.53281
 20
-4.53384
 30
0.0
 10
-2.53281
 20
-4.53384
 30
0.0
 10
-2.53281
 20
-4.53384
 30
0.0
 10
-2.53281
 20
-4.53384
 30
0.0
 10
-2.51135
 20
-4.50794
 30
0.0
 10
-2.51135
 20
-4.50794
 30
0.0
 10
-2.51135
 20
-4.50794
 30
0.0
 10
-2.51135
 20
-4.50794
 30
0.0
 10
-2.49583
 20
-4.481
 30
0.0
 10
-2.49583
 20
-4.481
 30
0.0
 10
-2.49583
 20
-4.481
 30
0.0
 10
-2.49583
 20
-4.481
 30
0.0
 10
-2.48643
 20
-4.45336
 30
0.0
 10
-2.48643
 20
-4.45336
 30
0.0
 10
-2.48643
 20
-4.45336
 30
0.0
 10
-2.48643
 20
-4.45336
 30
0.0
 10
-2.48329
 20
-4.42537
 30
0.0
 10
-2.48329
 20
-4.42537
 30
0.0
  0
SPLINE
  5
15E
330
1F
100
AcDbEntity
  8
0
370
    15
100
AcDbSpline
210
0.0
220
0.0
230
1.0
 70
    24
 71
     3
 72
     8
 73
     4
 74
     0
 42
0.0000000001
 43
0.0000000001
 40
0.0
 40
0.0
 40
0.0
 40
0.0
 40
1.0
 40
1.0
 40
1.0
 40
1.0
 10
-8.48329
 20
-4.67537
 30
0.0
 10
-8.48329
 20
-4.67537
 30
0.0
 10
-2.98329
 20
-4.67537
 30
0.0
 10
-2.98329
 20
-4.67537
 30
0.0
  0
SPLINE
  5
15F
330
1F
100
AcDbEntity
  8
0
370
    15
100
AcDbSpline
210
0.0
220
0.0
230
1.0
 70
     8
 71
     3
 72
    60
 73
    56
 74
     0
 42
0.0000000001
 43
0.0000000001
 40
0.0
 40
0.0
 40
0.0
 40
0.0
 40
0.0666666666666667
 40
0.0666666666666667
 40
0.0666666666666667
 40
0.0666666666666667
 40
0.1333333333333333
 40
0.1333333333333333
 40
0.1333333333333333
 40
0.1333333333333333
 40
0.2
 40
0.2
 40
0.2
 40
0.2
 40
0.2666666666666667
 40
0.2666666666666667
 40
0.2666666666666667
 40
0.2666666666666667
 40
0.3333333333333333
 40
0.3333333333333333
 40
0.3333333333333333
 40
0.3333333333333333
 40
0.4
 40
0.4
 40
0.4
 40
0.4
 40
0.4666666666666667
 40
0.4666666666666667
 40
0.4666666666666667
 40
0.4666666666666667
 40
0.5333333333333333
 40
0.5333333333333333
 40
0.5333333333333333
 40
0.5333333333333333
 40
0.6
 40
0.6
 40
0.6
 40
0.6
 40
0.6666666666666666
 40
0.6666666666666666
 40
0.6666666666666666
 40
0.6666666666666666
 40
0.7333333333333333
 40
0.7333333333333333
 40
0.7333333333333333
 40
0.7333333333333333
 40
0.8
 40
0.8
 40
0.8
 40
0.8
 40
0.8666666666666667
 40
0.8666666666666667
 40
0.8666666666666667
 40
0.8666666666666667
 40
1.0
 40
1.0
 40
1.0
 40
1.0
 10
-8.98329
 20
-4.42537
 30
0.0
 10
-8.98329
 20
-4.42537
 30
0.0
 10
-8.98015
 20
-4.45336
 30
0.0
 10
-8.98015
 20
-4.45336
 30
0.0
 10
-8.98015
 20
-4.45336
 30
0.0
 10
-8.98015
 20
-4.45336
 30
0.0
 10
-8.97075
 20
-4.481
 30
0.0
 10
-8.97075
 20
-4.481
 30
0.0
 10
-8.97075
 20
-4.481
 30
0.0
 10
-8.97075
 20
-4.481
 30
0.0
 10
-8.95523
 20
-4.50794
 30
0.0
 10
-8.95523
 20
-4.50794
 30
0.0
 10
-8.95523
 20
-4.50794
 30
0.0
 10
-8.95523
 20
-4.50794
 30
0.0
 10
-8.93377
 20
-4.53384
 30
0.0
 10
-8.93377
 20
-4.53384
 30
0.0
 10
-8.93377
 20
-4.53384
 30
0.0
 10
-8.93377
 20
-4.53384
 30
0.0
 10
-8.90665
 20
-4.55838
 30
0.0
 10
-8.90665
 20
-4.55838
 30
0.0
 10
-8.90665
 20
-4.55838
 30
0.0
 10
-8.90665
 20
-4.55838
 30
0.0
 10
-8.87421
 20
-4.58125
 30
0.0
 10
-8.87421
 20
-4.58125
 30
0.0
 10
-8.87421
 20
-4.58125
 30
0.0
 10
-8.87421
 20
-4.58125
 30
0.0
 10
-8.83684
 20
-4.60215
 30
0.0
 10
-8.83684
 20
-4.60215
 30
0.0
 10
-8.83684
 20
-4.60215
 30
0.0
 10
-8.83684
 20
-4.60215
 30
0.0
 10
-8.79503
 20
-4.62083
 30
0.0
 10
-8.79503
 20
-4.62083
 30
0.0
 10
-8.79503
 20
-4.62083
 30
0.0
 10
-8.79503
 20
-4.62083
 30
0.0
 10
-8.74931
 20
-4.63705
 30
0.0
 10
-8.74931
 20
-4.63705
 30
0.0
 10
-8.74931
 20
-4.63705
 30
0.0
 10
-8.74931
 20
-4.63705
 30
0.0
 10
-8.70023
 20
-4.65061
 30
0.0
 10
-8.70023
 20
-4.65061
 30
0.0
 10
-8.70023
 20
-4.65061
 30
0.0
 10
-8.70023
 20
-4.65061
 30
0.0
 10
-8.64843
 20
-4.66134
 30
0.0
 10
-8.64843
 20
-4.66134
 30
0.0
 10
-8.64843
 20
-4.66134
 30
0.0
 10
-8.64843
 20
-4.66134
 30
0.0
 10
-8.59455
 20
-4.6691
 30
0.0
 10
-8.59455
 20
-4.6691
 30
0.0
 10
-8.59455
 20
-4.6691
 30
0.0
 10
-8.59455
 20
-4.6691
 30
0.0
 10
-8.53927
 20
-4.6738
 30
0.0
 10
-8.53927
 20
-4.6738
 30
0.0
 10
-8.53927
 20
-4.6738
 30
0.0
 10
-8.53927
 20
-4.6738
 30
0.0
 10
-8.48329
 20
-4.67537
 30
0.0
 10
-8.48329
 20
-4.67537
 30
0.0
  0
SPLINE
  5
160
330
1F
100
AcDbEntity
  8
0
370
    15
100
AcDbSpline
210
0.0
220
0.0
230
1.0
 70
    24
 71
     3
 72
     8
 73
     4
 74
     0
 42
0.0000000001
 43
0.0000000001
 40
0.0
 40
0.0
 40
0.0
 40
0.0
 40
1.0
 40
1.0
 40
1.0
 40
1.0
 10
-2.63329
 20
-3.90887
 30
0.0
 10
-2.63329
 20
-3.90887
 30
0.0
 10
-2.63329
 20
-4.37537
 30
0.0
 10
-2.63329
 20
-4.37537
 30
0.0
  0
SPLINE
  5
161
330
1F
100
AcDbEntity
  8
0
370
    15
100
AcDbSpline
210
0.0
220
0.0
230
1.0
 70
    24
 71
     3
 72
     8
 73
     4
 74
     0
 42
0.0000000001
 43
0.0000000001
 40
0.0
 40
0.0
 40
0.0
 40
0.0
 40
1.0
 40
1.0
 40
1.0
 40
1.0
 10
-2.48329
 20
-3.90887
 30
0.0
 10
-2.48329
 20
-3.90887
 30
0.0
 10
-2.48329
 20
-4.37537
 30
0.0
 10
-2.48329
 20
-4.37537
 30
0.0
  0
SPLINE
  5
162
330
1F
100
AcDbEntity
  8
0
370
    15
100
AcDbSpline
210
0.0
220
0.0
230
1.0
 70
    24
 71
     3
 72
     8
 73
     4
 74
     0
 42
0.0000000001
 43
0.0000000001
 40
0.0
 40
0.0
 40
0.0
 40
0.0
 40
1.0
 40
1.0
 40
1.0
 40
1.0
 10
-8.48329
 20
-4.60037
 30
0.0
 10
-8.48329
 20
-4.60037
 30
0.0
 10
-8.48329
 20
-4.16736
 30
0.0
 10
-8.48329
 20
-4.16736
 30
0.0
  0
SPLINE
  5
163
330
1F
100
AcDbEntity
  8
0
370
    15
100
AcDbSpline
210
0.0
220
0.0
230
1.0
 70
     8
 71
     3
 72
     8
 73
     4
 74
     0
 42
0.0000000001
 43
0.0000000001
 40
0.0
 40
0.0
 40
0.0
 40
0.0
 40
1.0
 40
1.0
 40
1.0
 40
1.0
 10
-8.7663
 20
-4.09532
 30
0.0
 10
-8.68104
 20
-4.14649
 30
0.0
 10
-8.58264
 20
-4.17154
 30
0.0
 10
-8.48329
 20
-4.16736
 30
0.0
  0
SPLINE
  5
164
330
1F
100
AcDbEntity
  8
0
370
    15
100
AcDbSpline
210
0.0
220
0.0
230
1.0
 70
    24
 71
     3
 72
     8
 73
     4
 74
     0
 42
0.0000000001
 43
0.0000000001
 40
0.0
 40
0.0
 40
0.0
 40
0.0
 40
1.0
 40
1.0
 40
1.0
 40
1.0
 10
-2.98329
 20
-4.60037
 30
0.0
 10
-2.98329
 20
-4.60037
 30
0.0
 10
-2.98329
 20
-4.16736
 30
0.0
 10
-2.98329
 20
-4.16736
 30
0.0
  0
SPLINE
  5
165
330
1F
100
AcDbEntity
  8
0
370
    15
100
AcDbSpline
210
0.0
220
0.0
230
1.0
 70
     8
 71
     3
 72
     8
 73
     4
 74
     0
 42
0.0000000001
 43
0.0000000001
 40
0.0
 40
0.0
 40
0.0
 40
0.0
 40
1.0
 40
1.0
 40
1.0
 40
1.0
 10
-2.98329
 20
-4.16736
 30
0.0
 10
-2.88208
 20
-4.1718
 30
0.0
 10
-2.78189
 20
-4.1456
 30
0.0
 10
-2.69581
 20
-4.09218
 30
0.0
  0
SPLINE
  5
166
330
1F
100
AcDbEntity
  8
0
370
    15
100
AcDbSpline
210
0.0
220
0.0
230
1.0
 70
    24
 71
     3
 72
     8
 73
     4
 74
     0
 42
0.0000000001
 43
0.0000000001
 40
0.0
 40
0.0
 40
0.0
 40
0.0
 40
1.0
 40
1.0
 40
1.0
 40
1.0
 10
-8.48329
 20
-4.16736
 30
0.0
 10
-8.48329
 20
-4.16736
 30
0.0
 10
-2.98329
 20
-4.16736
 30
0.0
 10
-2.98329
 20
-4.16736
 30
0.0
  0
SPLINE
  5
167
330
1F
100
AcDbEntity
  8
0
370
    15
100
AcDbSpline
210
0.0
220
0.0
230
1.0
 70
    24
 71
     3
 72
     8
 73
     4
 74
     0
 42
0.0000000001
 43
0.0000000001
 40
0.0
 40
0.0
 40
0.0
 40
0.0
 40
1.0
 40
1.0
 40
1.0
 40
1.0
 10
-8.68329
 20
-2.30387
 30
0.0
 10
-8.68329
 20
-2.30387
 30
0.0
 10
-8.68329
 20
-3.05387
 30
0.0
 10
-8.68329
 20
-3.05387
 30
0.0
  0
SPLINE
  5
168
330
1F
100
AcDbEntity
  8
0
370
    15
100
AcDbSpline
210
0.0
220
0.0
230
1.0
 70
    24
 71
     3
 72
     8
 73
     4
 74
     0
 42
0.0000000001
 43
0.0000000001
 40
0.0
 40
0.0
 40
0.0
 40
0.0
 40
1.0
 40
1.0
 40
1.0
 40
1.0
 10
-7.55829
 20
-2.30387
 30
0.0
 10
-7.55829
 20
-2.30387
 30
0.0
 10
-7.55829
 20
-3.05387
 30
0.0
 10
-7.55829
 20
-3.05387
 30
0.0
  0
SPLINE
  5
169
330
1F
100
AcDbEntity
  8
0
370
    15
100
AcDbSpline
210
0.0
220
0.0
230
1.0
 70
    24
 71
     3
 72
     8
 73
     4
 74
     0
 42
0.0000000001
 43
0.0000000001
 40
0.0
 40
0.0
 40
0.0
 40
0.0
 40
1.0
 40
1.0
 40
1.0
 40
1.0
 10
-3.88329
 20
-2.30387
 30
0.0
 10
-3.88329
 20
-2.30387
 30
0.0
 10
-3.88329
 20
-3.05387
 30
0.0
 10
-3.88329
 20
-3.05387
 30
0.0
  0
SPLINE
  5
16A
330
1F
100
AcDbEntity
  8
0
370
    15
100
AcDbSpline
210
0.0
220
0.0
230
1.0
 70
    24
 71
     3
 72
     8
 73
     4
 74
     0
 42
0.0000000001
 43
0.0000000001
 40
0.0
 40
0.0
 40
0.0
 40
0.0
 40
1.0
 40
1.0
 40
1.0
 40
1.0
 10
-2.50829
 20
-2.30387
 30
0.0
 10
-2.50829
 20
-2.30387
 30
0.0
 10
-2.50829
 20
-3.05387
 30
0.0
 10
-2.50829
 20
-3.05387
 30
0.0
  0
SPLINE
  5
16B
330
1F
100
AcDbEntity
  8
0
370
    15
100
AcDbSpline
210
0.0
220
0.0
230
1.0
 70
    24
 71
     3
 72
     8
 73
     4
 74
     0
 42
0.0000000001
 43
0.0000000001
 40
0.0
 40
0.0
 40
0.0
 40
0.0
 40
1.0
 40
1.0
 40
1.0
 40
1.0
 10
-3.89579
 20
-2.38387
 30
0.0
 10
-3.89579
 20
-2.38387
 30
0.0
 10
-3.89579
 20
-2.97387
 30
0.0
 10
-3.89579
 20
-2.97387
 30
0.0
  0
SPLINE
  5
16C
330
1F
100
AcDbEntity
  8
0
370
    15
100
AcDbSpline
210
0.0
220
0.0
230
1.0
 70
    24
 71
     3
 72
     8
 73
     4
 74
     0
 42
0.0000000001
 43
0.0000000001
 40
0.0
 40
0.0
 40
0.0
 40
0.0
 40
1.0
 40
1.0
 40
1.0
 40
1.0
 10
-7.54579
 20
-2.97387
 30
0.0
 10
-7.54579
 20
-2.97387
 30
0.0
 10
-7.54579
 20
-2.38387
 30
0.0
 10
-7.54579
 20
-2.38387
 30
0.0
  0
SPLINE
  5
16D
330
1F
100
AcDbEntity
  8
0
370
    15
100
AcDbSpline
210
0.0
220
0.0
230
1.0
 70
    24
 71
     3
 72
     8
 73
     4
 74
     0
 42
0.0000000001
 43
0.0000000001
 40
0.0
 40
0.0
 40
0.0
 40
0.0
 40
1.0
 40
1.0
 40
1.0
 40
1.0
 10
-3.92079
 20
-2.32887
 30
0.0
 10
-3.92079
 20
-2.32887
 30
0.0
 10
-3.92079
 20
-3.02887
 30
0.0
 10
-3.92079
 20
-3.02887
 30
0.0
  0
SPLINE
  5
16E
330
1F
100
AcDbEntity
  8
0
370
    15
100
AcDbSpline
210
0.0
220
0.0
230
1.0
 70
    24
 71
     3
 72
     8
 73
     4
 74
     0
 42
0.0000000001
 43
0.0000000001
 40
0.0
 40
0.0
 40
0.0
 40
0.0
 40
1.0
 40
1.0
 40
1.0
 40
1.0
 10
-4.03648
 20
-2.37561
 30
0.0
 10
-4.03648
 20
-2.37561
 30
0.0
 10
-7.4051
 20
-2.37561
 30
0.0
 10
-7.4051
 20
-2.37561
 30
0.0
  0
SPLINE
  5
16F
330
1F
100
AcDbEntity
  8
0
370
    15
100
AcDbSpline
210
0.0
220
0.0
230
1.0
 70
    24
 71
     3
 72
     8
 73
     4
 74
     0
 42
0.0000000001
 43
0.0000000001
 40
0.0
 40
0.0
 40
0.0
 40
0.0
 40
1.0
 40
1.0
 40
1.0
 40
1.0
 10
-7.52079
 20
-3.02887
 30
0.0
 10
-7.52079
 20
-3.02887
 30
0.0
 10
-7.52079
 20
-2.32887
 30
0.0
 10
-7.52079
 20
-2.32887
 30
0.0
  0
SPLINE
  5
170
330
1F
100
AcDbEntity
  8
0
370
    15
100
AcDbSpline
210
0.0
220
0.0
230
1.0
 70
     8
 71
     3
 72
    20
 73
    16
 74
     0
 42
0.0000000001
 43
0.0000000001
 40
0.0
 40
0.0
 40
0.0
 40
0.0
 40
0.2
 40
0.2
 40
0.2
 40
0.2
 40
0.4
 40
0.4
 40
0.4
 40
0.4
 40
0.6
 40
0.6
 40
0.6
 40
0.6
 40
1.0
 40
1.0
 40
1.0
 40
1.0
 10
-4.06212
 20
-2.32665
 30
0.0
 10
-4.05959
 20
-2.33336
 30
0.0
 10
-4.05705
 20
-2.34007
 30
0.0
 10
-4.05427
 20
-2.34612
 30
0.0
 10
-4.05427
 20
-2.34612
 30
0.0
 10
-4.05134
 20
-2.3525
 30
0.0
 10
-4.04815
 20
-2.35813
 30
0.0
 10
-4.04495
 20
-2.36327
 30
0.0
 10
-4.04495
 20
-2.36327
 30
0.0
 10
-4.04218
 20
-2.36772
 30
0.0
 10
-4.03941
 20
-2.37179
 30
0.0
 10
-4.03663
 20
-2.3754
 30
0.0
 10
-4.03663
 20
-2.3754
 30
0.0
 10
-4.03658
 20
-2.37547
 30
0.0
 10
-4.03653
 20
-2.37554
 30
0.0
 10
-4.03648
 20
-2.37561
 30
0.0
  0
SPLINE
  5
171
330
1F
100
AcDbEntity
  8
0
370
    15
100
AcDbSpline
210
0.0
220
0.0
230
1.0
 70
    24
 71
     3
 72
     8
 73
     4
 74
     0
 42
0.0000000001
 43
0.0000000001
 40
0.0
 40
0.0
 40
0.0
 40
0.0
 40
1.0
 40
1.0
 40
1.0
 40
1.0
 10
-4.06494
 20
-2.30271
 30
0.0
 10
-4.06494
 20
-2.30271
 30
0.0
 10
-4.06212
 20
-2.32665
 30
0.0
 10
-4.06212
 20
-2.32665
 30
0.0
  0
SPLINE
  5
172
330
1F
100
AcDbEntity
  8
0
370
    15
100
AcDbSpline
210
0.0
220
0.0
230
1.0
 70
     8
 71
     3
 72
    20
 73
    16
 74
     0
 42
0.0000000001
 43
0.0000000001
 40
0.0
 40
0.0
 40
0.0
 40
0.0
 40
0.2
 40
0.2
 40
0.2
 40
0.2
 40
0.4
 40
0.4
 40
0.4
 40
0.4
 40
0.6
 40
0.6
 40
0.6
 40
0.6
 40
1.0
 40
1.0
 40
1.0
 40
1.0
 10
-4.03648
 20
-2.37561
 30
0.0
 10
-4.03657
 20
-2.37556
 30
0.0
 10
-4.03667
 20
-2.37551
 30
0.0
 10
-4.03677
 20
-2.37546
 30
0.0
 10
-4.03677
 20
-2.37546
 30
0.0
 10
-4.0418
 20
-2.37287
 30
0.0
 10
-4.04683
 20
-2.36979
 30
0.0
 10
-4.05182
 20
-2.36632
 30
0.0
 10
-4.05182
 20
-2.36632
 30
0.0
 10
-4.05762
 20
-2.36229
 30
0.0
 10
-4.06338
 20
-2.35772
 30
0.0
 10
-4.06857
 20
-2.3523
 30
0.0
 10
-4.06857
 20
-2.3523
 30
0.0
 10
-4.07355
 20
-2.34711
 30
0.0
 10
-4.078
 20
-2.34114
 30
0.0
 10
-4.08244
 20
-2.33517
 30
0.0
  0
SPLINE
  5
173
330
1F
100
AcDbEntity
  8
0
370
    15
100
AcDbSpline
210
0.0
220
0.0
230
1.0
 70
    24
 71
     3
 72
     8
 73
     4
 74
     0
 42
0.0000000001
 43
0.0000000001
 40
0.0
 40
0.0
 40
0.0
 40
0.0
 40
1.0
 40
1.0
 40
1.0
 40
1.0
 10
-4.06212
 20
-2.32665
 30
0.0
 10
-4.06212
 20
-2.32665
 30
0.0
 10
-4.08244
 20
-2.33517
 30
0.0
 10
-4.08244
 20
-2.33517
 30
0.0
  0
SPLINE
  5
174
330
1F
100
AcDbEntity
  8
0
370
    15
100
AcDbSpline
210
0.0
220
0.0
230
1.0
 70
     8
 71
     3
 72
    12
 73
     8
 74
     0
 42
0.0000000001
 43
0.0000000001
 40
0.0
 40
0.0
 40
0.0
 40
0.0
 40
0.3333333333333333
 40
0.3333333333333333
 40
0.3333333333333333
 40
0.3333333333333333
 40
1.0
 40
1.0
 40
1.0
 40
1.0
 10
-7.37946
 20
-2.32665
 30
0.0
 10
-7.37798
 20
-2.32011
 30
0.0
 10
-7.37651
 20
-2.31356
 30
0.0
 10
-7.37651
 20
-2.30695
 30
0.0
 10
-7.37651
 20
-2.30695
 30
0.0
 10
-7.37651
 20
-2.30554
 30
0.0
 10
-7.37657
 20
-2.30413
 30
0.0
 10
-7.37664
 20
-2.30271
 30
0.0
  0
SPLINE
  5
175
330
1F
100
AcDbEntity
  8
0
370
    15
100
AcDbSpline
210
0.0
220
0.0
230
1.0
 70
     8
 71
     3
 72
    20
 73
    16
 74
     0
 42
0.0000000001
 43
0.0000000001
 40
0.0
 40
0.0
 40
0.0
 40
0.0
 40
0.2
 40
0.2
 40
0.2
 40
0.2
 40
0.4
 40
0.4
 40
0.4
 40
0.4
 40
0.6
 40
0.6
 40
0.6
 40
0.6
 40
1.0
 40
1.0
 40
1.0
 40
1.0
 10
-7.4051
 20
-2.37561
 30
0.0
 10
-7.40505
 20
-2.37554
 30
0.0
 10
-7.405
 20
-2.37547
 30
0.0
 10
-7.40495
 20
-2.3754
 30
0.0
 10
-7.40495
 20
-2.3754
 30
0.0
 10
-7.40217
 20
-2.37179
 30
0.0
 10
-7.3994
 20
-2.36772
 30
0.0
 10
-7.39663
 20
-2.36327
 30
0.0
 10
-7.39663
 20
-2.36327
 30
0.0
 10
-7.39343
 20
-2.35813
 30
0.0
 10
-7.39024
 20
-2.3525
 30
0.0
 10
-7.38731
 20
-2.34612
 30
0.0
 10
-7.38731
 20
-2.34612
 30
0.0
 10
-7.38453
 20
-2.34007
 30
0.0
 10
-7.38199
 20
-2.33336
 30
0.0
 10
-7.37946
 20
-2.32665
 30
0.0
  0
SPLINE
  5
176
330
1F
100
AcDbEntity
  8
0
370
    15
100
AcDbSpline
210
0.0
220
0.0
230
1.0
 70
     8
 71
     3
 72
    20
 73
    16
 74
     0
 42
0.0000000001
 43
0.0000000001
 40
0.0
 40
0.0
 40
0.0
 40
0.0
 40
0.2
 40
0.2
 40
0.2
 40
0.2
 40
0.4
 40
0.4
 40
0.4
 40
0.4
 40
0.6
 40
0.6
 40
0.6
 40
0.6
 40
1.0
 40
1.0
 40
1.0
 40
1.0
 10
-7.35914
 20
-2.33517
 30
0.0
 10
-7.36359
 20
-2.34114
 30
0.0
 10
-7.36803
 20
-2.34711
 30
0.0
 10
-7.37301
 20
-2.3523
 30
0.0
 10
-7.37301
 20
-2.3523
 30
0.0
 10
-7.3782
 20
-2.35772
 30
0.0
 10
-7.38396
 20
-2.36229
 30
0.0
 10
-7.38976
 20
-2.36632
 30
0.0
 10
-7.38976
 20
-2.36632
 30
0.0
 10
-7.39475
 20
-2.36979
 30
0.0
 10
-7.39978
 20
-2.37287
 30
0.0
 10
-7.40481
 20
-2.37546
 30
0.0
 10
-7.40481
 20
-2.37546
 30
0.0
 10
-7.40491
 20
-2.37551
 30
0.0
 10
-7.40501
 20
-2.37556
 30
0.0
 10
-7.4051
 20
-2.37561
 30
0.0
  0
SPLINE
  5
177
330
1F
100
AcDbEntity
  8
0
370
    15
100
AcDbSpline
210
0.0
220
0.0
230
1.0
 70
    24
 71
     3
 72
     8
 73
     4
 74
     0
 42
0.0000000001
 43
0.0000000001
 40
0.0
 40
0.0
 40
0.0
 40
0.0
 40
1.0
 40
1.0
 40
1.0
 40
1.0
 10
-7.35914
 20
-2.33517
 30
0.0
 10
-7.35914
 20
-2.33517
 30
0.0
 10
-7.37946
 20
-2.32665
 30
0.0
 10
-7.37946
 20
-2.32665
 30
0.0
  0
SPLINE
  5
178
330
1F
100
AcDbEntity
  8
0
370
    15
100
AcDbSpline
210
0.0
220
0.0
230
1.0
 70
    24
 71
     3
 72
     8
 73
     4
 74
     0
 42
0.0000000001
 43
0.0000000001
 40
0.0
 40
0.0
 40
0.0
 40
0.0
 40
1.0
 40
1.0
 40
1.0
 40
1.0
 10
-7.35914
 20
-2.33517
 30
0.0
 10
-7.35914
 20
-2.33517
 30
0.0
 10
-4.08244
 20
-2.33517
 30
0.0
 10
-4.08244
 20
-2.33517
 30
0.0
  0
SPLINE
  5
179
330
1F
100
AcDbEntity
  8
0
370
    15
100
AcDbSpline
210
0.0
220
0.0
230
1.0
 70
    24
 71
     3
 72
     8
 73
     4
 74
     0
 42
0.0000000001
 43
0.0000000001
 40
0.0
 40
0.0
 40
0.0
 40
0.0
 40
1.0
 40
1.0
 40
1.0
 40
1.0
 10
-4.06494
 20
-1.64626
 30
0.0
 10
-4.06494
 20
-1.64626
 30
0.0
 10
-4.06494
 20
-2.17887
 30
0.0
 10
-4.06494
 20
-2.17887
 30
0.0
  0
SPLINE
  5
17A
330
1F
100
AcDbEntity
  8
0
370
    15
100
AcDbSpline
210
0.0
220
0.0
230
1.0
 70
    24
 71
     3
 72
     8
 73
     4
 74
     0
 42
0.0000000001
 43
0.0000000001
 40
0.0
 40
0.0
 40
0.0
 40
0.0
 40
1.0
 40
1.0
 40
1.0
 40
1.0
 10
-4.06494
 20
-2.17887
 30
0.0
 10
-4.06494
 20
-2.17887
 30
0.0
 10
-4.08875
 20
-2.17887
 30
0.0
 10
-4.08875
 20
-2.17887
 30
0.0
  0
SPLINE
  5
17B
330
1F
100
AcDbEntity
  8
0
370
    15
100
AcDbSpline
210
0.0
220
0.0
230
1.0
 70
    24
 71
     3
 72
     8
 73
     4
 74
     0
 42
0.0000000001
 43
0.0000000001
 40
0.0
 40
0.0
 40
0.0
 40
0.0
 40
1.0
 40
1.0
 40
1.0
 40
1.0
 10
-4.08875
 20
-2.17887
 30
0.0
 10
-4.08875
 20
-2.17887
 30
0.0
 10
-4.08875
 20
-1.62887
 30
0.0
 10
-4.08875
 20
-1.62887
 30
0.0
  0
SPLINE
  5
17C
330
1F
100
AcDbEntity
  8
0
370
    15
100
AcDbSpline
210
0.0
220
0.0
230
1.0
 70
     8
 71
     3
 72
     8
 73
     4
 74
     0
 42
0.0000000001
 43
0.0000000001
 40
0.0
 40
0.0
 40
0.0
 40
0.0
 40
1.0
 40
1.0
 40
1.0
 40
1.0
 10
-4.06494
 20
-1.64626
 30
0.0
 10
-4.06825
 20
-1.6359
 30
0.0
 10
-4.07788
 20
-1.62887
 30
0.0
 10
-4.08875
 20
-1.62887
 30
0.0
  0
SPLINE
  5
17D
330
1F
100
AcDbEntity
  8
0
370
    15
100
AcDbSpline
210
0.0
220
0.0
230
1.0
 70
    24
 71
     3
 72
     8
 73
     4
 74
     0
 42
0.0000000001
 43
0.0000000001
 40
0.0
 40
0.0
 40
0.0
 40
0.0
 40
1.0
 40
1.0
 40
1.0
 40
1.0
 10
-7.35283
 20
-1.62887
 30
0.0
 10
-7.35283
 20
-1.62887
 30
0.0
 10
-7.35283
 20
-2.17887
 30
0.0
 10
-7.35283
 20
-2.17887
 30
0.0
  0
SPLINE
  5
17E
330
1F
100
AcDbEntity
  8
0
370
    15
100
AcDbSpline
210
0.0
220
0.0
230
1.0
 70
    24
 71
     3
 72
     8
 73
     4
 74
     0
 42
0.0000000001
 43
0.0000000001
 40
0.0
 40
0.0
 40
0.0
 40
0.0
 40
1.0
 40
1.0
 40
1.0
 40
1.0
 10
-7.35283
 20
-2.17887
 30
0.0
 10
-7.35283
 20
-2.17887
 30
0.0
 10
-7.37664
 20
-2.17887
 30
0.0
 10
-7.37664
 20
-2.17887
 30
0.0
  0
SPLINE
  5
17F
330
1F
100
AcDbEntity
  8
0
370
    15
100
AcDbSpline
210
0.0
220
0.0
230
1.0
 70
    24
 71
     3
 72
     8
 73
     4
 74
     0
 42
0.0000000001
 43
0.0000000001
 40
0.0
 40
0.0
 40
0.0
 40
0.0
 40
1.0
 40
1.0
 40
1.0
 40
1.0
 10
-7.37664
 20
-2.17887
 30
0.0
 10
-7.37664
 20
-2.17887
 30
0.0
 10
-7.37664
 20
-1.64626
 30
0.0
 10
-7.37664
 20
-1.64626
 30
0.0
  0
SPLINE
  5
180
330
1F
100
AcDbEntity
  8
0
370
    15
100
AcDbSpline
210
0.0
220
0.0
230
1.0
 70
     8
 71
     3
 72
     8
 73
     4
 74
     0
 42
0.0000000001
 43
0.0000000001
 40
0.0
 40
0.0
 40
0.0
 40
0.0
 40
1.0
 40
1.0
 40
1.0
 40
1.0
 10
-7.35283
 20
-1.62887
 30
0.0
 10
-7.3637
 20
-1.62887
 30
0.0
 10
-7.37333
 20
-1.6359
 30
0.0
 10
-7.37664
 20
-1.64626
 30
0.0
  0
SPLINE
  5
181
330
1F
100
AcDbEntity
  8
0
370
    15
100
AcDbSpline
210
0.0
220
0.0
230
1.0
 70
    24
 71
     3
 72
     8
 73
     4
 74
     0
 42
0.0000000001
 43
0.0000000001
 40
0.0
 40
0.0
 40
0.0
 40
0.0
 40
1.0
 40
1.0
 40
1.0
 40
1.0
 10
-7.33329
 20
-1.66481
 30
0.0
 10
-7.33329
 20
-1.66481
 30
0.0
 10
-7.33329
 20
-1.62887
 30
0.0
 10
-7.33329
 20
-1.62887
 30
0.0
  0
SPLINE
  5
182
330
1F
100
AcDbEntity
  8
0
370
    15
100
AcDbSpline
210
0.0
220
0.0
230
1.0
 70
     8
 71
     3
 72
    28
 73
    24
 74
     0
 42
0.0000000001
 43
0.0000000001
 40
0.0
 40
0.0
 40
0.0
 40
0.0
 40
0.1428571428571428
 40
0.1428571428571428
 40
0.1428571428571428
 40
0.1428571428571428
 40
0.2857142857142857
 40
0.2857142857142857
 40
0.2857142857142857
 40
0.2857142857142857
 40
0.4285714285714285
 40
0.4285714285714285
 40
0.4285714285714285
 40
0.4285714285714285
 40
0.5714285714285714
 40
0.5714285714285714
 40
0.5714285714285714
 40
0.5714285714285714
 40
0.7142857142857143
 40
0.7142857142857143
 40
0.7142857142857143
 40
0.7142857142857143
 40
1.0
 40
1.0
 40
1.0
 40
1.0
 10
-7.17079
 20
-1.75831
 30
0.0
 10
-7.18637
 20
-1.7572
 30
0.0
 10
-7.20196
 20
-1.75608
 30
0.0
 10
-7.21657
 20
-1.75297
 30
0.0
 10
-7.21657
 20
-1.75297
 30
0.0
 10
-7.23105
 20
-1.74988
 30
0.0
 10
-7.24457
 20
-1.74483
 30
0.0
 10
-7.25683
 20
-1.73912
 30
0.0
 10
-7.25683
 20
-1.73912
 30
0.0
 10
-7.2704
 20
-1.73281
 30
0.0
 10
-7.28242
 20
-1.72571
 30
0.0
 10
-7.29269
 20
-1.71829
 30
0.0
 10
-7.29269
 20
-1.71829
 30
0.0
 10
-7.30511
 20
-1.70932
 30
0.0
 10
-7.31498
 20
-1.69989
 30
0.0
 10
-7.322
 20
-1.6909
 30
0.0
 10
-7.322
 20
-1.6909
 30
0.0
 10
-7.3257
 20
-1.68616
 30
0.0
 10
-7.32862
 20
-1.68154
 30
0.0
 10
-7.33037
 20
-1.67721
 30
0.0
 10
-7.33037
 20
-1.67721
 30
0.0
 10
-7.33212
 20
-1.67289
 30
0.0
 10
-7.3327
 20
-1.66885
 30
0.0
 10
-7.33329
 20
-1.66481
 30
0.0
  0
SPLINE
  5
183
330
1F
100
AcDbEntity
  8
0
370
    15
100
AcDbSpline
210
0.0
220
0.0
230
1.0
 70
    24
 71
     3
 72
     8
 73
     4
 74
     0
 42
0.0000000001
 43
0.0000000001
 40
0.0
 40
0.0
 40
0.0
 40
0.0
 40
1.0
 40
1.0
 40
1.0
 40
1.0
 10
-4.27079
 20
-1.75831
 30
0.0
 10
-4.27079
 20
-1.75831
 30
0.0
 10
-7.17079
 20
-1.75831
 30
0.0
 10
-7.17079
 20
-1.75831
 30
0.0
  0
SPLINE
  5
184
330
1F
100
AcDbEntity
  8
0
370
    15
100
AcDbSpline
210
0.0
220
0.0
230
1.0
 70
     8
 71
     3
 72
    32
 73
    28
 74
     0
 42
0.0000000001
 43
0.0000000001
 40
0.0
 40
0.0
 40
0.0
 40
0.0
 40
0.125
 40
0.125
 40
0.125
 40
0.125
 40
0.25
 40
0.25
 40
0.25
 40
0.25
 40
0.375
 40
0.375
 40
0.375
 40
0.375
 40
0.5
 40
0.5
 40
0.5
 40
0.5
 40
0.625
 40
0.625
 40
0.625
 40
0.625
 40
0.75
 40
0.75
 40
0.75
 40
0.75
 40
1.0
 40
1.0
 40
1.0
 40
1.0
 10
-4.10829
 20
-1.66481
 30
0.0
 10
-4.10883
 20
-1.66869
 30
0.0
 10
-4.10938
 20
-1.67258
 30
0.0
 10
-4.11101
 20
-1.67674
 30
0.0
 10
-4.11101
 20
-1.67674
 30
0.0
 10
-4.11264
 20
-1.6809
 30
0.0
 10
-4.11535
 20
-1.68533
 30
0.0
 10
-4.1188
 20
-1.68988
 30
0.0
 10
-4.1188
 20
-1.68988
 30
0.0
 10
-4.12569
 20
-1.69895
 30
0.0
 10
-4.13553
 20
-1.7085
 30
0.0
 10
-4.14799
 20
-1.71764
 30
0.0
 10
-4.14799
 20
-1.71764
 30
0.0
 10
-4.15471
 20
-1.72257
 30
0.0
 10
-4.1622
 20
-1.72738
 30
0.0
 10
-4.17037
 20
-1.73188
 30
0.0
 10
-4.17037
 20
-1.73188
 30
0.0
 10
-4.17854
 20
-1.73637
 30
0.0
 10
-4.18741
 20
-1.74055
 30
0.0
 10
-4.19694
 20
-1.74427
 30
0.0
 10
-4.19694
 20
-1.74427
 30
0.0
 10
-4.2102
 20
-1.74945
 30
0.0
 10
-4.22476
 20
-1.75374
 30
0.0
 10
-4.23997
 20
-1.75589
 30
0.0
 10
-4.23997
 20
-1.75589
 30
0.0
 10
-4.25005
 20
-1.75732
 30
0.0
 10
-4.26042
 20
-1.75782
 30
0.0
 10
-4.27079
 20
-1.75831
 30
0.0
  0
SPLINE
  5
185
330
1F
100
AcDbEntity
  8
0
370
    15
100
AcDbSpline
210
0.0
220
0.0
230
1.0
 70
    24
 71
     3
 72
     8
 73
     4
 74
     0
 42
0.0000000001
 43
0.0000000001
 40
0.0
 40
0.0
 40
0.0
 40
0.0
 40
1.0
 40
1.0
 40
1.0
 40
1.0
 10
-4.10829
 20
-1.62887
 30
0.0
 10
-4.10829
 20
-1.62887
 30
0.0
 10
-4.10829
 20
-1.66481
 30
0.0
 10
-4.10829
 20
-1.66481
 30
0.0
  0
SPLINE
  5
186
330
1F
100
AcDbEntity
  8
0
370
    15
100
AcDbSpline
210
0.0
220
0.0
230
1.0
 70
    24
 71
     3
 72
     8
 73
     4
 74
     0
 42
0.0000000001
 43
0.0000000001
 40
0.0
 40
0.0
 40
0.0
 40
0.0
 40
1.0
 40
1.0
 40
1.0
 40
1.0
 10
-4.08875
 20
-1.62887
 30
0.0
 10
-4.08875
 20
-1.62887
 30
0.0
 10
-4.10829
 20
-1.62887
 30
0.0
 10
-4.10829
 20
-1.62887
 30
0.0
  0
SPLINE
  5
187
330
1F
100
AcDbEntity
  8
0
370
    15
100
AcDbSpline
210
0.0
220
0.0
230
1.0
 70
    24
 71
     3
 72
     8
 73
     4
 74
     0
 42
0.0000000001
 43
0.0000000001
 40
0.0
 40
0.0
 40
0.0
 40
0.0
 40
1.0
 40
1.0
 40
1.0
 40
1.0
 10
-4.08875
 20
-2.17887
 30
0.0
 10
-4.08875
 20
-2.17887
 30
0.0
 10
-7.35283
 20
-2.17887
 30
0.0
 10
-7.35283
 20
-2.17887
 30
0.0
  0
SPLINE
  5
188
330
1F
100
AcDbEntity
  8
0
370
    15
100
AcDbSpline
210
0.0
220
0.0
230
1.0
 70
    24
 71
     3
 72
     8
 73
     4
 74
     0
 42
0.0000000001
 43
0.0000000001
 40
0.0
 40
0.0
 40
0.0
 40
0.0
 40
1.0
 40
1.0
 40
1.0
 40
1.0
 10
-7.33329
 20
-1.62887
 30
0.0
 10
-7.33329
 20
-1.62887
 30
0.0
 10
-7.35283
 20
-1.62887
 30
0.0
 10
-7.35283
 20
-1.62887
 30
0.0
  0
SPLINE
  5
189
330
1F
100
AcDbEntity
  8
0
370
    15
100
AcDbSpline
210
0.0
220
0.0
230
1.0
 70
    24
 71
     3
 72
     8
 73
     4
 74
     0
 42
0.0000000001
 43
0.0000000001
 40
0.0
 40
0.0
 40
0.0
 40
0.0
 40
1.0
 40
1.0
 40
1.0
 40
1.0
 10
-7.35283
 20
-2.17887
 30
0.0
 10
-7.35283
 20
-2.17887
 30
0.0
 10
-7.35283
 20
-2.30271
 30
0.0
 10
-7.35283
 20
-2.30271
 30
0.0
  0
SPLINE
  5
18A
330
1F
100
AcDbEntity
  8
0
370
    15
100
AcDbSpline
210
0.0
220
0.0
230
1.0
 70
    24
 71
     3
 72
     8
 73
     4
 74
     0
 42
0.0000000001
 43
0.0000000001
 40
0.0
 40
0.0
 40
0.0
 40
0.0
 40
1.0
 40
1.0
 40
1.0
 40
1.0
 10
-7.35283
 20
-2.30271
 30
0.0
 10
-7.35283
 20
-2.30271
 30
0.0
 10
-7.37664
 20
-2.30271
 30
0.0
 10
-7.37664
 20
-2.30271
 30
0.0
  0
SPLINE
  5
18B
330
1F
100
AcDbEntity
  8
0
370
    15
100
AcDbSpline
210
0.0
220
0.0
230
1.0
 70
    24
 71
     3
 72
     8
 73
     4
 74
     0
 42
0.0000000001
 43
0.0000000001
 40
0.0
 40
0.0
 40
0.0
 40
0.0
 40
1.0
 40
1.0
 40
1.0
 40
1.0
 10
-7.37664
 20
-2.30271
 30
0.0
 10
-7.37664
 20
-2.30271
 30
0.0
 10
-7.37664
 20
-2.17887
 30
0.0
 10
-7.37664
 20
-2.17887
 30
0.0
  0
SPLINE
  5
18C
330
1F
100
AcDbEntity
  8
0
370
    15
100
AcDbSpline
210
0.0
220
0.0
230
1.0
 70
    24
 71
     3
 72
     8
 73
     4
 74
     0
 42
0.0000000001
 43
0.0000000001
 40
0.0
 40
0.0
 40
0.0
 40
0.0
 40
1.0
 40
1.0
 40
1.0
 40
1.0
 10
-4.08875
 20
-2.30271
 30
0.0
 10
-4.08875
 20
-2.30271
 30
0.0
 10
-4.08875
 20
-2.17887
 30
0.0
 10
-4.08875
 20
-2.17887
 30
0.0
  0
SPLINE
  5
18D
330
1F
100
AcDbEntity
  8
0
370
    15
100
AcDbSpline
210
0.0
220
0.0
230
1.0
 70
    24
 71
     3
 72
     8
 73
     4
 74
     0
 42
0.0000000001
 43
0.0000000001
 40
0.0
 40
0.0
 40
0.0
 40
0.0
 40
1.0
 40
1.0
 40
1.0
 40
1.0
 10
-4.08244
 20
-2.33517
 30
0.0
 10
-4.08244
 20
-2.33517
 30
0.0
 10
-4.08875
 20
-2.30271
 30
0.0
 10
-4.08875
 20
-2.30271
 30
0.0
  0
SPLINE
  5
18E
330
1F
100
AcDbEntity
  8
0
370
    15
100
AcDbSpline
210
0.0
220
0.0
230
1.0
 70
    24
 71
     3
 72
     8
 73
     4
 74
     0
 42
0.0000000001
 43
0.0000000001
 40
0.0
 40
0.0
 40
0.0
 40
0.0
 40
1.0
 40
1.0
 40
1.0
 40
1.0
 10
-7.35283
 20
-2.30271
 30
0.0
 10
-7.35283
 20
-2.30271
 30
0.0
 10
-7.35914
 20
-2.33517
 30
0.0
 10
-7.35914
 20
-2.33517
 30
0.0
  0
SPLINE
  5
18F
330
1F
100
AcDbEntity
  8
0
370
    15
100
AcDbSpline
210
0.0
220
0.0
230
1.0
 70
    24
 71
     3
 72
     8
 73
     4
 74
     0
 42
0.0000000001
 43
0.0000000001
 40
0.0
 40
0.0
 40
0.0
 40
0.0
 40
1.0
 40
1.0
 40
1.0
 40
1.0
 10
-4.06494
 20
-2.17887
 30
0.0
 10
-4.06494
 20
-2.17887
 30
0.0
 10
-4.06494
 20
-2.30271
 30
0.0
 10
-4.06494
 20
-2.30271
 30
0.0
  0
SPLINE
  5
190
330
1F
100
AcDbEntity
  8
0
370
    15
100
AcDbSpline
210
0.0
220
0.0
230
1.0
 70
    24
 71
     3
 72
     8
 73
     4
 74
     0
 42
0.0000000001
 43
0.0000000001
 40
0.0
 40
0.0
 40
0.0
 40
0.0
 40
1.0
 40
1.0
 40
1.0
 40
1.0
 10
-4.06494
 20
-2.30271
 30
0.0
 10
-4.06494
 20
-2.30271
 30
0.0
 10
-4.08875
 20
-2.30271
 30
0.0
 10
-4.08875
 20
-2.30271
 30
0.0
  0
SPLINE
  5
191
330
1F
100
AcDbEntity
  8
0
370
    15
100
AcDbSpline
210
0.0
220
0.0
230
1.0
 70
     8
 71
     3
 72
     8
 73
     4
 74
     0
 42
0.0000000001
 43
0.0000000001
 40
0.0
 40
0.0
 40
0.0
 40
0.0
 40
1.0
 40
1.0
 40
1.0
 40
1.0
 10
-4.03648
 20
-1.82887
 30
0.0
 10
-4.03648
 20
-1.76689
 30
0.0
 10
-4.04608
 20
-1.70529
 30
0.0
 10
-4.06494
 20
-1.64626
 30
0.0
  0
SPLINE
  5
192
330
1F
100
AcDbEntity
  8
0
370
    15
100
AcDbSpline
210
0.0
220
0.0
230
1.0
 70
     8
 71
     3
 72
     8
 73
     4
 74
     0
 42
0.0000000001
 43
0.0000000001
 40
0.0
 40
0.0
 40
0.0
 40
0.0
 40
1.0
 40
1.0
 40
1.0
 40
1.0
 10
-7.37664
 20
-1.64626
 30
0.0
 10
-7.3955
 20
-1.70529
 30
0.0
 10
-7.4051
 20
-1.76689
 30
0.0
 10
-7.4051
 20
-1.82887
 30
0.0
  0
SPLINE
  5
193
330
1F
100
AcDbEntity
  8
0
370
    15
100
AcDbSpline
210
0.0
220
0.0
230
1.0
 70
    24
 71
     3
 72
     8
 73
     4
 74
     0
 42
0.0000000001
 43
0.0000000001
 40
0.0
 40
0.0
 40
0.0
 40
0.0
 40
1.0
 40
1.0
 40
1.0
 40
1.0
 10
-4.27079
 20
-1.75831
 30
0.0
 10
-4.27079
 20
-1.75831
 30
0.0
 10
-4.27079
 20
-1.74875
 30
0.0
 10
-4.27079
 20
-1.74875
 30
0.0
  0
SPLINE
  5
194
330
1F
100
AcDbEntity
  8
0
370
    15
100
AcDbSpline
210
0.0
220
0.0
230
1.0
 70
     8
 71
     3
 72
    28
 73
    24
 74
     0
 42
0.0000000001
 43
0.0000000001
 40
0.0
 40
0.0
 40
0.0
 40
0.0
 40
0.1428571428571428
 40
0.1428571428571428
 40
0.1428571428571428
 40
0.1428571428571428
 40
0.2857142857142857
 40
0.2857142857142857
 40
0.2857142857142857
 40
0.2857142857142857
 40
0.4285714285714285
 40
0.4285714285714285
 40
0.4285714285714285
 40
0.4285714285714285
 40
0.5714285714285714
 40
0.5714285714285714
 40
0.5714285714285714
 40
0.5714285714285714
 40
0.7142857142857143
 40
0.7142857142857143
 40
0.7142857142857143
 40
0.7142857142857143
 40
1.0
 40
1.0
 40
1.0
 40
1.0
 10
-4.27079
 20
-1.74875
 30
0.0
 10
-4.26121
 20
-1.74824
 30
0.0
 10
-4.25162
 20
-1.74774
 30
0.0
 10
-4.24234
 20
-1.74628
 30
0.0
 10
-4.24234
 20
-1.74628
 30
0.0
 10
-4.22822
 20
-1.74407
 30
0.0
 10
-4.21479
 20
-1.73966
 30
0.0
 10
-4.20262
 20
-1.7344
 30
0.0
 10
-4.20262
 20
-1.7344
 30
0.0
 10
-4.19374
 20
-1.73056
 30
0.0
 10
-4.18553
 20
-1.72626
 30
0.0
 10
-4.17801
 20
-1.72167
 30
0.0
 10
-4.17801
 20
-1.72167
 30
0.0
 10
-4.17049
 20
-1.71708
 30
0.0
 10
-4.16366
 20
-1.71218
 30
0.0
 10
-4.15743
 20
-1.70716
 30
0.0
 10
-4.15743
 20
-1.70716
 30
0.0
 10
-4.14578
 20
-1.69774
 30
0.0
 10
-4.13625
 20
-1.68785
 30
0.0
 10
-4.13049
 20
-1.67876
 30
0.0
 10
-4.13049
 20
-1.67876
 30
0.0
 10
-4.12474
 20
-1.66968
 30
0.0
 10
-4.12277
 20
-1.6614
 30
0.0
 10
-4.12079
 20
-1.65312
 30
0.0
  0
SPLINE
  5
195
330
1F
100
AcDbEntity
  8
0
370
    15
100
AcDbSpline
210
0.0
220
0.0
230
1.0
 70
     8
 71
     3
 72
     8
 73
     4
 74
     0
 42
0.0000000001
 43
0.0000000001
 40
0.0
 40
0.0
 40
0.0
 40
0.0
 40
1.0
 40
1.0
 40
1.0
 40
1.0
 10
-4.12079
 20
-1.65312
 30
0.0
 10
-4.12056
 20
-1.6598
 30
0.0
 10
-4.11497
 20
-1.66502
 30
0.0
 10
-4.10829
 20
-1.66481
 30
0.0
  0
SPLINE
  5
196
330
1F
100
AcDbEntity
  8
0
370
    15
100
AcDbSpline
210
0.0
220
0.0
230
1.0
 70
     8
 71
     3
 72
     8
 73
     4
 74
     0
 42
0.0000000001
 43
0.0000000001
 40
0.0
 40
0.0
 40
0.0
 40
0.0
 40
1.0
 40
1.0
 40
1.0
 40
1.0
 10
-7.33329
 20
-1.66481
 30
0.0
 10
-7.32661
 20
-1.66502
 30
0.0
 10
-7.32102
 20
-1.6598
 30
0.0
 10
-7.32079
 20
-1.65312
 30
0.0
  0
SPLINE
  5
197
330
1F
100
AcDbEntity
  8
0
370
    15
100
AcDbSpline
210
0.0
220
0.0
230
1.0
 70
     8
 71
     3
 72
    28
 73
    24
 74
     0
 42
0.0000000001
 43
0.0000000001
 40
0.0
 40
0.0
 40
0.0
 40
0.0
 40
0.1428571428571428
 40
0.1428571428571428
 40
0.1428571428571428
 40
0.1428571428571428
 40
0.2857142857142857
 40
0.2857142857142857
 40
0.2857142857142857
 40
0.2857142857142857
 40
0.4285714285714285
 40
0.4285714285714285
 40
0.4285714285714285
 40
0.4285714285714285
 40
0.5714285714285714
 40
0.5714285714285714
 40
0.5714285714285714
 40
0.5714285714285714
 40
0.7142857142857143
 40
0.7142857142857143
 40
0.7142857142857143
 40
0.7142857142857143
 40
1.0
 40
1.0
 40
1.0
 40
1.0
 10
-7.32079
 20
-1.65312
 30
0.0
 10
-7.32025
 20
-1.65726
 30
0.0
 10
-7.31971
 20
-1.6614
 30
0.0
 10
-7.31809
 20
-1.66582
 30
0.0
 10
-7.31809
 20
-1.66582
 30
0.0
 10
-7.31648
 20
-1.67025
 30
0.0
 10
-7.31378
 20
-1.67496
 30
0.0
 10
-7.31037
 20
-1.67981
 30
0.0
 10
-7.31037
 20
-1.67981
 30
0.0
 10
-7.3039
 20
-1.68899
 30
0.0
 10
-7.29482
 20
-1.69862
 30
0.0
 10
-7.28332
 20
-1.70783
 30
0.0
 10
-7.28332
 20
-1.70783
 30
0.0
 10
-7.27388
 20
-1.71537
 30
0.0
 10
-7.26282
 20
-1.72263
 30
0.0
 10
-7.25021
 20
-1.72913
 30
0.0
 10
-7.25021
 20
-1.72913
 30
0.0
 10
-7.23897
 20
-1.73493
 30
0.0
 10
-7.2265
 20
-1.74012
 30
0.0
 10
-7.21305
 20
-1.74329
 30
0.0
 10
-7.21305
 20
-1.74329
 30
0.0
 10
-7.19962
 20
-1.74645
 30
0.0
 10
-7.1852
 20
-1.7476
 30
0.0
 10
-7.17079
 20
-1.74875
 30
0.0
  0
SPLINE
  5
198
330
1F
100
AcDbEntity
  8
0
370
    15
100
AcDbSpline
210
0.0
220
0.0
230
1.0
 70
    24
 71
     3
 72
     8
 73
     4
 74
     0
 42
0.0000000001
 43
0.0000000001
 40
0.0
 40
0.0
 40
0.0
 40
0.0
 40
1.0
 40
1.0
 40
1.0
 40
1.0
 10
-7.17079
 20
-1.75831
 30
0.0
 10
-7.17079
 20
-1.75831
 30
0.0
 10
-7.17079
 20
-1.74875
 30
0.0
 10
-7.17079
 20
-1.74875
 30
0.0
  0
SPLINE
  5
199
330
1F
100
AcDbEntity
  8
0
370
    15
100
AcDbSpline
210
0.0
220
0.0
230
1.0
 70
    24
 71
     3
 72
     8
 73
     4
 74
     0
 42
0.0000000001
 43
0.0000000001
 40
0.0
 40
0.0
 40
0.0
 40
0.0
 40
1.0
 40
1.0
 40
1.0
 40
1.0
 10
-7.17079
 20
-1.74875
 30
0.0
 10
-7.17079
 20
-1.74875
 30
0.0
 10
-4.27079
 20
-1.74875
 30
0.0
 10
-4.27079
 20
-1.74875
 30
0.0
  0
SPLINE
  5
19A
330
1F
100
AcDbEntity
  8
0
370
    15
100
AcDbSpline
210
0.0
220
0.0
230
1.0
 70
    24
 71
     3
 72
     8
 73
     4
 74
     0
 42
0.0000000001
 43
0.0000000001
 40
0.0
 40
0.0
 40
0.0
 40
0.0
 40
1.0
 40
1.0
 40
1.0
 40
1.0
 10
-7.17079
 20
-1.52887
 30
0.0
 10
-7.17079
 20
-1.52887
 30
0.0
 10
-7.17079
 20
-1.74875
 30
0.0
 10
-7.17079
 20
-1.74875
 30
0.0
  0
SPLINE
  5
19B
330
1F
100
AcDbEntity
  8
0
370
    15
100
AcDbSpline
210
0.0
220
0.0
230
1.0
 70
    24
 71
     3
 72
     8
 73
     4
 74
     0
 42
0.0000000001
 43
0.0000000001
 40
0.0
 40
0.0
 40
0.0
 40
0.0
 40
1.0
 40
1.0
 40
1.0
 40
1.0
 10
-7.32079
 20
-1.65312
 30
0.0
 10
-7.32079
 20
-1.65312
 30
0.0
 10
-7.32079
 20
-1.52887
 30
0.0
 10
-7.32079
 20
-1.52887
 30
0.0
  0
SPLINE
  5
19C
330
1F
100
AcDbEntity
  8
0
370
    15
100
AcDbSpline
210
0.0
220
0.0
230
1.0
 70
    24
 71
     3
 72
     8
 73
     4
 74
     0
 42
0.0000000001
 43
0.0000000001
 40
0.0
 40
0.0
 40
0.0
 40
0.0
 40
1.0
 40
1.0
 40
1.0
 40
1.0
 10
-7.32079
 20
-1.52887
 30
0.0
 10
-7.32079
 20
-1.52887
 30
0.0
 10
-7.17079
 20
-1.52887
 30
0.0
 10
-7.17079
 20
-1.52887
 30
0.0
  0
SPLINE
  5
19D
330
1F
100
AcDbEntity
  8
0
370
    15
100
AcDbSpline
210
0.0
220
0.0
230
1.0
 70
    24
 71
     3
 72
     8
 73
     4
 74
     0
 42
0.0000000001
 43
0.0000000001
 40
0.0
 40
0.0
 40
0.0
 40
0.0
 40
1.0
 40
1.0
 40
1.0
 40
1.0
 10
-4.12079
 20
-1.52887
 30
0.0
 10
-4.12079
 20
-1.52887
 30
0.0
 10
-4.12079
 20
-1.65312
 30
0.0
 10
-4.12079
 20
-1.65312
 30
0.0
  0
SPLINE
  5
19E
330
1F
100
AcDbEntity
  8
0
370
    15
100
AcDbSpline
210
0.0
220
0.0
230
1.0
 70
    24
 71
     3
 72
     8
 73
     4
 74
     0
 42
0.0000000001
 43
0.0000000001
 40
0.0
 40
0.0
 40
0.0
 40
0.0
 40
1.0
 40
1.0
 40
1.0
 40
1.0
 10
-4.27079
 20
-1.74875
 30
0.0
 10
-4.27079
 20
-1.74875
 30
0.0
 10
-4.27079
 20
-1.52887
 30
0.0
 10
-4.27079
 20
-1.52887
 30
0.0
  0
SPLINE
  5
19F
330
1F
100
AcDbEntity
  8
0
370
    15
100
AcDbSpline
210
0.0
220
0.0
230
1.0
 70
    24
 71
     3
 72
     8
 73
     4
 74
     0
 42
0.0000000001
 43
0.0000000001
 40
0.0
 40
0.0
 40
0.0
 40
0.0
 40
1.0
 40
1.0
 40
1.0
 40
1.0
 10
-4.27079
 20
-1.52887
 30
0.0
 10
-4.27079
 20
-1.52887
 30
0.0
 10
-4.12079
 20
-1.52887
 30
0.0
 10
-4.12079
 20
-1.52887
 30
0.0
  0
SPLINE
  5
1A0
330
1F
100
AcDbEntity
  8
0
370
    15
100
AcDbSpline
210
0.0
220
0.0
230
1.0
 70
    24
 71
     3
 72
     8
 73
     4
 74
     0
 42
0.0000000001
 43
0.0000000001
 40
0.0
 40
0.0
 40
0.0
 40
0.0
 40
1.0
 40
1.0
 40
1.0
 40
1.0
 10
-7.17079
 20
-1.52887
 30
0.0
 10
-7.17079
 20
-1.52887
 30
0.0
 10
-4.27079
 20
-1.52887
 30
0.0
 10
-4.27079
 20
-1.52887
 30
0.0
  0
SPLINE
  5
1A1
330
1F
100
AcDbEntity
  8
0
370
    15
100
AcDbSpline
210
0.0
220
0.0
230
1.0
 70
     8
 71
     3
 72
    12
 73
     8
 74
     0
 42
0.0000000001
 43
0.0000000001
 40
0.0
 40
0.0
 40
0.0
 40
0.0
 40
0.3333333333333333
 40
0.3333333333333333
 40
0.3333333333333333
 40
0.3333333333333333
 40
1.0
 40
1.0
 40
1.0
 40
1.0
 10
-4.12079
 20
-1.61637
 30
0.0
 10
-4.12079
 20
-1.61968
 30
0.0
 10
-4.11947
 20
-1.62286
 30
0.0
 10
-4.11713
 20
-1.62521
 30
0.0
 10
-4.11713
 20
-1.62521
 30
0.0
 10
-4.11478
 20
-1.62755
 30
0.0
 10
-4.11161
 20
-1.62887
 30
0.0
 10
-4.10829
 20
-1.62887
 30
0.0
  0
SPLINE
  5
1A2
330
1F
100
AcDbEntity
  8
0
370
    15
100
AcDbSpline
210
0.0
220
0.0
230
1.0
 70
     8
 71
     3
 72
     8
 73
     4
 74
     0
 42
0.0000000001
 43
0.0000000001
 40
0.0
 40
0.0
 40
0.0
 40
0.0
 40
1.0
 40
1.0
 40
1.0
 40
1.0
 10
-7.33329
 20
-1.62887
 30
0.0
 10
-7.32639
 20
-1.62887
 30
0.0
 10
-7.32079
 20
-1.62327
 30
0.0
 10
-7.32079
 20
-1.61637
 30
0.0
  0
SPLINE
  5
1A3
330
1F
100
AcDbEntity
  8
0
370
    15
100
AcDbSpline
210
0.0
220
0.0
230
1.0
 70
    24
 71
     3
 72
     8
 73
     4
 74
     0
 42
0.0000000001
 43
0.0000000001
 40
0.0
 40
0.0
 40
0.0
 40
0.0
 40
1.0
 40
1.0
 40
1.0
 40
1.0
 10
-4.43329
 20
-1.52887
 30
0.0
 10
-4.43329
 20
-1.52887
 30
0.0
 10
-4.43329
 20
-1.51387
 30
0.0
 10
-4.43329
 20
-1.51387
 30
0.0
  0
SPLINE
  5
1A4
330
1F
100
AcDbEntity
  8
0
370
    15
100
AcDbSpline
210
0.0
220
0.0
230
1.0
 70
    24
 71
     3
 72
     8
 73
     4
 74
     0
 42
0.0000000001
 43
0.0000000001
 40
0.0
 40
0.0
 40
0.0
 40
0.0
 40
1.0
 40
1.0
 40
1.0
 40
1.0
 10
-4.44683
 20
-1.52887
 30
0.0
 10
-4.44683
 20
-1.52887
 30
0.0
 10
-4.44683
 20
-1.51387
 30
0.0
 10
-4.44683
 20
-1.51387
 30
0.0
  0
SPLINE
  5
1A5
330
1F
100
AcDbEntity
  8
0
370
    15
100
AcDbSpline
210
0.0
220
0.0
230
1.0
 70
    24
 71
     3
 72
     8
 73
     4
 74
     0
 42
0.0000000001
 43
0.0000000001
 40
0.0
 40
0.0
 40
0.0
 40
0.0
 40
1.0
 40
1.0
 40
1.0
 40
1.0
 10
-4.44683
 20
-1.51387
 30
0.0
 10
-4.44683
 20
-1.51387
 30
0.0
 10
-4.43329
 20
-1.51387
 30
0.0
 10
-4.43329
 20
-1.51387
 30
0.0
  0
SPLINE
  5
1A6
330
1F
100
AcDbEntity
  8
0
370
    15
100
AcDbSpline
210
0.0
220
0.0
230
1.0
 70
    24
 71
     3
 72
     8
 73
     4
 74
     0
 42
0.0000000001
 43
0.0000000001
 40
0.0
 40
0.0
 40
0.0
 40
0.0
 40
1.0
 40
1.0
 40
1.0
 40
1.0
 10
-6.99475
 20
-1.51387
 30
0.0
 10
-6.99475
 20
-1.51387
 30
0.0
 10
-6.99475
 20
-1.52887
 30
0.0
 10
-6.99475
 20
-1.52887
 30
0.0
  0
SPLINE
  5
1A7
330
1F
100
AcDbEntity
  8
0
370
    15
100
AcDbSpline
210
0.0
220
0.0
230
1.0
 70
    24
 71
     3
 72
     8
 73
     4
 74
     0
 42
0.0000000001
 43
0.0000000001
 40
0.0
 40
0.0
 40
0.0
 40
0.0
 40
1.0
 40
1.0
 40
1.0
 40
1.0
 10
-7.00829
 20
-1.51387
 30
0.0
 10
-7.00829
 20
-1.51387
 30
0.0
 10
-7.00829
 20
-1.52887
 30
0.0
 10
-7.00829
 20
-1.52887
 30
0.0
  0
SPLINE
  5
1A8
330
1F
100
AcDbEntity
  8
0
370
    15
100
AcDbSpline
210
0.0
220
0.0
230
1.0
 70
    24
 71
     3
 72
     8
 73
     4
 74
     0
 42
0.0000000001
 43
0.0000000001
 40
0.0
 40
0.0
 40
0.0
 40
0.0
 40
1.0
 40
1.0
 40
1.0
 40
1.0
 10
-6.99475
 20
-1.51387
 30
0.0
 10
-6.99475
 20
-1.51387
 30
0.0
 10
-7.00829
 20
-1.51387
 30
0.0
 10
-7.00829
 20
-1.51387
 30
0.0
  0
SPLINE
  5
1A9
330
1F
100
AcDbEntity
  8
0
370
    15
100
AcDbSpline
210
0.0
220
0.0
230
1.0
 70
    24
 71
     3
 72
     8
 73
     4
 74
     0
 42
0.0000000001
 43
0.0000000001
 40
0.0
 40
0.0
 40
0.0
 40
0.0
 40
1.0
 40
1.0
 40
1.0
 40
1.0
 10
-4.44683
 20
-1.51387
 30
0.0
 10
-4.44683
 20
-1.51387
 30
0.0
 10
-6.99475
 20
-1.51387
 30
0.0
 10
-6.99475
 20
-1.51387
 30
0.0
  0
SPLINE
  5
1AA
330
1F
100
AcDbEntity
  8
0
 62
     8
370
    15
100
AcDbSpline
210
0.0
220
0.0
230
1.0
 70
     8
 71
     3
 72
     8
 73
     4
 74
     0
 42
0.0000000001
 43
0.0000000001
 40
0.0
 40
0.0
 40
0.0
 40
0.0
 40
1.0
 40
1.0
 40
1.0
 40
1.0
 10
-9.05028
 20
-4.20887
 30
0.0
 10
-9.04989
 20
-4.28608
 30
0.0
 10
-9.02658
 20
-4.36143
 30
0.0
 10
-8.98329
 20
-4.42537
 30
0.0
  0
SPLINE
  5
1AB
330
1F
100
AcDbEntity
  8
0
 62
     8
370
    15
100
AcDbSpline
210
0.0
220
0.0
230
1.0
 70
     8
 71
     3
 72
     8
 73
     4
 74
     0
 42
0.0000000001
 43
0.0000000001
 40
0.0
 40
0.0
 40
0.0
 40
0.0
 40
1.0
 40
1.0
 40
1.0
 40
1.0
 10
-8.83329
 20
-4.42537
 30
0.0
 10
-8.78994
 20
-4.36146
 30
0.0
 10
-8.76662
 20
-4.28609
 30
0.0
 10
-8.7663
 20
-4.20887
 30
0.0
  0
SPLINE
  5
1AC
330
1F
100
AcDbEntity
  8
0
 62
     8
370
    15
100
AcDbSpline
210
0.0
220
0.0
230
1.0
 70
     8
 71
     3
 72
     8
 73
     4
 74
     0
 42
0.0000000001
 43
0.0000000001
 40
0.0
 40
0.0
 40
0.0
 40
0.0
 40
1.0
 40
1.0
 40
1.0
 40
1.0
 10
-2.70028
 20
-4.15887
 30
0.0
 10
-2.69996
 20
-4.23609
 30
0.0
 10
-2.67664
 20
-4.31146
 30
0.0
 10
-2.63329
 20
-4.37537
 30
0.0
  0
SPLINE
  5
1AD
330
1F
100
AcDbEntity
  8
0
 62
     8
370
    15
100
AcDbSpline
210
0.0
220
0.0
230
1.0
 70
     8
 71
     3
 72
     8
 73
     4
 74
     0
 42
0.0000000001
 43
0.0000000001
 40
0.0
 40
0.0
 40
0.0
 40
0.0
 40
1.0
 40
1.0
 40
1.0
 40
1.0
 10
-2.48329
 20
-4.37537
 30
0.0
 10
-2.44
 20
-4.31143
 30
0.0
 10
-2.41669
 20
-4.23608
 30
0.0
 10
-2.4163
 20
-4.15887
 30
0.0
  0
SPLINE
  5
1AE
330
1F
100
AcDbEntity
  8
0
 62
     8
370
    15
100
AcDbSpline
210
0.0
220
0.0
230
1.0
 70
     8
 71
     3
 72
     8
 73
     4
 74
     0
 42
0.0000000001
 43
0.0000000001
 40
0.0
 40
0.0
 40
0.0
 40
0.0
 40
1.0
 40
1.0
 40
1.0
 40
1.0
 10
-2.48329
 20
-4.42537
 30
0.0
 10
-2.44
 20
-4.36143
 30
0.0
 10
-2.41669
 20
-4.28608
 30
0.0
 10
-2.4163
 20
-4.20887
 30
0.0
  0
SPLINE
  5
1AF
330
1F
100
AcDbEntity
  8
0
 62
     8
370
    15
100
AcDbSpline
210
0.0
220
0.0
230
1.0
 70
     8
 71
     3
 72
     8
 73
     4
 74
     0
 42
0.0000000001
 43
0.0000000001
 40
0.0
 40
0.0
 40
0.0
 40
0.0
 40
1.0
 40
1.0
 40
1.0
 40
1.0
 10
-2.70028
 20
-4.20887
 30
0.0
 10
-2.69996
 20
-4.28609
 30
0.0
 10
-2.67664
 20
-4.36146
 30
0.0
 10
-2.63329
 20
-4.42537
 30
0.0
  0
SPLINE
  5
1B0
330
1F
100
AcDbEntity
  8
0
 62
     8
370
    15
100
AcDbSpline
210
0.0
220
0.0
230
1.0
 70
    24
 71
     3
 72
     8
 73
     4
 74
     0
 42
0.0000000001
 43
0.0000000001
 40
0.0
 40
0.0
 40
0.0
 40
0.0
 40
1.0
 40
1.0
 40
1.0
 40
1.0
 10
-3.90079
 20
-2.97887
 30
0.0
 10
-3.90079
 20
-2.97887
 30
0.0
 10
-3.90079
 20
-2.37887
 30
0.0
 10
-3.90079
 20
-2.37887
 30
0.0
  0
SPLINE
  5
1B1
330
1F
100
AcDbEntity
  8
0
 62
     8
370
    15
100
AcDbSpline
210
0.0
220
0.0
230
1.0
 70
    24
 71
     3
 72
     8
 73
     4
 74
     0
 42
0.0000000001
 43
0.0000000001
 40
0.0
 40
0.0
 40
0.0
 40
0.0
 40
1.0
 40
1.0
 40
1.0
 40
1.0
 10
-7.54079
 20
-2.37887
 30
0.0
 10
-7.54079
 20
-2.37887
 30
0.0
 10
-7.54079
 20
-2.97887
 30
0.0
 10
-7.54079
 20
-2.97887
 30
0.0
  0
SPLINE
  5
1B2
330
1F
100
AcDbEntity
  8
0
 62
     8
370
    15
100
AcDbSpline
210
0.0
220
0.0
230
1.0
 70
    24
 71
     3
 72
     8
 73
     4
 74
     0
 42
0.0000000001
 43
0.0000000001
 40
0.0
 40
0.0
 40
0.0
 40
0.0
 40
1.0
 40
1.0
 40
1.0
 40
1.0
 10
-3.94579
 20
-3.05387
 30
0.0
 10
-3.94579
 20
-3.05387
 30
0.0
 10
-3.94579
 20
-2.30387
 30
0.0
 10
-3.94579
 20
-2.30387
 30
0.0
  0
SPLINE
  5
1B3
330
1F
100
AcDbEntity
  8
0
 62
     8
370
    15
100
AcDbSpline
210
0.0
220
0.0
230
1.0
 70
    24
 71
     3
 72
     8
 73
     4
 74
     0
 42
0.0000000001
 43
0.0000000001
 40
0.0
 40
0.0
 40
0.0
 40
0.0
 40
1.0
 40
1.0
 40
1.0
 40
1.0
 10
-7.49579
 20
-2.30387
 30
0.0
 10
-7.49579
 20
-2.30387
 30
0.0
 10
-7.49579
 20
-3.05387
 30
0.0
 10
-7.49579
 20
-3.05387
 30
0.0
  0
SPLINE
  5
1B4
330
1F
100
AcDbEntity
  8
0
 62
     8
370
    15
100
AcDbSpline
210
0.0
220
0.0
230
1.0
 70
     8
 71
     3
 72
    24
 73
    20
 74
     0
 42
0.0000000001
 43
0.0000000001
 40
0.0
 40
0.0
 40
0.0
 40
0.0
 40
0.1666666666666667
 40
0.1666666666666667
 40
0.1666666666666667
 40
0.1666666666666667
 40
0.3333333333333333
 40
0.3333333333333333
 40
0.3333333333333333
 40
0.3333333333333333
 40
0.5
 40
0.5
 40
0.5
 40
0.5
 40
0.6666666666666666
 40
0.6666666666666666
 40
0.6666666666666666
 40
0.6666666666666666
 40
1.0
 40
1.0
 40
1.0
 40
1.0
 10
-7.4051
 20
-2.37561
 30
0.0
 10
-7.4118
 20
-2.36551
 30
0.0
 10
-7.4185
 20
-2.35541
 30
0.0
 10
-7.42447
 20
-2.34667
 30
0.0
 10
-7.42447
 20
-2.34667
 30
0.0
 10
-7.43059
 20
-2.33772
 30
0.0
 10
-7.43595
 20
-2.33021
 30
0.0
 10
-7.44042
 20
-2.324
 30
0.0
 10
-7.44042
 20
-2.324
 30
0.0
 10
-7.44429
 20
-2.31862
 30
0.0
 10
-7.44749
 20
-2.31422
 30
0.0
 10
-7.44993
 20
-2.31088
 30
0.0
 10
-7.44993
 20
-2.31088
 30
0.0
 10
-7.45245
 20
-2.30745
 30
0.0
 10
-7.45416
 20
-2.30514
 30
0.0
 10
-7.45472
 20
-2.30439
 30
0.0
 10
-7.45472
 20
-2.30439
 30
0.0
 10
-7.45493
 20
-2.30411
 30
0.0
 10
-7.45498
 20
-2.30404
 30
0.0
 10
-7.45502
 20
-2.30398
 30
0.0
  0
SPLINE
  5
1B5
330
1F
100
AcDbEntity
  8
0
 62
     8
370
    15
100
AcDbSpline
210
0.0
220
0.0
230
1.0
 70
     8
 71
     3
 72
    28
 73
    24
 74
     0
 42
0.0000000001
 43
0.0000000001
 40
0.0
 40
0.0
 40
0.0
 40
0.0
 40
0.1428571428571428
 40
0.1428571428571428
 40
0.1428571428571428
 40
0.1428571428571428
 40
0.2857142857142857
 40
0.2857142857142857
 40
0.2857142857142857
 40
0.2857142857142857
 40
0.4285714285714285
 40
0.4285714285714285
 40
0.4285714285714285
 40
0.4285714285714285
 40
0.5714285714285714
 40
0.5714285714285714
 40
0.5714285714285714
 40
0.5714285714285714
 40
0.7142857142857143
 40
0.7142857142857143
 40
0.7142857142857143
 40
0.7142857142857143
 40
1.0
 40
1.0
 40
1.0
 40
1.0
 10
-3.98656
 20
-2.30398
 30
0.0
 10
-3.98653
 20
-2.30394
 30
0.0
 10
-3.9865
 20
-2.3039
 30
0.0
 10
-3.98649
 20
-2.30389
 30
0.0
 10
-3.98649
 20
-2.30389
 30
0.0
 10
-3.98645
 20
-2.30383
 30
0.0
 10
-3.98663
 20
-2.30408
 30
0.0
 10
-3.98688
 20
-2.30442
 30
0.0
 10
-3.98688
 20
-2.30442
 30
0.0
 10
-3.98777
 20
-2.30561
 30
0.0
 10
-3.98951
 20
-2.30796
 30
0.0
 10
-3.99229
 20
-2.31177
 30
0.0
 10
-3.99229
 20
-2.31177
 30
0.0
 10
-3.99517
 20
-2.31571
 30
0.0
 10
-3.99917
 20
-2.32121
 30
0.0
 10
-4.00396
 20
-2.32791
 30
0.0
 10
-4.00396
 20
-2.32791
 30
0.0
 10
-4.00821
 20
-2.33386
 30
0.0
 10
-4.01309
 20
-2.34076
 30
0.0
 10
-4.01855
 20
-2.34877
 30
0.0
 10
-4.01855
 20
-2.34877
 30
0.0
 10
-4.02412
 20
-2.35694
 30
0.0
 10
-4.0303
 20
-2.36627
 30
0.0
 10
-4.03648
 20
-2.37561
 30
0.0
  0
SPLINE
  5
1B6
330
1F
100
AcDbEntity
  8
0
 62
     8
370
    15
100
AcDbSpline
210
0.0
220
0.0
230
1.0
 70
     8
 71
     3
 72
    24
 73
    20
 74
     0
 42
0.0000000001
 43
0.0000000001
 40
0.0
 40
0.0
 40
0.0
 40
0.0
 40
0.1666666666666667
 40
0.1666666666666667
 40
0.1666666666666667
 40
0.1666666666666667
 40
0.3333333333333333
 40
0.3333333333333333
 40
0.3333333333333333
 40
0.3333333333333333
 40
0.5
 40
0.5
 40
0.5
 40
0.5
 40
0.6666666666666666
 40
0.6666666666666666
 40
0.6666666666666666
 40
0.6666666666666666
 40
1.0
 40
1.0
 40
1.0
 40
1.0
 10
-4.06494
 20
-2.30271
 30
0.0
 10
-4.06063
 20
-2.29513
 30
0.0
 10
-4.05633
 20
-2.28755
 30
0.0
 10
-4.05261
 20
-2.28112
 30
0.0
 10
-4.05261
 20
-2.28112
 30
0.0
 10
-4.04825
 20
-2.27357
 30
0.0
 10
-4.0447
 20
-2.2676
 30
0.0
 10
-4.04213
 20
-2.26329
 30
0.0
 10
-4.04213
 20
-2.26329
 30
0.0
 10
-4.03947
 20
-2.25884
 30
0.0
 10
-4.03785
 20
-2.25615
 30
0.0
 10
-4.03685
 20
-2.25449
 30
0.0
 10
-4.03685
 20
-2.25449
 30
0.0
 10
-4.03658
 20
-2.25403
 30
0.0
 10
-4.03635
 20
-2.25366
 30
0.0
 10
-4.03649
 20
-2.25389
 30
0.0
 10
-4.03649
 20
-2.25389
 30
0.0
 10
-4.03654
 20
-2.25397
 30
0.0
 10
-4.03662
 20
-2.25411
 30
0.0
 10
-4.0367
 20
-2.25425
 30
0.0
  0
SPLINE
  5
1B7
330
1F
100
AcDbEntity
  8
0
 62
     8
370
    15
100
AcDbSpline
210
0.0
220
0.0
230
1.0
 70
     8
 71
     3
 72
    20
 73
    16
 74
     0
 42
0.0000000001
 43
0.0000000001
 40
0.0
 40
0.0
 40
0.0
 40
0.0
 40
0.2
 40
0.2
 40
0.2
 40
0.2
 40
0.4
 40
0.4
 40
0.4
 40
0.4
 40
0.6
 40
0.6
 40
0.6
 40
0.6
 40
1.0
 40
1.0
 40
1.0
 40
1.0
 10
-7.40488
 20
-2.25425
 30
0.0
 10
-7.40453
 20
-2.25482
 30
0.0
 10
-7.40418
 20
-2.2554
 30
0.0
 10
-7.40288
 20
-2.25756
 30
0.0
 10
-7.40288
 20
-2.25756
 30
0.0
 10
-7.40141
 20
-2.26002
 30
0.0
 10
-7.3987
 20
-2.26455
 30
0.0
 10
-7.39537
 20
-2.27018
 30
0.0
 10
-7.39537
 20
-2.27018
 30
0.0
 10
-7.39419
 20
-2.27218
 30
0.0
 10
-7.39293
 20
-2.27432
 30
0.0
 10
-7.39155
 20
-2.27668
 30
0.0
 10
-7.39155
 20
-2.27668
 30
0.0
 10
-7.38732
 20
-2.28395
 30
0.0
 10
-7.38198
 20
-2.29333
 30
0.0
 10
-7.37664
 20
-2.30271
 30
0.0
  0
SPLINE
  5
1B8
330
1F
100
AcDbEntity
  8
0
 62
     8
370
    15
100
AcDbSpline
210
0.0
220
0.0
230
1.0
 70
    24
 71
     3
 72
     8
 73
     4
 74
     0
 42
0.0000000001
 43
0.0000000001
 40
0.0
 40
0.0
 40
0.0
 40
0.0
 40
1.0
 40
1.0
 40
1.0
 40
1.0
 10
-4.06494
 20
-2.17887
 30
0.0
 10
-4.06494
 20
-2.17887
 30
0.0
 10
-4.03648
 20
-2.17887
 30
0.0
 10
-4.03648
 20
-2.17887
 30
0.0
  0
SPLINE
  5
1B9
330
1F
100
AcDbEntity
  8
0
 62
     8
370
    15
100
AcDbSpline
210
0.0
220
0.0
230
1.0
 70
    24
 71
     3
 72
     8
 73
     4
 74
     0
 42
0.0000000001
 43
0.0000000001
 40
0.0
 40
0.0
 40
0.0
 40
0.0
 40
1.0
 40
1.0
 40
1.0
 40
1.0
 10
-7.4051
 20
-2.17887
 30
0.0
 10
-7.4051
 20
-2.17887
 30
0.0
 10
-7.37664
 20
-2.17887
 30
0.0
 10
-7.37664
 20
-2.17887
 30
0.0
  0
ENDSEC
  0
SECTION
  2
OBJECTS
  0
DICTIONARY
  5
C
330
0
100
AcDbDictionary
281
     1
  3
ACAD_GROUP
350
D
  3
ACAD_LAYOUT
350
1A
  3
ACAD_MATERIAL
350
3B
  3
ACAD_MLEADERSTYLE
350
1DB
  3
ACAD_MLINESTYLE
350
17
  3
ACAD_PLOTSETTINGS
350
19
  3
ACAD_PLOTSTYLENAME
350
E
  3
ACAD_TABLESTYLE
350
1DA
  3
ACAD_VISUALSTYLE
350
2A
  0
DICTIONARY
  5
D
102
{ACAD_REACTORS
330
C
102
}
330
C
100
AcDbDictionary
281
     1
  0
DICTIONARY
  5
1A
102
{ACAD_REACTORS
330
C
102
}
330
C
100
AcDbDictionary
281
     1
  3
Layout1
350
1E
  3
Layout2
350
26
  3
Model
350
22
  0
DICTIONARY
  5
3B
102
{ACAD_REACTORS
330
C
102
}
330
C
100
AcDbDictionary
281
     1
  3
ByBlock
350
3D
  3
ByLayer
350
3C
  3
Global
350
3E
  0
DICTIONARY
  5
1DB
102
{ACAD_REACTORS
330
C
102
}
330
C
100
AcDbDictionary
281
     1
  0
DICTIONARY
  5
17
102
{ACAD_REACTORS
330
C
102
}
330
C
100
AcDbDictionary
281
     1
  3
Standard
350
18
  0
DICTIONARY
  5
19
102
{ACAD_REACTORS
330
C
102
}
330
C
100
AcDbDictionary
281
     1
  0
ACDBDICTIONARYWDFLT
  5
E
102
{ACAD_REACTORS
330
C
102
}
330
C
100
AcDbDictionary
281
     1
  3
Normal
350
F
100
AcDbDictionaryWithDefault
340
F
  0
DICTIONARY
  5
1DA
102
{ACAD_REACTORS
330
C
102
}
330
C
100
AcDbDictionary
281
     1
  0
DICTIONARY
  5
2A
102
{ACAD_REACTORS
330
C
102
}
330
C
100
AcDbDictionary
281
     1
  3
2dWireframe
350
2F
  3
3D Hidden
350
31
  3
3dWireframe
350
30
  3
Basic
350
32
  3
Brighten
350
36
  3
ColorChange
350
3A
  3
Conceptual
350
34
  3
Dim
350
35
  3
Facepattern
350
39
  3
Flat
350
2B
  3
FlatWithEdges
350
2C
  3
Gouraud
350
2D
  3
GouraudWithEdges
350
2E
  3
Linepattern
350
38
  3
Realistic
350
33
  3
Thicken
350
37
  0
LAYOUT
  5
1E
102
{ACAD_REACTORS
330
1A
102
}
330
1A
100
AcDbPlotSettings
  1

  2
none_device
  4

  6

 40
0.0
 41
0.0
 42
0.0
 43
0.0
 44
0.0
 45
0.0
 46
0.0
 47
0.0
 48
0.0
 49
0.0
140
0.0
141
0.0
142
1.0
143
1.0
 70
   688
 72
     0
 73
     0
 74
     5
  7

 75
    16
 76
     0
 77
     2
 78
   300
147
1.0
148
0.0
149
0.0
100
AcDbLayout
  1
Layout1
 70
     1
 71
     1
 10
0.0
 20
0.0
 11
12.0
 21
9.0
 12
0.0
 22
0.0
 32
0.0
 14
1.000000000000000E+20
 24
1.000000000000000E+20
 34
1.000000000000000E+20
 15
-1.000000000000000E+20
 25
-1.000000000000000E+20
 35
-1.000000000000000E+20
146
0.0
 13
0.0
 23
0.0
 33
0.0
 16
1.0
 26
0.0
 36
0.0
 17
0.0
 27
1.0
 37
0.0
 76
     0
330
1B
  0
LAYOUT
  5
26
102
{ACAD_REACTORS
330
1A
102
}
330
1A
100
AcDbPlotSettings
  1

  2
none_device
  4

  6

 40
0.0
 41
0.0
 42
0.0
 43
0.0
 44
0.0
 45
0.0
 46
0.0
 47
0.0
 48
0.0
 49
0.0
140
0.0
141
0.0
142
1.0
143
1.0
 70
   688
 72
     0
 73
     0
 74
     5
  7

 75
    16
 76
     0
 77
     2
 78
   300
147
1.0
148
0.0
149
0.0
100
AcDbLayout
  1
Layout2
 70
     1
 71
     2
 10
0.0
 20
0.0
 11
0.0
 21
0.0
 12
0.0
 22
0.0
 32
0.0
 14
0.0
 24
0.0
 34
0.0
 15
0.0
 25
0.0
 35
0.0
146
0.0
 13
0.0
 23
0.0
 33
0.0
 16
1.0
 26
0.0
 36
0.0
 17
0.0
 27
1.0
 37
0.0
 76
     0
330
23
  0
LAYOUT
  5
22
102
{ACAD_REACTORS
330
1A
102
}
330
1A
100
AcDbPlotSettings
  1

  2
none_device
  4

  6

 40
0.0
 41
0.0
 42
0.0
 43
0.0
 44
0.0
 45
0.0
 46
0.0
 47
0.0
 48
0.0
 49
0.0
140
0.0
141
0.0
142
1.0
143
1.0
 70
  1712
 72
     0
 73
     0
 74
     0
  7

 75
     0
 76
     0
 77
     2
 78
   300
147
1.0
148
0.0
149
0.0
100
AcDbLayout
  1
Model
 70
     1
 71
     0
 10
0.0
 20
0.0
 11
12.0
 21
9.0
 12
0.0
 22
0.0
 32
0.0
 14
-9.05778
 24
-4.68287
 34
0.0
 15
7.77435
 25
12.23456
 35
0.0
146
0.0
 13
0.0
 23
0.0
 33
0.0
 16
1.0
 26
0.0
 36
0.0
 17
0.0
 27
1.0
 37
0.0
 76
     0
330
1F
331
29
  0
MATERIAL
  5
3D
102
{ACAD_REACTORS
330
3B
102
}
330
3B
100
AcDbMaterial
  1
ByBlock
 72
     1
 94
      127
  0
MATERIAL
  5
3C
102
{ACAD_REACTORS
330
3B
102
}
330
3B
100
AcDbMaterial
  1
ByLayer
 72
     1
 94
      127
  0
MATERIAL
  5
3E
102
{ACAD_REACTORS
330
3B
102
}
330
3B
100
AcDbMaterial
  1
Global
 72
     1
 94
      127
  0
MLINESTYLE
  5
18
102
{ACAD_REACTORS
330
17
102
}
330
17
100
AcDbMlineStyle
  2
Standard
 70
     0
  3

 62
   256
 51
90.0
 52
90.0
 71
     2
 49
0.5
 62
   256
  6
BYLAYER
 49
-0.5
 62
   256
  6
BYLAYER
  0
ACDBPLACEHOLDER
  5
F
102
{ACAD_REACTORS
330
E
102
}
330
E
  0
VISUALSTYLE
  5
2F
102
{ACAD_REACTORS
330
2A
102
}
102
{ACAD_XDICTIONARY
360
1C2
102
}
330
2A
100
AcDbVisualStyle
  2
2dWireframe
 70
     4
 71
     0
 72
     2
 73
     0
 90
        0
 40
-0.6
 41
-30.0
 62
     5
 63
     7
421
 16777215
 74
     1
 91
        4
 64
     7
 65
   257
 75
     1
175
     1
 42
1.0
 92
        0
 66
   257
 43
1.0
 76
     1
 77
     6
 78
     2
 67
     7
 79
     5
170
     0
171
     0
290
     0
174
     0
 93
        1
 44
0.0
173
     0
291
     0
 45
0.0
  0
VISUALSTYLE
  5
31
102
{ACAD_REACTORS
330
2A
102
}
102
{ACAD_XDICTIONARY
360
1C6
102
}
330
2A
100
AcDbVisualStyle
  2
3D Hidden
 70
     6
 71
     1
 72
     2
 73
     2
 90
        0
 40
-0.6
 41
-30.0
 62
     5
 63
     7
421
 16777215
 74
     2
 91
        2
 64
     7
 65
   257
 75
     2
175
     1
 42
40.0
 92
        0
 66
   257
 43
1.0
 76
     1
 77
     6
 78
     2
 67
     7
 79
     3
170
     0
171
     0
290
     0
174
     0
 93
        1
 44
0.0
173
     0
291
     0
 45
0.0
  0
VISUALSTYLE
  5
30
102
{ACAD_REACTORS
330
2A
102
}
102
{ACAD_XDICTIONARY
360
1C4
102
}
330
2A
100
AcDbVisualStyle
  2
3dWireframe
 70
     5
 71
     0
 72
     2
 73
     0
 90
        0
 40
-0.6
 41
-30.0
 62
     5
 63
     7
421
 16777215
 74
     1
 91
        4
 64
     7
 65
   257
 75
     1
175
     1
 42
1.0
 92
        0
 66
   257
 43
1.0
 76
     1
 77
     6
 78
     2
 67
     7
 79
     5
170
     0
171
     0
290
     0
174
     0
 93
        1
 44
0.0
173
     0
291
     0
 45
0.0
  0
VISUALSTYLE
  5
32
102
{ACAD_REACTORS
330
2A
102
}
102
{ACAD_XDICTIONARY
360
1C8
102
}
330
2A
100
AcDbVisualStyle
  2
Basic
 70
     7
 71
     1
 72
     0
 73
     1
 90
        0
 40
-0.6
 41
-30.0
 62
     5
 63
     7
421
 16777215
 74
     0
 91
        4
 64
     7
 65
   257
 75
     1
175
     1
 42
1.0
 92
        8
 66
     7
 43
1.0
 76
     1
 77
     6
 78
     2
 67
     7
 79
     5
170
     0
171
     0
290
     0
174
     0
 93
        1
 44
0.0
173
     0
291
     1
 45
0.0
  0
VISUALSTYLE
  5
36
102
{ACAD_REACTORS
330
2A
102
}
102
{ACAD_XDICTIONARY
360
1D0
102
}
330
2A
100
AcDbVisualStyle
  2
Brighten
 70
    12
 71
     2
 72
     2
 73
     0
 90
        0
 40
-0.6
 41
-30.0
 62
     5
 63
     7
421
 16777215
 74
     1
 91
        4
 64
     7
 65
   257
 75
     1
175
     1
 42
1.0
 92
        8
 66
     7
 43
1.0
 76
     1
 77
     6
 78
     2
 67
     7
 79
     5
170
     0
171
     0
290
     0
174
     0
 93
        1
 44
50.0
173
     0
291
     1
 45
0.0
  0
VISUALSTYLE
  5
3A
102
{ACAD_REACTORS
330
2A
102
}
102
{ACAD_XDICTIONARY
360
1D8
102
}
330
2A
100
AcDbVisualStyle
  2
ColorChange
 70
    16
 71
     2
 72
     2
 73
     3
 90
        0
 40
-0.6
 41
-30.0
 62
     5
 63
     8
421
  8421504
 74
     1
 91
        4
 64
     7
 65
   257
 75
     1
175
     1
 42
1.0
 92
        8
 66
     8
424
  8421504
 43
1.0
 76
     1
 77
     6
 78
     2
 67
     7
 79
     5
170
     0
171
     0
290
     0
174
     0
 93
        1
 44
0.0
173
     0
291
     1
 45
0.0
  0
VISUALSTYLE
  5
34
102
{ACAD_REACTORS
330
2A
102
}
102
{ACAD_XDICTIONARY
360
1CC
102
}
330
2A
100
AcDbVisualStyle
  2
Conceptual
 70
     9
 71
     3
 72
     2
 73
     0
 90
        0
 40
-0.6
 41
-30.0
 62
     5
 63
     7
421
 16777215
 74
     2
 91
        2
 64
     7
 65
   257
 75
     1
175
     1
 42
40.0
 92
        8
 66
     7
 43
1.0
 76
     1
 77
     6
 78
     2
 67
     7
 79
     3
170
     0
171
     0
290
     0
174
     0
 93
        1
 44
0.0
173
     0
291
     0
 45
0.0
  0
VISUALSTYLE
  5
35
102
{ACAD_REACTORS
330
2A
102
}
102
{ACAD_XDICTIONARY
360
1CE
102
}
330
2A
100
AcDbVisualStyle
  2
Dim
 70
    11
 71
     2
 72
     2
 73
     0
 90
        0
 40
-0.6
 41
-30.0
 62
     5
 63
     7
421
 16777215
 74
     1
 91
        4
 64
     7
 65
   257
 75
     1
175
     1
 42
1.0
 92
        8
 66
     7
 43
1.0
 76
     1
 77
     6
 78
     2
 67
     7
 79
     5
170
     0
171
     0
290
     0
174
     0
 93
        1
 44
-50.0
173
     0
291
     1
 45
0.0
  0
VISUALSTYLE
  5
39
102
{ACAD_REACTORS
330
2A
102
}
102
{ACAD_XDICTIONARY
360
1D6
102
}
330
2A
100
AcDbVisualStyle
  2
Facepattern
 70
    15
 71
     2
 72
     2
 73
     0
 90
        0
 40
-0.6
 41
-30.0
 62
     5
 63
     7
421
 16777215
 74
     1
 91
        4
 64
     7
 65
   257
 75
     1
175
     1
 42
1.0
 92
        8
 66
     7
 43
1.0
 76
     1
 77
     6
 78
     2
 67
     7
 79
     5
170
     0
171
     0
290
     0
174
     0
 93
        1
 44
0.0
173
     0
291
     1
 45
0.0
  0
VISUALSTYLE
  5
2B
102
{ACAD_REACTORS
330
2A
102
}
102
{ACAD_XDICTIONARY
360
1BA
102
}
330
2A
100
AcDbVisualStyle
  2
Flat
 70
     0
 71
     2
 72
     1
 73
     1
 90
        2
 40
-0.6
 41
30.0
 62
     5
 63
     7
421
 16777215
 74
     0
 91
        4
 64
     7
 65
   257
 75
     1
175
     1
 42
1.0
 92
        8
 66
     7
 43
1.0
 76
     1
 77
     6
 78
     2
 67
     7
 79
     5
170
     0
171
     0
290
     0
174
     0
 93
       13
 44
0.0
173
     0
291
     1
 45
0.0
  0
VISUALSTYLE
  5
2C
102
{ACAD_REACTORS
330
2A
102
}
102
{ACAD_XDICTIONARY
360
1BC
102
}
330
2A
100
AcDbVisualStyle
  2
FlatWithEdges
 70
     1
 71
     2
 72
     1
 73
     1
 90
        2
 40
-0.6
 41
30.0
 62
     5
 63
     7
421
 16777215
 74
     1
 91
        4
 64
     7
 65
   257
 75
     1
175
     1
 42
1.0
 92
        0
 66
   257
 43
1.0
 76
     1
 77
     6
 78
     2
 67
     7
 79
     5
170
     0
171
     0
290
     0
174
     0
 93
       13
 44
0.0
173
     0
291
     1
 45
0.0
  0
VISUALSTYLE
  5
2D
102
{ACAD_REACTORS
330
2A
102
}
102
{ACAD_XDICTIONARY
360
1BE
102
}
330
2A
100
AcDbVisualStyle
  2
Gouraud
 70
     2
 71
     2
 72
     2
 73
     1
 90
        2
 40
-0.6
 41
30.0
 62
     5
 63
     7
421
 16777215
 74
     0
 91
        4
 64
     7
 65
   257
 75
     1
175
     1
 42
1.0
 92
        0
 66
     7
 43
1.0
 76
     1
 77
     6
 78
     2
 67
     7
 79
     5
170
     0
171
     0
290
     0
174
     0
 93
       13
 44
0.0
173
     0
291
     1
 45
0.0
  0
VISUALSTYLE
  5
2E
102
{ACAD_REACTORS
330
2A
102
}
102
{ACAD_XDICTIONARY
360
1C0
102
}
330
2A
100
AcDbVisualStyle
  2
GouraudWithEdges
 70
     3
 71
     2
 72
     2
 73
     1
 90
        2
 40
-0.6
 41
30.0
 62
     5
 63
     7
421
 16777215
 74
     1
 91
        4
 64
     7
 65
   257
 75
     1
175
     1
 42
1.0
 92
        0
 66
   257
 43
1.0
 76
     1
 77
     6
 78
     2
 67
     7
 79
     5
170
     0
171
     0
290
     0
174
     0
 93
       13
 44
0.0
173
     0
291
     1
 45
0.0
  0
VISUALSTYLE
  5
38
102
{ACAD_REACTORS
330
2A
102
}
102
{ACAD_XDICTIONARY
360
1D4
102
}
330
2A
100
AcDbVisualStyle
  2
Linepattern
 70
    14
 71
     2
 72
     2
 73
     0
 90
        0
 40
-0.6
 41
-30.0
 62
     5
 63
     7
421
 16777215
 74
     1
 91
        4
 64
     7
 65
   257
 75
     7
175
     7
 42
1.0
 92
        8
 66
     7
 43
1.0
 76
     1
 77
     6
 78
     2
 67
     7
 79
     5
170
     0
171
     0
290
     0
174
     0
 93
        1
 44
0.0
173
     0
291
     1
 45
0.0
  0
VISUALSTYLE
  5
33
102
{ACAD_REACTORS
330
2A
102
}
102
{ACAD_XDICTIONARY
360
1CA
102
}
330
2A
100
AcDbVisualStyle
  2
Realistic
 70
     8
 71
     2
 72
     2
 73
     0
 90
        0
 40
-0.6
 41
-30.0
 62
     5
 63
     7
421
 16777215
 74
     1
 91
        0
 64
     7
 65
   257
 75
     1
175
     1
 42
1.0
 92
        8
 66
     8
424
  7895160
 43
1.0
 76
     1
 77
     6
 78
     2
 67
     7
 79
     5
170
     0
171
     0
290
     0
174
     0
 93
       13
 44
0.0
173
     0
291
     0
 45
0.0
  0
VISUALSTYLE
  5
37
102
{ACAD_REACTORS
330
2A
102
}
102
{ACAD_XDICTIONARY
360
1D2
102
}
330
2A
100
AcDbVisualStyle
  2
Thicken
 70
    13
 71
     2
 72
     2
 73
     0
 90
        0
 40
-0.6
 41
-30.0
 62
     5
 63
     7
421
 16777215
 74
     1
 91
        4
 64
     7
 65
   257
 75
     1
175
     1
 42
1.0
 92
       12
 66
     7
 43
1.0
 76
     1
 77
     6
 78
     2
 67
     7
 79
     5
170
     0
171
     0
290
     0
174
     0
 93
        1
 44
0.0
173
     0
291
     1
 45
0.0
  0
DICTIONARY
  5
1C2
330
2F
100
AcDbDictionary
280
     1
281
     1
  3
ACAD_XREC_ROUNDTRIP
360
1C3
  0
DICTIONARY
  5
1C6
330
31
100
AcDbDictionary
280
     1
281
     1
  3
ACAD_XREC_ROUNDTRIP
360
1C7
  0
DICTIONARY
  5
1C4
330
30
100
AcDbDictionary
280
     1
281
     1
  3
ACAD_XREC_ROUNDTRIP
360
1C5
  0
DICTIONARY
  5
1C8
330
32
100
AcDbDictionary
280
     1
281
     1
  3
ACAD_XREC_ROUNDTRIP
360
1C9
  0
DICTIONARY
  5
1D0
330
36
100
AcDbDictionary
280
     1
281
     1
  3
ACAD_XREC_ROUNDTRIP
360
1D1
  0
DICTIONARY
  5
1D8
330
3A
100
AcDbDictionary
280
     1
281
     1
  3
ACAD_XREC_ROUNDTRIP
360
1D9
  0
DICTIONARY
  5
1CC
330
34
100
AcDbDictionary
280
     1
281
     1
  3
ACAD_XREC_ROUNDTRIP
360
1CD
  0
DICTIONARY
  5
1CE
330
35
100
AcDbDictionary
280
     1
281
     1
  3
ACAD_XREC_ROUNDTRIP
360
1CF
  0
DICTIONARY
  5
1D6
330
39
100
AcDbDictionary
280
     1
281
     1
  3
ACAD_XREC_ROUNDTRIP
360
1D7
  0
DICTIONARY
  5
1BA
330
2B
100
AcDbDictionary
280
     1
281
     1
  3
ACAD_XREC_ROUNDTRIP
360
1BB
  0
DICTIONARY
  5
1BC
330
2C
100
AcDbDictionary
280
     1
281
     1
  3
ACAD_XREC_ROUNDTRIP
360
1BD
  0
DICTIONARY
  5
1BE
330
2D
100
AcDbDictionary
280
     1
281
     1
  3
ACAD_XREC_ROUNDTRIP
360
1BF
  0
DICTIONARY
  5
1C0
330
2E
100
AcDbDictionary
280
     1
281
     1
  3
ACAD_XREC_ROUNDTRIP
360
1C1
  0
DICTIONARY
  5
1D4
330
38
100
AcDbDictionary
280
     1
281
     1
  3
ACAD_XREC_ROUNDTRIP
360
1D5
  0
DICTIONARY
  5
1CA
330
33
100
AcDbDictionary
280
     1
281
     1
  3
ACAD_XREC_ROUNDTRIP
360
1CB
  0
DICTIONARY
  5
1D2
330
37
100
AcDbDictionary
280
     1
281
     1
  3
ACAD_XREC_ROUNDTRIP
360
1D3
  0
XRECORD
  5
1C3
102
{ACAD_REACTORS
330
1C2
102
}
330
1C2
100
AcDbXrecord
280
     1
102
RTVSPropertyOp0
 70
     1
102
RTVSPropertyOp1
 70
     1
102
RTVSPropertyOp2
 70
     1
102
RTVSPropertyOp3
 70
     1
102
RTVSPropertyOp4
 70
     1
102
RTVSPropertyOp5
 70
     1
102
RTVSPropertyOp6
 70
     1
102
RTVSPropertyOp7
 70
     1
102
RTVSPropertyOp8
 70
     1
102
RTVSPropertyOp9
 70
     1
102
RTVSPropertyOp10
 70
     1
102
RTVSPropertyOp11
 70
     1
102
RTVSPropertyOp12
 70
     1
102
RTVSPropertyOp13
 70
     1
102
RTVSPropertyOp14
 70
     1
102
RTVSPropertyOp15
 70
     1
102
RTVSPropertyOp16
 70
     1
102
RTVSPropertyOp17
 70
     1
102
RTVSPropertyOp18
 70
     1
102
RTVSPropertyOp19
 70
     1
102
RTVSPropertyOp20
 70
     1
102
RTVSPropertyOp21
 70
     1
102
RTVSPropertyOp22
 70
     1
102
RTVSPropertyOp23
 70
     1
102
RTVSPropertyOp24
 70
     1
102
RTVSPropertyOp25
 70
     1
102
RTVSPropertyOp26
 70
     1
102
RTVSPropertyOp27
 70
     1
  0
XRECORD
  5
1C7
102
{ACAD_REACTORS
330
1C6
102
}
330
1C6
100
AcDbXrecord
280
     1
102
RTVSPropertyOp0
 70
     1
102
RTVSPropertyOp1
 70
     1
102
RTVSPropertyOp2
 70
     1
102
RTVSPropertyOp3
 70
     1
102
RTVSPropertyOp4
 70
     1
102
RTVSPropertyOp5
 70
     1
102
RTVSPropertyOp6
 70
     1
102
RTVSPropertyOp7
 70
     1
102
RTVSPropertyOp8
 70
     1
102
RTVSPropertyOp9
 70
     1
102
RTVSPropertyOp10
 70
     1
102
RTVSPropertyOp11
 70
     1
102
RTVSPropertyOp12
 70
     1
102
RTVSPropertyOp13
 70
     1
102
RTVSPropertyOp14
 70
     1
102
RTVSPropertyOp15
 70
     1
102
RTVSPropertyOp16
 70
     1
102
RTVSPropertyOp17
 70
     1
102
RTVSPropertyOp18
 70
     1
102
RTVSPropertyOp19
 70
     1
102
RTVSPropertyOp20
 70
     1
102
RTVSPropertyOp21
 70
     1
102
RTVSPropertyOp22
 70
     1
102
RTVSPropertyOp23
 70
     1
102
RTVSPropertyOp24
 70
     1
102
RTVSPropertyOp25
 70
     1
102
RTVSPropertyOp26
 70
     1
102
RTVSPropertyOp27
 70
     1
  0
XRECORD
  5
1C5
102
{ACAD_REACTORS
330
1C4
102
}
330
1C4
100
AcDbXrecord
280
     1
102
RTVSPropertyOp0
 70
     1
102
RTVSPropertyOp1
 70
     1
102
RTVSPropertyOp2
 70
     1
102
RTVSPropertyOp3
 70
     1
102
RTVSPropertyOp4
 70
     1
102
RTVSPropertyOp5
 70
     1
102
RTVSPropertyOp6
 70
     1
102
RTVSPropertyOp7
 70
     1
102
RTVSPropertyOp8
 70
     1
102
RTVSPropertyOp9
 70
     1
102
RTVSPropertyOp10
 70
     1
102
RTVSPropertyOp11
 70
     1
102
RTVSPropertyOp12
 70
     1
102
RTVSPropertyOp13
 70
     1
102
RTVSPropertyOp14
 70
     1
102
RTVSPropertyOp15
 70
     1
102
RTVSPropertyOp16
 70
     1
102
RTVSPropertyOp17
 70
     1
102
RTVSPropertyOp18
 70
     1
102
RTVSPropertyOp19
 70
     1
102
RTVSPropertyOp20
 70
     1
102
RTVSPropertyOp21
 70
     1
102
RTVSPropertyOp22
 70
     1
102
RTVSPropertyOp23
 70
     1
102
RTVSPropertyOp24
 70
     1
102
RTVSPropertyOp25
 70
     1
102
RTVSPropertyOp26
 70
     1
102
RTVSPropertyOp27
 70
     1
  0
XRECORD
  5
1C9
102
{ACAD_REACTORS
330
1C8
102
}
330
1C8
100
AcDbXrecord
280
     1
102
RTVSPropertyOp0
 70
     1
102
RTVSPropertyOp1
 70
     1
102
RTVSPropertyOp2
 70
     1
102
RTVSPropertyOp3
 70
     1
102
RTVSPropertyOp4
 70
     1
102
RTVSPropertyOp5
 70
     1
102
RTVSPropertyOp6
 70
     1
102
RTVSPropertyOp7
 70
     1
102
RTVSPropertyOp8
 70
     1
102
RTVSPropertyOp9
 70
     1
102
RTVSPropertyOp10
 70
     1
102
RTVSPropertyOp11
 70
     1
102
RTVSPropertyOp12
 70
     1
102
RTVSPropertyOp13
 70
     1
102
RTVSPropertyOp14
 70
     1
102
RTVSPropertyOp15
 70
     1
102
RTVSPropertyOp16
 70
     1
102
RTVSPropertyOp17
 70
     1
102
RTVSPropertyOp18
 70
     1
102
RTVSPropertyOp19
 70
     1
102
RTVSPropertyOp20
 70
     1
102
RTVSPropertyOp21
 70
     1
102
RTVSPropertyOp22
 70
     1
102
RTVSPropertyOp23
 70
     1
102
RTVSPropertyOp24
 70
     1
102
RTVSPropertyOp25
 70
     1
102
RTVSPropertyOp26
 70
     1
102
RTVSPropertyOp27
 70
     1
  0
XRECORD
  5
1D1
102
{ACAD_REACTORS
330
1D0
102
}
330
1D0
100
AcDbXrecord
280
     1
102
RTVSPropertyOp0
 70
     1
102
RTVSPropertyOp1
 70
     1
102
RTVSPropertyOp2
 70
     1
102
RTVSPropertyOp3
 70
     1
102
RTVSPropertyOp4
 70
     1
102
RTVSPropertyOp5
 70
     1
102
RTVSPropertyOp6
 70
     1
102
RTVSPropertyOp7
 70
     1
102
RTVSPropertyOp8
 70
     1
102
RTVSPropertyOp9
 70
     1
102
RTVSPropertyOp10
 70
     1
102
RTVSPropertyOp11
 70
     1
102
RTVSPropertyOp12
 70
     1
102
RTVSPropertyOp13
 70
     1
102
RTVSPropertyOp14
 70
     1
102
RTVSPropertyOp15
 70
     1
102
RTVSPropertyOp16
 70
     1
102
RTVSPropertyOp17
 70
     1
102
RTVSPropertyOp18
 70
     1
102
RTVSPropertyOp19
 70
     1
102
RTVSPropertyOp20
 70
     1
102
RTVSPropertyOp21
 70
     1
102
RTVSPropertyOp22
 70
     1
102
RTVSPropertyOp23
 70
     1
102
RTVSPropertyOp24
 70
     1
102
RTVSPropertyOp25
 70
     1
102
RTVSPropertyOp26
 70
     1
102
RTVSPropertyOp27
 70
     1
  0
XRECORD
  5
1D9
102
{ACAD_REACTORS
330
1D8
102
}
330
1D8
100
AcDbXrecord
280
     1
102
RTVSPropertyOp0
 70
     1
102
RTVSPropertyOp1
 70
     1
102
RTVSPropertyOp2
 70
     1
102
RTVSPropertyOp3
 70
     1
102
RTVSPropertyOp4
 70
     1
102
RTVSPropertyOp5
 70
     1
102
RTVSPropertyOp6
 70
     1
102
RTVSPropertyOp7
 70
     1
102
RTVSPropertyOp8
 70
     1
102
RTVSPropertyOp9
 70
     1
102
RTVSPropertyOp10
 70
     1
102
RTVSPropertyOp11
 70
     1
102
RTVSPropertyOp12
 70
     1
102
RTVSPropertyOp13
 70
     1
102
RTVSPropertyOp14
 70
     1
102
RTVSPropertyOp15
 70
     1
102
RTVSPropertyOp16
 70
     1
102
RTVSPropertyOp17
 70
     1
102
RTVSPropertyOp18
 70
     1
102
RTVSPropertyOp19
 70
     1
102
RTVSPropertyOp20
 70
     1
102
RTVSPropertyOp21
 70
     1
102
RTVSPropertyOp22
 70
     1
102
RTVSPropertyOp23
 70
     1
102
RTVSPropertyOp24
 70
     1
102
RTVSPropertyOp25
 70
     1
102
RTVSPropertyOp26
 70
     1
102
RTVSPropertyOp27
 70
     1
  0
XRECORD
  5
1CD
102
{ACAD_REACTORS
330
1CC
102
}
330
1CC
100
AcDbXrecord
280
     1
102
RTVSPropertyOp0
 70
     1
102
RTVSPropertyOp1
 70
     1
102
RTVSPropertyOp2
 70
     1
102
RTVSPropertyOp3
 70
     1
102
RTVSPropertyOp4
 70
     1
102
RTVSPropertyOp5
 70
     1
102
RTVSPropertyOp6
 70
     1
102
RTVSPropertyOp7
 70
     1
102
RTVSPropertyOp8
 70
     1
102
RTVSPropertyOp9
 70
     1
102
RTVSPropertyOp10
 70
     1
102
RTVSPropertyOp11
 70
     1
102
RTVSPropertyOp12
 70
     1
102
RTVSPropertyOp13
 70
     1
102
RTVSPropertyOp14
 70
     1
102
RTVSPropertyOp15
 70
     1
102
RTVSPropertyOp16
 70
     1
102
RTVSPropertyOp17
 70
     1
102
RTVSPropertyOp18
 70
     1
102
RTVSPropertyOp19
 70
     1
102
RTVSPropertyOp20
 70
     1
102
RTVSPropertyOp21
 70
     1
102
RTVSPropertyOp22
 70
     1
102
RTVSPropertyOp23
 70
     1
102
RTVSPropertyOp24
 70
     1
102
RTVSPropertyOp25
 70
     1
102
RTVSPropertyOp26
 70
     1
102
RTVSPropertyOp27
 70
     1
  0
XRECORD
  5
1CF
102
{ACAD_REACTORS
330
1CE
102
}
330
1CE
100
AcDbXrecord
280
     1
102
RTVSPropertyOp0
 70
     1
102
RTVSPropertyOp1
 70
     1
102
RTVSPropertyOp2
 70
     1
102
RTVSPropertyOp3
 70
     1
102
RTVSPropertyOp4
 70
     1
102
RTVSPropertyOp5
 70
     1
102
RTVSPropertyOp6
 70
     1
102
RTVSPropertyOp7
 70
     1
102
RTVSPropertyOp8
 70
     1
102
RTVSPropertyOp9
 70
     1
102
RTVSPropertyOp10
 70
     1
102
RTVSPropertyOp11
 70
     1
102
RTVSPropertyOp12
 70
     1
102
RTVSPropertyOp13
 70
     1
102
RTVSPropertyOp14
 70
     1
102
RTVSPropertyOp15
 70
     1
102
RTVSPropertyOp16
 70
     1
102
RTVSPropertyOp17
 70
     1
102
RTVSPropertyOp18
 70
     1
102
RTVSPropertyOp19
 70
     1
102
RTVSPropertyOp20
 70
     1
102
RTVSPropertyOp21
 70
     1
102
RTVSPropertyOp22
 70
     1
102
RTVSPropertyOp23
 70
     1
102
RTVSPropertyOp24
 70
     1
102
RTVSPropertyOp25
 70
     1
102
RTVSPropertyOp26
 70
     1
102
RTVSPropertyOp27
 70
     1
  0
XRECORD
  5
1D7
102
{ACAD_REACTORS
330
1D6
102
}
330
1D6
100
AcDbXrecord
280
     1
102
RTVSPropertyOp0
 70
     1
102
RTVSPropertyOp1
 70
     1
102
RTVSPropertyOp2
 70
     1
102
RTVSPropertyOp3
 70
     1
102
RTVSPropertyOp4
 70
     1
102
RTVSPropertyOp5
 70
     1
102
RTVSPropertyOp6
 70
     1
102
RTVSPropertyOp7
 70
     1
102
RTVSPropertyOp8
 70
     1
102
RTVSPropertyOp9
 70
     1
102
RTVSPropertyOp10
 70
     1
102
RTVSPropertyOp11
 70
     1
102
RTVSPropertyOp12
 70
     1
102
RTVSPropertyOp13
 70
     1
102
RTVSPropertyOp14
 70
     1
102
RTVSPropertyOp15
 70
     1
102
RTVSPropertyOp16
 70
     1
102
RTVSPropertyOp17
 70
     1
102
RTVSPropertyOp18
 70
     1
102
RTVSPropertyOp19
 70
     1
102
RTVSPropertyOp20
 70
     1
102
RTVSPropertyOp21
 70
     1
102
RTVSPropertyOp22
 70
     1
102
RTVSPropertyOp23
 70
     1
102
RTVSPropertyOp24
 70
     1
102
RTVSPropertyOp25
 70
     1
102
RTVSPropertyOp26
 70
     1
102
RTVSPropertyOp27
 70
     1
  0
XRECORD
  5
1BB
102
{ACAD_REACTORS
330
1BA
102
}
330
1BA
100
AcDbXrecord
280
     1
102
RTVSPropertyOp0
 70
     1
102
RTVSPropertyOp1
 70
     1
102
RTVSPropertyOp2
 70
     1
102
RTVSPropertyOp3
 70
     1
102
RTVSPropertyOp4
 70
     1
102
RTVSPropertyOp5
 70
     1
102
RTVSPropertyOp6
 70
     1
102
RTVSPropertyOp7
 70
     1
102
RTVSPropertyOp8
 70
     1
102
RTVSPropertyOp9
 70
     1
102
RTVSPropertyOp10
 70
     1
102
RTVSPropertyOp11
 70
     1
102
RTVSPropertyOp12
 70
     1
102
RTVSPropertyOp13
 70
     1
102
RTVSPropertyOp14
 70
     1
102
RTVSPropertyOp15
 70
     1
102
RTVSPropertyOp16
 70
     1
102
RTVSPropertyOp17
 70
     1
102
RTVSPropertyOp18
 70
     1
102
RTVSPropertyOp19
 70
     1
102
RTVSPropertyOp20
 70
     1
102
RTVSPropertyOp21
 70
     1
102
RTVSPropertyOp22
 70
     1
102
RTVSPropertyOp23
 70
     1
102
RTVSPropertyOp24
 70
     1
102
RTVSPropertyOp25
 70
     1
102
RTVSPropertyOp26
 70
     1
102
RTVSPropertyOp27
 70
     1
  0
XRECORD
  5
1BD
102
{ACAD_REACTORS
330
1BC
102
}
330
1BC
100
AcDbXrecord
280
     1
102
RTVSPropertyOp0
 70
     1
102
RTVSPropertyOp1
 70
     1
102
RTVSPropertyOp2
 70
     1
102
RTVSPropertyOp3
 70
     1
102
RTVSPropertyOp4
 70
     1
102
RTVSPropertyOp5
 70
     1
102
RTVSPropertyOp6
 70
     1
102
RTVSPropertyOp7
 70
     1
102
RTVSPropertyOp8
 70
     1
102
RTVSPropertyOp9
 70
     1
102
RTVSPropertyOp10
 70
     1
102
RTVSPropertyOp11
 70
     1
102
RTVSPropertyOp12
 70
     1
102
RTVSPropertyOp13
 70
     1
102
RTVSPropertyOp14
 70
     1
102
RTVSPropertyOp15
 70
     1
102
RTVSPropertyOp16
 70
     1
102
RTVSPropertyOp17
 70
     1
102
RTVSPropertyOp18
 70
     1
102
RTVSPropertyOp19
 70
     1
102
RTVSPropertyOp20
 70
     1
102
RTVSPropertyOp21
 70
     1
102
RTVSPropertyOp22
 70
     1
102
RTVSPropertyOp23
 70
     1
102
RTVSPropertyOp24
 70
     1
102
RTVSPropertyOp25
 70
     1
102
RTVSPropertyOp26
 70
     1
102
RTVSPropertyOp27
 70
     1
  0
XRECORD
  5
1BF
102
{ACAD_REACTORS
330
1BE
102
}
330
1BE
100
AcDbXrecord
280
     1
102
RTVSPropertyOp0
 70
     1
102
RTVSPropertyOp1
 70
     1
102
RTVSPropertyOp2
 70
     1
102
RTVSPropertyOp3
 70
     1
102
RTVSPropertyOp4
 70
     1
102
RTVSPropertyOp5
 70
     1
102
RTVSPropertyOp6
 70
     1
102
RTVSPropertyOp7
 70
     1
102
RTVSPropertyOp8
 70
     1
102
RTVSPropertyOp9
 70
     1
102
RTVSPropertyOp10
 70
     1
102
RTVSPropertyOp11
 70
     1
102
RTVSPropertyOp12
 70
     1
102
RTVSPropertyOp13
 70
     1
102
RTVSPropertyOp14
 70
     1
102
RTVSPropertyOp15
 70
     1
102
RTVSPropertyOp16
 70
     1
102
RTVSPropertyOp17
 70
     1
102
RTVSPropertyOp18
 70
     1
102
RTVSPropertyOp19
 70
     1
102
RTVSPropertyOp20
 70
     1
102
RTVSPropertyOp21
 70
     1
102
RTVSPropertyOp22
 70
     1
102
RTVSPropertyOp23
 70
     1
102
RTVSPropertyOp24
 70
     1
102
RTVSPropertyOp25
 70
     1
102
RTVSPropertyOp26
 70
     1
102
RTVSPropertyOp27
 70
     1
  0
XRECORD
  5
1C1
102
{ACAD_REACTORS
330
1C0
102
}
330
1C0
100
AcDbXrecord
280
     1
102
RTVSPropertyOp0
 70
     1
102
RTVSPropertyOp1
 70
     1
102
RTVSPropertyOp2
 70
     1
102
RTVSPropertyOp3
 70
     1
102
RTVSPropertyOp4
 70
     1
102
RTVSPropertyOp5
 70
     1
102
RTVSPropertyOp6
 70
     1
102
RTVSPropertyOp7
 70
     1
102
RTVSPropertyOp8
 70
     1
102
RTVSPropertyOp9
 70
     1
102
RTVSPropertyOp10
 70
     1
102
RTVSPropertyOp11
 70
     1
102
RTVSPropertyOp12
 70
     1
102
RTVSPropertyOp13
 70
     1
102
RTVSPropertyOp14
 70
     1
102
RTVSPropertyOp15
 70
     1
102
RTVSPropertyOp16
 70
     1
102
RTVSPropertyOp17
 70
     1
102
RTVSPropertyOp18
 70
     1
102
RTVSPropertyOp19
 70
     1
102
RTVSPropertyOp20
 70
     1
102
RTVSPropertyOp21
 70
     1
102
RTVSPropertyOp22
 70
     1
102
RTVSPropertyOp23
 70
     1
102
RTVSPropertyOp24
 70
     1
102
RTVSPropertyOp25
 70
     1
102
RTVSPropertyOp26
 70
     1
102
RTVSPropertyOp27
 70
     1
  0
XRECORD
  5
1D5
102
{ACAD_REACTORS
330
1D4
102
}
330
1D4
100
AcDbXrecord
280
     1
102
RTVSPropertyOp0
 70
     1
102
RTVSPropertyOp1
 70
     1
102
RTVSPropertyOp2
 70
     1
102
RTVSPropertyOp3
 70
     1
102
RTVSPropertyOp4
 70
     1
102
RTVSPropertyOp5
 70
     1
102
RTVSPropertyOp6
 70
     1
102
RTVSPropertyOp7
 70
     1
102
RTVSPropertyOp8
 70
     1
102
RTVSPropertyOp9
 70
     1
102
RTVSPropertyOp10
 70
     1
102
RTVSPropertyOp11
 70
     1
102
RTVSPropertyOp12
 70
     1
102
RTVSPropertyOp13
 70
     1
102
RTVSPropertyOp14
 70
     1
102
RTVSPropertyOp15
 70
     1
102
RTVSPropertyOp16
 70
     1
102
RTVSPropertyOp17
 70
     1
102
RTVSPropertyOp18
 70
     1
102
RTVSPropertyOp19
 70
     1
102
RTVSPropertyOp20
 70
     1
102
RTVSPropertyOp21
 70
     1
102
RTVSPropertyOp22
 70
     1
102
RTVSPropertyOp23
 70
     1
102
RTVSPropertyOp24
 70
     1
102
RTVSPropertyOp25
 70
     1
102
RTVSPropertyOp26
 70
     1
102
RTVSPropertyOp27
 70
     1
  0
XRECORD
  5
1CB
102
{ACAD_REACTORS
330
1CA
102
}
330
1CA
100
AcDbXrecord
280
     1
102
RTVSPropertyOp0
 70
     1
102
RTVSPropertyOp1
 70
     1
102
RTVSPropertyOp2
 70
     1
102
RTVSPropertyOp3
 70
     1
102
RTVSPropertyOp4
 70
     1
102
RTVSPropertyOp5
 70
     1
102
RTVSPropertyOp6
 70
     1
102
RTVSPropertyOp7
 70
     1
102
RTVSPropertyOp8
 70
     1
102
RTVSPropertyOp9
 70
     1
102
RTVSPropertyOp10
 70
     1
102
RTVSPropertyOp11
 70
     1
102
RTVSPropertyOp12
 70
     1
102
RTVSPropertyOp13
 70
     1
102
RTVSPropertyOp14
 70
     1
102
RTVSPropertyOp15
 70
     1
102
RTVSPropertyOp16
 70
     1
102
RTVSPropertyOp17
 70
     1
102
RTVSPropertyOp18
 70
     1
102
RTVSPropertyOp19
 70
     1
102
RTVSPropertyOp20
 70
     1
102
RTVSPropertyOp21
 70
     1
102
RTVSPropertyOp22
 70
     1
102
RTVSPropertyOp23
 70
     1
102
RTVSPropertyOp24
 70
     1
102
RTVSPropertyOp25
 70
     1
102
RTVSPropertyOp26
 70
     1
102
RTVSPropertyOp27
 70
     1
  0
XRECORD
  5
1D3
102
{ACAD_REACTORS
330
1D2
102
}
330
1D2
100
AcDbXrecord
280
     1
102
RTVSPropertyOp0
 70
     1
102
RTVSPropertyOp1
 70
     1
102
RTVSPropertyOp2
 70
     1
102
RTVSPropertyOp3
 70
     1
102
RTVSPropertyOp4
 70
     1
102
RTVSPropertyOp5
 70
     1
102
RTVSPropertyOp6
 70
     1
102
RTVSPropertyOp7
 70
     1
102
RTVSPropertyOp8
 70
     1
102
RTVSPropertyOp9
 70
     1
102
RTVSPropertyOp10
 70
     1
102
RTVSPropertyOp11
 70
     1
102
RTVSPropertyOp12
 70
     1
102
RTVSPropertyOp13
 70
     1
102
RTVSPropertyOp14
 70
     1
102
RTVSPropertyOp15
 70
     1
102
RTVSPropertyOp16
 70
     1
102
RTVSPropertyOp17
 70
     1
102
RTVSPropertyOp18
 70
     1
102
RTVSPropertyOp19
 70
     1
102
RTVSPropertyOp20
 70
     1
102
RTVSPropertyOp21
 70
     1
102
RTVSPropertyOp22
 70
     1
102
RTVSPropertyOp23
 70
     1
102
RTVSPropertyOp24
 70
     1
102
RTVSPropertyOp25
 70
     1
102
RTVSPropertyOp26
 70
     1
102
RTVSPropertyOp27
 70
     1
  0
ENDSEC
  0
EOF
