  0
SECTION
  2
HEADER
  9
$ACADVER
  1
AC1024
  9
$ACADMAINTVER
 70
     6
  9
$DWGCODEPAGE
  3
ANSI_1252
  9
$LASTSAVEDBY
  1
p.perez
  9
$INSBASE
 10
0.0
 20
0.0
 30
0.0
  9
$EXTMIN
 10
0.0
 20
0.0
 30
0.0
  9
$EXTMAX
 10
210.0
 20
297.0
 30
0.0
  9
$LIMMIN
 10
0.0
 20
0.0
  9
$LIMMAX
 10
210.0
 20
297.0
  9
$ORTHOMODE
 70
     0
  9
$REGENMODE
 70
     1
  9
$FILLMODE
 70
     1
  9
$QTEXTMODE
 70
     0
  9
$MIRRTEXT
 70
     1
  9
$LTSCALE
 40
1.0
  9
$ATTMODE
 70
     1
  9
$TEXTSIZE
 40
3.5
  9
$TRACEWID
 40
1.0
  9
$TEXTSTYLE
  7
STANDARD
  9
$CLAYER
  8
0
  9
$CELTYPE
  6
ByLayer
  9
$CECOLOR
 62
   256
  9
$CELTSCALE
 40
1.0
  9
$DISPSILH
 70
     0
  9
$DIMSCALE
 40
1.0
  9
$DIMASZ
 40
3.302
  9
$DIMEXO
 40
1.0
  9
$DIMDLI
 40
3.75
  9
$DIMRND
 40
0.0
  9
$DIMDLE
 40
0.0
  9
$DIMEXE
 40
1.0
  9
$DIMTP
 40
0.0
  9
$DIMTM
 40
0.0
  9
$DIMTXT
 40
3.5
  9
$DIMCEN
 40
2.5
  9
$DIMTSZ
 40
0.0
  9
$DIMTOL
 70
     0
  9
$DIMLIM
 70
     0
  9
$DIMTIH
 70
     1
  9
$DIMTOH
 70
     1
  9
$DIMSE1
 70
     0
  9
$DIMSE2
 70
     0
  9
$DIMTAD
 70
     1
  9
$DIMZIN
 70
     0
  9
$DIMBLK
  1

  9
$DIMASO
 70
     1
  9
$DIMSHO
 70
     1
  9
$DIMPOST
  1

  9
$DIMAPOST
  1

  9
$DIMALT
 70
     0
  9
$DIMALTD
 70
     3
  9
$DIMALTF
 40
0.0393700787
  9
$DIMLFAC
 40
1.0
  9
$DIMTOFL
 70
     1
  9
$DIMTVP
 40
0.0
  9
$DIMTIX
 70
     0
  9
$DIMSOXD
 70
     0
  9
$DIMSAH
 70
     0
  9
$DIMBLK1
  1

  9
$DIMBLK2
  1

  9
$DIMSTYLE
  2
ISO-25
  9
$DIMCLRD
 70
     0
  9
$DIMCLRE
 70
     0
  9
$DIMCLRT
 70
     0
  9
$DIMTFAC
 40
1.0
  9
$DIMGAP
 40
1.524
  9
$DIMJUST
 70
     0
  9
$DIMSD1
 70
     0
  9
$DIMSD2
 70
     0
  9
$DIMTOLJ
 70
     0
  9
$DIMTZIN
 70
     0
  9
$DIMALTZ
 70
     0
  9
$DIMALTTZ
 70
     0
  9
$DIMUPT
 70
     0
  9
$DIMDEC
 70
     2
  9
$DIMTDEC
 70
     2
  9
$DIMALTU
 70
     2
  9
$DIMALTTD
 70
     3
  9
$DIMTXSTY
  7
STANDARD
  9
$DIMAUNIT
 70
     0
  9
$DIMADEC
 70
     2
  9
$DIMALTRND
 40
0.0
  9
$DIMAZIN
 70
     0
  9
$DIMDSEP
 70
    44
  9
$DIMATFIT
 70
     3
  9
$DIMFRAC
 70
     0
  9
$DIMLDRBLK
  1

  9
$DIMLUNIT
 70
     2
  9
$DIMLWD
 70
    -2
  9
$DIMLWE
 70
    -2
  9
$DIMTMOVE
 70
     0
  9
$DIMFXL
 40
1.0
  9
$DIMFXLON
 70
     0
  9
$DIMJOGANG
 40
0.7853981634
  9
$DIMTFILL
 70
     0
  9
$DIMTFILLCLR
 70
     0
  9
$DIMARCSYM
 70
     0
  9
$DIMLTYPE
  6

  9
$DIMLTEX1
  6

  9
$DIMLTEX2
  6

  9
$DIMTXTDIRECTION
 70
     0
  9
$LUNITS
 70
     2
  9
$LUPREC
 70
     2
  9
$SKETCHINC
 40
1.0
  9
$FILLETRAD
 40
10.0
  9
$AUNITS
 70
     0
  9
$AUPREC
 70
     2
  9
$MENU
  1
.
  9
$ELEVATION
 40
0.0
  9
$PELEVATION
 40
0.0
  9
$THICKNESS
 40
0.0
  9
$LIMCHECK
 70
     0
  9
$CHAMFERA
 40
0.0
  9
$CHAMFERB
 40
0.0
  9
$CHAMFERC
 40
0.0
  9
$CHAMFERD
 40
0.0
  9
$SKPOLY
 70
     0
  9
$TDCREATE
 40
2459074.656782025
  9
$TDUCREATE
 40
2459074.573448692
  9
$TDUPDATE
 40
2459074.656782523
  9
$TDUUPDATE
 40
2459074.57344919
  9
$TDINDWG
 40
0.0000000116
  9
$TDUSRTIMER
 40
0.0000000116
  9
$USRTIMER
 70
     1
  9
$ANGBASE
 50
0.0
  9
$ANGDIR
 70
     0
  9
$PDMODE
 70
     0
  9
$PDSIZE
 40
-1.0
  9
$PLINEWID
 40
0.0
  9
$SPLFRAME
 70
     0
  9
$SPLINETYPE
 70
     6
  9
$SPLINESEGS
 70
     8
  9
$HANDSEED
  5
20F
  9
$SURFTAB1
 70
     6
  9
$SURFTAB2
 70
     6
  9
$SURFTYPE
 70
     6
  9
$SURFU
 70
     6
  9
$SURFV
 70
     6
  9
$UCSBASE
  2

  9
$UCSNAME
  2

  9
$UCSORG
 10
0.0
 20
0.0
 30
0.0
  9
$UCSXDIR
 10
1.0
 20
0.0
 30
0.0
  9
$UCSYDIR
 10
0.0
 20
1.0
 30
0.0
  9
$UCSORTHOREF
  2

  9
$UCSORTHOVIEW
 70
     0
  9
$UCSORGTOP
 10
0.0
 20
0.0
 30
0.0
  9
$UCSORGBOTTOM
 10
0.0
 20
0.0
 30
0.0
  9
$UCSORGLEFT
 10
0.0
 20
0.0
 30
0.0
  9
$UCSORGRIGHT
 10
0.0
 20
0.0
 30
0.0
  9
$UCSORGFRONT
 10
0.0
 20
0.0
 30
0.0
  9
$UCSORGBACK
 10
0.0
 20
0.0
 30
0.0
  9
$PUCSBASE
  2

  9
$PUCSNAME
  2

  9
$PUCSORG
 10
0.0
 20
0.0
 30
0.0
  9
$PUCSXDIR
 10
1.0
 20
0.0
 30
0.0
  9
$PUCSYDIR
 10
0.0
 20
1.0
 30
0.0
  9
$PUCSORTHOREF
  2

  9
$PUCSORTHOVIEW
 70
     0
  9
$PUCSORGTOP
 10
0.0
 20
0.0
 30
0.0
  9
$PUCSORGBOTTOM
 10
0.0
 20
0.0
 30
0.0
  9
$PUCSORGLEFT
 10
0.0
 20
0.0
 30
0.0
  9
$PUCSORGRIGHT
 10
0.0
 20
0.0
 30
0.0
  9
$PUCSORGFRONT
 10
0.0
 20
0.0
 30
0.0
  9
$PUCSORGBACK
 10
0.0
 20
0.0
 30
0.0
  9
$USERI1
 70
     0
  9
$USERI2
 70
     0
  9
$USERI3
 70
     0
  9
$USERI4
 70
     0
  9
$USERI5
 70
     0
  9
$USERR1
 40
0.0
  9
$USERR2
 40
0.0
  9
$USERR3
 40
0.0
  9
$USERR4
 40
0.0
  9
$USERR5
 40
0.0
  9
$WORLDVIEW
 70
     1
  9
$SHADEDGE
 70
     3
  9
$SHADEDIF
 70
    70
  9
$TILEMODE
 70
     1
  9
$MAXACTVP
 70
    64
  9
$PINSBASE
 10
0.0
 20
0.0
 30
0.0
  9
$PLIMCHECK
 70
     0
  9
$PEXTMIN
 10
1.0000000000E+20
 20
1.0000000000E+20
 30
1.0000000000E+20
  9
$PEXTMAX
 10
-1.0000000000E+20
 20
-1.0000000000E+20
 30
-1.0000000000E+20
  9
$PLIMMIN
 10
0.0
 20
0.0
  9
$PLIMMAX
 10
420.0
 20
297.0
  9
$UNITMODE
 70
     0
  9
$VISRETAIN
 70
     1
  9
$PLINEGEN
 70
     0
  9
$PSLTSCALE
 70
     1
  9
$TREEDEPTH
 70
  3020
  9
$CMLSTYLE
  2
Standard
  9
$CMLJUST
 70
     0
  9
$CMLSCALE
 40
20.0
  9
$PROXYGRAPHICS
 70
     1
  9
$MEASUREMENT
 70
     1
  9
$CELWEIGHT
370
    -1
  9
$ENDCAPS
280
     0
  9
$JOINSTYLE
280
     0
  9
$LWDISPLAY
290
     1
  9
$INSUNITS
 70
     4
  9
$HYPERLINKBASE
  1

  9
$STYLESHEET
  1

  9
$XEDIT
290
     1
  9
$CEPSNTYPE
380
     0
  9
$PSTYLEMODE
290
     1
  9
$FINGERPRINTGUID
  2
{4d89ad83-6641-42e6-a228-d94ec5ddf90f}
  9
$VERSIONGUID
  2
{FAEB1C32-E019-11D5-929B-00C0DF256EC4}
  9
$EXTNAMES
290
     1
  9
$PSVPSCALE
 40
0.0
  9
$OLESTARTUP
290
     0
  9
$SORTENTS
280
   127
  9
$INDEXCTL
280
     0
  9
$HIDETEXT
280
     1
  9
$XCLIPFRAME
280
     2
  9
$HALOGAP
280
     0
  9
$OBSCOLOR
 70
   257
  9
$OBSLTYPE
280
     0
  9
$INTERSECTIONDISPLAY
280
     0
  9
$INTERSECTIONCOLOR
 70
   257
  9
$DIMASSOC
280
     2
  9
$PROJECTNAME
  1

  9
$CAMERADISPLAY
290
     0
  9
$LENSLENGTH
 40
50.0
  9
$CAMERAHEIGHT
 40
0.0
  9
$STEPSPERSEC
 40
2.0
  9
$STEPSIZE
 40
6.0
  9
$3DDWFPREC
 40
2.0
  9
$PSOLWIDTH
 40
5.0
  9
$PSOLHEIGHT
 40
80.0
  9
$LOFTANG1
 40
1.5707963268
  9
$LOFTANG2
 40
1.5707963268
  9
$LOFTMAG1
 40
0.0
  9
$LOFTMAG2
 40
0.0
  9
$LOFTPARAM
 70
     7
  9
$LOFTNORMALS
280
     1
  9
$LATITUDE
 40
37.795
  9
$LONGITUDE
 40
-122.394
  9
$NORTHDIRECTION
 40
0.0
  9
$TIMEZONE
 70
 -8000
  9
$LIGHTGLYPHDISPLAY
280
     1
  9
$TILEMODELIGHTSYNCH
280
     1
  9
$CMATERIAL
347
44
  9
$SOLIDHIST
280
     0
  9
$SHOWHIST
280
     1
  9
$DWFFRAME
280
     2
  9
$DGNFRAME
280
     2
  9
$REALWORLDSCALE
290
     1
  9
$INTERFERECOLOR
 62
   256
  9
$CSHADOW
280
     0
  9
$SHADOWPLANELOCATION
 40
0.0
  0
ENDSEC
  0
SECTION
  2
CLASSES
  0
CLASS
  1
ACDBDICTIONARYWDFLT
  2
AcDbDictionaryWithDefault
  3
ObjectDBX Classes
 90
        0
 91
        3
280
     0
281
     0
  0
CLASS
  1
VISUALSTYLE
  2
AcDbVisualStyle
  3
ObjectDBX Classes
 90
     4095
 91
        3
280
     0
281
     0
  0
CLASS
  1
MATERIAL
  2
AcDbMaterial
  3
ObjectDBX Classes
 90
     1153
 91
        3
280
     0
281
     0
  0
CLASS
  1
SCALE
  2
AcDbScale
  3
ObjectDBX Classes
 90
     1153
 91
        3
280
     0
281
     0
  0
CLASS
  1
TABLESTYLE
  2
AcDbTableStyle
  3
ObjectDBX Classes
 90
     4095
 91
        3
280
     0
281
     0
  0
CLASS
  1
MLEADERSTYLE
  2
AcDbMLeaderStyle
  3
ACDB_MLEADERSTYLE_CLASS
 90
     4095
 91
        3
280
     0
281
     0
  0
CLASS
  1
SUN
  2
AcDbSun
  3
SCENEOE
 90
     1153
 91
        3
280
     0
281
     0
  0
CLASS
  1
DICTIONARYVAR
  2
AcDbDictionaryVar
  3
ObjectDBX Classes
 90
        0
 91
        3
280
     0
281
     0
  0
CLASS
  1
CELLSTYLEMAP
  2
AcDbCellStyleMap
  3
ObjectDBX Classes
 90
     1152
 91
        3
280
     0
281
     0
  0
ENDSEC
  0
SECTION
  2
TABLES
  0
TABLE
  2
VPORT
  5
8
330
0
100
AcDbSymbolTable
 70
     1
  0
VPORT
  5
29
330
8
100
AcDbSymbolTableRecord
100
AcDbViewportTableRecord
  2
*Active
 70
     0
 10
0.0
 20
0.0
 11
1.0
 21
1.0
 12
105.0
 22
148.5
 13
0.0
 23
0.0
 14
10.0
 24
10.0
 15
10.0
 25
10.0
 16
0.0
 26
0.0
 36
1.0
 17
0.0
 27
0.0
 37
0.0
 40
297.0
 41
0.7070707071
 42
50.0
 43
0.0
 44
0.0
 50
0.0
 51
0.0
 71
     0
 72
  2000
 73
     1
 74
     3
 75
     0
 76
     0
 77
     0
 78
     0
281
     0
 65
     1
110
0.0
120
0.0
130
0.0
111
1.0
121
0.0
131
0.0
112
0.0
122
1.0
132
0.0
 79
     0
146
0.0
348
2F
 60
     3
 61
     5
292
     1
282
     1
141
0.0
142
0.0
 63
   250
361
6D
  0
ENDTAB
  0
TABLE
  2
LTYPE
  5
5
330
0
100
AcDbSymbolTable
 70
     8
  0
LTYPE
  5
14
330
5
100
AcDbSymbolTableRecord
100
AcDbLinetypeTableRecord
  2
ByBlock
 70
     0
  3

 72
    65
 73
     0
 40
0.0
  0
LTYPE
  5
15
330
5
100
AcDbSymbolTableRecord
100
AcDbLinetypeTableRecord
  2
ByLayer
 70
     0
  3

 72
    65
 73
     0
 40
0.0
  0
LTYPE
  5
16
330
5
100
AcDbSymbolTableRecord
100
AcDbLinetypeTableRecord
  2
Continuous
 70
     0
  3
Solid line
 72
    65
 73
     0
 40
0.0
  0
LTYPE
  5
6E
330
5
100
AcDbSymbolTableRecord
100
AcDbLinetypeTableRecord
  2
SLD-Durchgehend
 70
     0
  3
SolidWorks Line Style
 72
    65
 73
     0
 40
0.0
  0
LTYPE
  5
6F
330
5
100
AcDbSymbolTableRecord
100
AcDbLinetypeTableRecord
  2
SLD-Gestrichelt
 70
     0
  3
SolidWorks Line Style
 72
    65
 73
     2
 40
1.905
 49
1.27
 74
     0
 49
-0.635
 74
     0
  0
LTYPE
  5
70
330
5
100
AcDbSymbolTableRecord
100
AcDbLinetypeTableRecord
  2
SLD-Phantom
 70
     0
  3
SolidWorks Line Style
 72
    65
 73
     6
 40
12.7
 49
6.35
 74
     0
 49
-1.27
 74
     0
 49
1.27
 74
     0
 49
-1.27
 74
     0
 49
1.27
 74
     0
 49
-1.27
 74
     0
  0
LTYPE
  5
71
330
5
100
AcDbSymbolTableRecord
100
AcDbLinetypeTableRecord
  2
SLD-Kette
 70
     0
  3
SolidWorks Line Style
 72
    65
 73
     4
 40
10.16
 49
6.35
 74
     0
 49
-1.27
 74
     0
 49
1.27
 74
     0
 49
-1.27
 74
     0
  0
LTYPE
  5
72
330
5
100
AcDbSymbolTableRecord
100
AcDbLinetypeTableRecord
  2
SLD-Punktstrich
 70
     0
  3
SolidWorks Line Style
 72
    65
 73
     4
 40
19.05
 49
15.24
 74
     0
 49
-1.27
 74
     0
 49
1.27
 74
     0
 49
-1.27
 74
     0
  0
LTYPE
  5
73
330
5
100
AcDbSymbolTableRecord
100
AcDbLinetypeTableRecord
  2
SLD-Naht
 70
     0
  3
SolidWorks Line Style
 72
    65
 73
     2
 40
0.635
 49
0.0
 74
     0
 49
-0.635
 74
     0
  0
LTYPE
  5
74
330
5
100
AcDbSymbolTableRecord
100
AcDbLinetypeTableRecord
  2
SLD-Dicke-Dünne-Kette
 70
     0
  3
SolidWorks Line Style
 72
    65
 73
     4
 40
10.16
 49
6.35
 74
     0
 49
-1.27
 74
     0
 49
1.27
 74
     0
 49
-1.27
 74
     0
  0
ENDTAB
  0
TABLE
  2
LAYER
  5
2
330
0
100
AcDbSymbolTable
 70
     4
  0
LAYER
  5
10
330
2
100
AcDbSymbolTableRecord
100
AcDbLayerTableRecord
  2
0
 70
     0
 62
     7
  6
Continuous
370
    -3
390
F
347
46
  0
LAYER
  5
75
330
2
100
AcDbSymbolTableRecord
100
AcDbLayerTableRecord
  2
RAHMEN
 70
     0
 62
   179
  6
SLD-Durchgehend
370
    -3
390
F
347
46
  0
LAYER
  5
76
330
2
100
AcDbSymbolTableRecord
100
AcDbLayerTableRecord
  2
KOPF
 70
     0
 62
     7
  6
SLD-Durchgehend
370
    -3
390
F
347
46
  0
LAYER
  5
77
330
2
100
AcDbSymbolTableRecord
100
AcDbLayerTableRecord
  2
ZEICHNUNG
 70
     0
 62
     7
  6
SLD-Durchgehend
370
    -3
390
F
347
46
  0
ENDTAB
  0
TABLE
  2
STYLE
  5
3
330
0
100
AcDbSymbolTable
 70
     1
  0
STYLE
  5
11
330
3
100
AcDbSymbolTableRecord
100
AcDbTextStyleTableRecord
  2
STANDARD
 70
     0
 40
0.0
 41
1.0
 50
0.0
 71
     0
 42
3.5
  3
GOTHIC.TTF
  4

1001
ACAD
1000
CENTURY GOTHIC
1071
       34
  0
ENDTAB
  0
TABLE
  2
VIEW
  5
6
330
0
100
AcDbSymbolTable
 70
     0
  0
ENDTAB
  0
TABLE
  2
UCS
  5
7
330
0
100
AcDbSymbolTable
 70
     0
  0
ENDTAB
  0
TABLE
  2
APPID
  5
9
330
0
100
AcDbSymbolTable
 70
     1
  0
APPID
  5
12
330
9
100
AcDbSymbolTableRecord
100
AcDbRegAppTableRecord
  2
ACAD
 70
     0
  0
ENDTAB
  0
TABLE
  2
DIMSTYLE
  5
A
330
0
100
AcDbSymbolTable
 70
     1
100
AcDbDimStyleTable
  0
DIMSTYLE
105
27
330
A
100
AcDbSymbolTableRecord
100
AcDbDimStyleTableRecord
  2
ISO-25
 70
     0
 41
2.5
 42
0.625
 43
3.75
 44
1.25
 73
     0
 74
     0
 77
     1
 78
     8
140
2.5
141
2.5
143
0.0393700787
147
0.625
171
     3
172
     1
178
     0
271
     2
272
     2
274
     3
278
    44
283
     0
284
     8
340
11
  0
ENDTAB
  0
TABLE
  2
BLOCK_RECORD
  5
1
330
0
100
AcDbSymbolTable
 70
     2
  0
BLOCK_RECORD
  5
1F
330
1
100
AcDbSymbolTableRecord
100
AcDbBlockTableRecord
  2
*Model_Space
340
22
 70
     0
280
     1
281
     0
  0
BLOCK_RECORD
  5
1B
330
1
100
AcDbSymbolTableRecord
100
AcDbBlockTableRecord
  2
*Paper_Space
340
1E
 70
     0
280
     1
281
     0
  0
BLOCK_RECORD
  5
23
330
1
100
AcDbSymbolTableRecord
100
AcDbBlockTableRecord
  2
*Paper_Space0
340
26
 70
     0
280
     1
281
     0
  0
BLOCK_RECORD
  5
78
330
1
100
AcDbSymbolTableRecord
100
AcDbBlockTableRecord
  2
Block2
340
0
 70
     0
280
     1
281
     0
  0
ENDTAB
  0
ENDSEC
  0
SECTION
  2
BLOCKS
  0
BLOCK
  5
20
330
1F
100
AcDbEntity
  8
0
100
AcDbBlockBegin
  2
*Model_Space
 70
     0
 10
0.0
 20
0.0
 30
0.0
  3
*Model_Space
  1

  0
ENDBLK
  5
21
330
1F
100
AcDbEntity
  8
0
100
AcDbBlockEnd
  0
BLOCK
  5
1C
330
1B
100
AcDbEntity
 67
     1
  8
0
100
AcDbBlockBegin
  2
*Paper_Space
 70
     0
 10
0.0
 20
0.0
 30
0.0
  3
*Paper_Space
  1

  0
ENDBLK
  5
1D
330
1B
100
AcDbEntity
 67
     1
  8
0
100
AcDbBlockEnd
  0
BLOCK
  5
24
330
23
100
AcDbEntity
  8
0
100
AcDbBlockBegin
  2
*Paper_Space0
 70
     0
 10
0.0
 20
0.0
 30
0.0
  3
*Paper_Space0
  1

  0
ENDBLK
  5
25
330
23
100
AcDbEntity
  8
0
100
AcDbBlockEnd
  0
BLOCK
  5
79
330
78
100
AcDbEntity
  8
0
100
AcDbBlockBegin
  2
Block2
 70
     0
 10
0.0
 20
0.0
 30
0.0
  3
Block2
  1

  0
LINE
  5
7B
330
78
100
AcDbEntity
  8
0
  6
SLD-Durchgehend
 62
     7
370
    18
100
AcDbLine
 10
232.946671374
 20
51.7797156982
 30
0.0
 11
232.9472759882
 21
51.7797156982
 31
0.0
  0
LINE
  5
7C
330
78
100
AcDbEntity
  8
0
  6
SLD-Durchgehend
 62
     7
370
    18
100
AcDbLine
 10
233.6727459183
 20
55.2624953613
 30
0.0
 11
232.946671374
 21
55.2624953613
 31
0.0
  0
LINE
  5
7D
330
78
100
AcDbEntity
  8
0
  6
SLD-Durchgehend
 62
     7
370
    18
100
AcDbLine
 10
253.2143962099
 20
49.5548695882
 30
0.0
 11
253.2143962099
 21
52.1631754964
 31
0.0
  0
LINE
  5
7E
330
78
100
AcDbEntity
  8
0
  6
SLD-Durchgehend
 62
     7
370
    18
100
AcDbLine
 10
264.9174441429
 20
55.2308538818
 30
0.0
 11
264.9174441429
 21
49.5548695882
 31
0.0
  0
LINE
  5
7F
330
78
100
AcDbEntity
  8
0
  6
SLD-Durchgehend
 62
     7
370
    18
100
AcDbLine
 10
252.5518733421
 20
49.5548695882
 30
0.0
 11
253.2143962099
 21
49.5548695882
 31
0.0
  0
LINE
  5
80
330
78
100
AcDbEntity
  8
0
  6
SLD-Durchgehend
 62
     7
370
    18
100
AcDbLine
 10
249.836685069
 20
49.4456359456
 30
0.0
 11
249.841521983
 21
49.4456359456
 31
0.0
  0
LINE
  5
81
330
78
100
AcDbEntity
  8
0
  6
SLD-Durchgehend
 62
     7
370
    18
100
AcDbLine
 10
259.9476493024
 20
53.0527646077
 30
0.0
 11
259.9116411643
 21
53.1341188151
 31
0.0
  0
LINE
  5
82
330
78
100
AcDbEntity
  8
0
  6
SLD-Durchgehend
 62
     7
370
    18
100
AcDbLine
 10
267.7771352236
 20
49.5548695882
 30
0.0
 11
268.4404642438
 21
49.5548695882
 31
0.0
  0
LINE
  5
83
330
78
100
AcDbEntity
  8
0
  6
SLD-Durchgehend
 62
     7
370
    18
100
AcDbLine
 10
233.6739551468
 20
51.7216727295
 30
0.0
 11
233.6727459183
 21
51.7216727295
 31
0.0
  0
LINE
  5
84
330
78
100
AcDbEntity
  8
0
  6
SLD-Durchgehend
 62
     7
370
    18
100
AcDbLine
 10
265.579832652
 20
49.5548695882
 30
0.0
 11
265.579832652
 21
52.1637129313
 31
0.0
  0
LINE
  5
85
330
78
100
AcDbEntity
  8
0
  6
SLD-Durchgehend
 62
     7
370
    18
100
AcDbLine
 10
251.7394061383
 20
50.8797809652
 30
0.0
 11
251.7625830182
 21
50.954350057
 31
0.0
  0
LINE
  5
86
330
78
100
AcDbEntity
  8
0
  6
SLD-Durchgehend
 62
     7
370
    18
100
AcDbLine
 10
259.2890228375
 20
53.0527646077
 30
0.0
 11
259.9476493024
 21
53.0527646077
 31
0.0
  0
LINE
  5
87
330
78
100
AcDbEntity
  8
0
  6
SLD-Durchgehend
 62
     7
370
    18
100
AcDbLine
 10
233.6727459183
 20
51.7216727295
 30
0.0
 11
233.6727459183
 21
55.2624953613
 31
0.0
  0
LINE
  5
88
330
78
100
AcDbEntity
  8
0
  6
SLD-Durchgehend
 62
     7
370
    18
100
AcDbLine
 10
232.946671374
 20
55.2624953613
 30
0.0
 11
232.946671374
 21
51.7797156982
 31
0.0
  0
LINE
  5
89
330
78
100
AcDbEntity
  8
0
  6
SLD-Durchgehend
 62
     7
370
    18
100
AcDbLine
 10
276.3746954633
 20
50.0044338772
 30
0.0
 11
276.3746599345
 21
49.5548695882
 31
0.0
  0
LINE
  5
8A
330
78
100
AcDbEntity
  8
0
  6
SLD-Durchgehend
 62
     7
370
    18
100
AcDbLine
 10
267.7771352236
 20
52.4097237549
 30
0.0
 11
267.7771352236
 21
49.5548695882
 31
0.0
  0
LINE
  5
8B
330
78
100
AcDbEntity
  8
0
  6
SLD-Durchgehend
 62
     7
370
    18
100
AcDbLine
 10
279.6434249755
 20
53.6669183209
 30
0.0
 11
279.6434249755
 21
54.0432571068
 31
0.0
  0
LINE
  5
8C
330
78
100
AcDbEntity
  8
0
  6
SLD-Durchgehend
 62
     7
370
    18
100
AcDbLine
 10
255.4121690371
 20
49.5548695882
 30
0.0
 11
256.0747590843
 21
49.5548695882
 31
0.0
  0
LINE
  5
8D
330
78
100
AcDbEntity
  8
0
  6
SLD-Durchgehend
 62
     7
370
    18
100
AcDbLine
 10
240.2502572939
 20
49.4456359456
 30
0.0
 11
240.252138316
 21
49.4456359456
 31
0.0
  0
LINE
  5
8E
330
78
100
AcDbEntity
  8
0
  6
SLD-Durchgehend
 62
     7
370
    18
100
AcDbLine
 10
247.024825694
 20
51.7258378499
 30
0.0
 11
247.0260349225
 21
51.7258378499
 31
0.0
  0
LINE
  5
8F
330
78
100
AcDbEntity
  8
0
  6
SLD-Durchgehend
 62
     7
370
    18
100
AcDbLine
 10
253.2143962099
 20
54.0432571208
 30
0.0
 11
252.5518733421
 21
54.0432571208
 31
0.0
  0
LINE
  5
90
330
78
100
AcDbEntity
  8
0
  6
SLD-Durchgehend
 62
     7
370
    18
100
AcDbLine
 10
258.3740399274
 20
54.1393236084
 30
0.0
 11
258.3170718284
 21
54.1387861735
 31
0.0
  0
LINE
  5
91
330
78
100
AcDbEntity
  8
0
  6
SLD-Durchgehend
 62
     7
370
    18
100
AcDbLine
 10
278.710930268
 20
53.4717792044
 30
0.0
 11
276.3746954633
 21
50.0044338772
 31
0.0
  0
LINE
  5
92
330
78
100
AcDbEntity
  8
0
  6
SLD-Durchgehend
 62
     7
370
    18
100
AcDbLine
 10
263.7180238141
 20
52.978397054
 30
0.0
 11
264.4359024762
 21
52.9736944987
 31
0.0
  0
LINE
  5
93
330
78
100
AcDbEntity
  8
0
  6
SLD-Durchgehend
 62
     7
370
    18
100
AcDbLine
 10
279.6776899522
 20
50.1267003034
 30
0.0
 11
277.2619165934
 21
50.1267003034
 31
0.0
  0
LINE
  5
94
330
78
100
AcDbEntity
  8
0
  6
SLD-Durchgehend
 62
     7
370
    18
100
AcDbLine
 10
244.9913735862
 20
49.4456359456
 30
0.0
 11
244.9984945986
 21
49.4456359456
 31
0.0
  0
LINE
  5
95
330
78
100
AcDbEntity
  8
0
  6
SLD-Durchgehend
 62
     7
370
    18
100
AcDbLine
 10
279.6434249755
 20
54.0432571068
 30
0.0
 11
276.3750146496
 21
54.0432571068
 31
0.0
  0
LINE
  5
96
330
78
100
AcDbEntity
  8
0
  6
SLD-Durchgehend
 62
     7
370
    18
100
AcDbLine
 10
279.6774157734
 20
49.5548695882
 30
0.0
 11
279.6776899522
 21
50.1267003034
 31
0.0
  0
LINE
  5
97
330
78
100
AcDbEntity
  8
0
  6
SLD-Durchgehend
 62
     7
370
    18
100
AcDbLine
 10
264.4359024762
 20
52.9736944987
 30
0.0
 11
264.4000286969
 21
53.055586141
 31
0.0
  0
LINE
  5
98
330
78
100
AcDbEntity
  8
0
  6
SLD-Durchgehend
 62
     7
370
    18
100
AcDbLine
 10
277.2619165934
 20
50.1267003034
 30
0.0
 11
279.6434249755
 21
53.6669183209
 31
0.0
  0
LINE
  5
99
330
78
100
AcDbEntity
  8
0
  6
SLD-Durchgehend
 62
     7
370
    18
100
AcDbLine
 10
276.3746599345
 20
49.5548695882
 30
0.0
 11
279.6774157734
 21
49.5548695882
 31
0.0
  0
LINE
  5
9A
330
78
100
AcDbEntity
  8
0
  6
SLD-Durchgehend
 62
     7
370
    18
100
AcDbLine
 10
253.2143962099
 20
53.5326939697
 30
0.0
 11
253.2143962099
 21
54.0432571208
 31
0.0
  0
LINE
  5
9B
330
78
100
AcDbEntity
  8
0
  6
SLD-Durchgehend
 62
     7
370
    18
100
AcDbLine
 10
276.3749694859
 20
53.4717792044
 30
0.0
 11
276.3750146496
 21
54.0432571068
 31
0.0
  0
LINE
  5
9C
330
78
100
AcDbEntity
  8
0
  6
SLD-Durchgehend
 62
     7
370
    18
100
AcDbLine
 10
264.9174441429
 20
49.5548695882
 30
0.0
 11
265.579832652
 21
49.5548695882
 31
0.0
  0
LINE
  5
9D
330
78
100
AcDbEntity
  8
0
  6
SLD-Durchgehend
 62
     7
370
    18
100
AcDbLine
 10
264.4688203636
 20
50.7029648844
 30
0.0
 11
264.4999915875
 21
50.7819678141
 31
0.0
  0
LINE
  5
9E
330
78
100
AcDbEntity
  8
0
  6
SLD-Durchgehend
 62
     7
370
    18
100
AcDbLine
 10
276.3749694859
 20
53.4717792044
 30
0.0
 11
278.710930268
 21
53.4717792044
 31
0.0
  0
LINE
  5
9F
330
78
100
AcDbEntity
  8
0
  6
SLD-Durchgehend
 62
     7
370
    18
100
AcDbLine
 10
259.272227997
 20
53.0812486572
 30
0.0
 11
259.2890228375
 21
53.0527646077
 31
0.0
  0
LINE
  5
A0
330
78
100
AcDbEntity
  8
0
  6
SLD-Durchgehend
 62
     7
370
    18
100
AcDbLine
 10
251.8036296083
 20
51.7591588135
 30
0.0
 11
251.8015470481
 21
51.8196202393
 31
0.0
  0
LINE
  5
A1
330
78
100
AcDbEntity
  8
0
  6
SLD-Durchgehend
 62
     7
370
    18
100
AcDbLine
 10
256.0747590843
 20
49.5548695882
 30
0.0
 11
256.0747590843
 21
52.5733055013
 31
0.0
  0
LINE
  5
A2
330
78
100
AcDbEntity
  8
0
  6
SLD-Durchgehend
 62
     7
370
    18
100
AcDbLine
 10
274.3795206485
 20
53.4714263916
 30
0.0
 11
274.3795206485
 21
50.2778538818
 31
0.0
  0
LINE
  5
A3
330
78
100
AcDbEntity
  8
0
  6
SLD-Durchgehend
 62
     7
370
    18
100
AcDbLine
 10
275.0414733219
 20
55.2308538818
 30
0.0
 11
274.3795206485
 21
55.2308538818
 31
0.0
  0
LINE
  5
A4
330
78
100
AcDbEntity
  8
0
  6
SLD-Durchgehend
 62
     7
370
    18
100
AcDbLine
 10
275.0421778775
 20
53.4714263997
 30
0.0
 11
275.7691929911
 21
53.4714263997
 31
0.0
  0
LINE
  5
A5
330
78
100
AcDbEntity
  8
0
  6
SLD-Durchgehend
 62
     7
370
    18
100
AcDbLine
 10
249.8141799827
 20
50.071881958
 30
0.0
 11
249.8012143658
 21
50.0721506755
 31
0.0
  0
LINE
  5
A6
330
78
100
AcDbEntity
  8
0
  6
SLD-Durchgehend
 62
     7
370
    18
100
AcDbLine
 10
256.6612349143
 20
50.8026590576
 30
0.0
 11
256.684747691
 21
50.7275525309
 31
0.0
  0
LINE
  5
A7
330
78
100
AcDbEntity
  8
0
  6
SLD-Durchgehend
 62
     7
370
    18
100
AcDbLine
 10
247.0260349225
 20
51.7258378499
 30
0.0
 11
247.0260349225
 21
55.2308538818
 31
0.0
  0
LINE
  5
A8
330
78
100
AcDbEntity
  8
0
  6
SLD-Durchgehend
 62
     7
370
    18
100
AcDbLine
 10
255.4121690371
 20
52.40918632
 30
0.0
 11
255.4121690371
 21
49.5548695882
 31
0.0
  0
LINE
  5
A9
330
78
100
AcDbEntity
  8
0
  6
SLD-Durchgehend
 62
     7
370
    18
100
AcDbLine
 10
263.7743201194
 20
50.7822365316
 30
0.0
 11
263.7591375836
 21
50.7491842855
 31
0.0
  0
LINE
  5
AA
330
78
100
AcDbEntity
  8
0
  6
SLD-Durchgehend
 62
     7
370
    18
100
AcDbLine
 10
265.579832652
 20
53.5253714193
 30
0.0
 11
265.579832652
 21
55.2308538818
 31
0.0
  0
LINE
  5
AB
330
78
100
AcDbEntity
  8
0
  6
SLD-Durchgehend
 62
     7
370
    18
100
AcDbLine
 10
275.0421778775
 20
50.6422347493
 30
0.0
 11
275.0421778775
 21
53.4714263997
 31
0.0
  0
LINE
  5
AC
330
78
100
AcDbEntity
  8
0
  6
SLD-Durchgehend
 62
     7
370
    18
100
AcDbLine
 10
251.0529674176
 20
52.3307208252
 30
0.0
 11
248.4766388857
 21
52.3307208252
 31
0.0
  0
LINE
  5
AD
330
78
100
AcDbEntity
  8
0
  6
SLD-Durchgehend
 62
     7
370
    18
100
AcDbLine
 10
265.579832652
 20
55.2308538818
 30
0.0
 11
264.9174441429
 21
55.2308538818
 31
0.0
  0
LINE
  5
AE
330
78
100
AcDbEntity
  8
0
  6
SLD-Durchgehend
 62
     7
370
    18
100
AcDbLine
 10
264.4999915875
 20
50.7819678141
 30
0.0
 11
263.7743201194
 21
50.7822365316
 31
0.0
  0
LINE
  5
AF
330
78
100
AcDbEntity
  8
0
  6
SLD-Durchgehend
 62
     7
370
    18
100
AcDbLine
 10
275.7691929394
 20
49.5336409268
 30
0.0
 11
275.7691929394
 21
50.0978132087
 31
0.0
  0
LINE
  5
B0
330
78
100
AcDbEntity
  8
0
  6
SLD-Durchgehend
 62
     7
370
    18
100
AcDbLine
 10
274.3795206485
 20
55.2308538818
 30
0.0
 11
274.3795206485
 21
54.0429884033
 31
0.0
  0
LINE
  5
B1
330
78
100
AcDbEntity
  8
0
  6
SLD-Durchgehend
 62
     7
370
    18
100
AcDbLine
 10
274.3795206485
 20
54.0429884033
 30
0.0
 11
273.7919506049
 21
54.0429884033
 31
0.0
  0
LINE
  5
B2
330
78
100
AcDbEntity
  8
0
  6
SLD-Durchgehend
 62
     7
370
    18
100
AcDbLine
 10
275.0419489884
 20
54.0430117619
 30
0.0
 11
275.0414733219
 21
55.2308538818
 31
0.0
  0
LINE
  5
B3
330
78
100
AcDbEntity
  8
0
  6
SLD-Durchgehend
 62
     7
370
    18
100
AcDbLine
 10
246.3676771751
 20
55.2308538818
 30
0.0
 11
246.3676771751
 21
53.54109139
 31
0.0
  0
LINE
  5
B4
330
78
100
AcDbEntity
  8
0
  6
SLD-Durchgehend
 62
     7
370
    18
100
AcDbLine
 10
248.4676368512
 20
51.7591588135
 30
0.0
 11
251.8036296083
 21
51.7591588135
 31
0.0
  0
LINE
  5
B5
330
78
100
AcDbEntity
  8
0
  6
SLD-Durchgehend
 62
     7
370
    18
100
AcDbLine
 10
273.7919506049
 20
53.4714263916
 30
0.0
 11
274.3795206485
 21
53.4714263916
 31
0.0
  0
LINE
  5
B6
330
78
100
AcDbEntity
  8
0
  6
SLD-Durchgehend
 62
     7
370
    18
100
AcDbLine
 10
273.7919506049
 20
54.0429884033
 30
0.0
 11
273.7919506049
 21
53.4714263916
 31
0.0
  0
LINE
  5
B7
330
78
100
AcDbEntity
  8
0
  6
SLD-Durchgehend
 62
     7
370
    18
100
AcDbLine
 10
251.0299248964
 20
50.954350057
 30
0.0
 11
251.0163546653
 21
50.9159234619
 31
0.0
  0
LINE
  5
B8
330
78
100
AcDbEntity
  8
0
  6
SLD-Durchgehend
 62
     7
370
    18
100
AcDbLine
 10
275.7691929911
 20
53.4714263997
 30
0.0
 11
275.7689641251
 21
54.0429543063
 31
0.0
  0
LINE
  5
B9
330
78
100
AcDbEntity
  8
0
  6
SLD-Durchgehend
 62
     7
370
    18
100
AcDbLine
 10
252.5518733421
 20
54.0432571208
 30
0.0
 11
252.5518733421
 21
49.5548695882
 31
0.0
  0
LINE
  5
BA
330
78
100
AcDbEntity
  8
0
  6
SLD-Durchgehend
 62
     7
370
    18
100
AcDbLine
 10
268.4404642438
 20
49.5548695882
 30
0.0
 11
268.4404642438
 21
52.5733055013
 31
0.0
  0
LINE
  5
BB
330
78
100
AcDbEntity
  8
0
  6
SLD-Durchgehend
 62
     7
370
    18
100
AcDbLine
 10
275.7689641251
 20
54.0429543063
 30
0.0
 11
275.0419489884
 21
54.0430117619
 31
0.0
  0
LINE
  5
BC
330
78
100
AcDbEntity
  8
0
  6
SLD-Durchgehend
 62
     7
370
    18
100
AcDbLine
 10
263.7028412783
 20
53.0121882731
 30
0.0
 11
263.7180238141
 21
52.978397054
 31
0.0
  0
LINE
  5
BD
330
78
100
AcDbEntity
  8
0
  6
SLD-Durchgehend
 62
     7
370
    18
100
AcDbLine
 10
258.3170718284
 20
54.1387861735
 30
0.0
 11
258.3170718284
 21
54.1375097656
 31
0.0
  0
LINE
  5
BE
330
78
100
AcDbEntity
  8
0
  6
SLD-Durchgehend
 62
     7
370
    18
100
AcDbLine
 10
257.3349095563
 20
50.8026590576
 30
0.0
 11
256.6612349143
 21
50.8026590576
 31
0.0
  0
LINE
  5
BF
330
78
100
AcDbEntity
  8
0
  6
SLD-Durchgehend
 62
     7
370
    18
100
AcDbLine
 10
257.3465987652
 20
50.7604704183
 30
0.0
 11
257.3349095563
 21
50.8026590576
 31
0.0
  0
LINE
  5
C0
330
78
100
AcDbEntity
  8
0
  6
SLD-Durchgehend
 62
     7
370
    18
100
AcDbLine
 10
271.1938845969
 20
49.4456359307
 30
0.0
 11
271.1949594667
 21
49.4456359307
 31
0.0
  0
LINE
  5
C1
330
78
100
AcDbEntity
  8
0
  6
SLD-Durchgehend
 62
     7
370
    18
100
AcDbLine
 10
262.5728844098
 20
49.4456359456
 30
0.0
 11
262.5853797711
 21
49.4456359456
 31
0.0
  0
LINE
  5
C2
330
78
100
AcDbEntity
  8
0
  6
SLD-Durchgehend
 62
     7
370
    18
100
AcDbLine
 10
247.0260349225
 20
55.2308538818
 30
0.0
 11
246.3676771751
 21
55.2308538818
 31
0.0
  0
LINE
  5
C3
330
78
100
AcDbEntity
  8
0
  6
SLD-Durchgehend
 62
     7
370
    18
100
AcDbLine
 10
258.3976870628
 20
49.4356934001
 30
0.0
 11
258.4476685081
 21
49.436230835
 31
0.0
  0
LINE
  5
C4
330
78
100
AcDbEntity
  8
0
  6
SLD-Durchgehend
 62
     7
370
    18
100
AcDbLine
 10
248.4677712099
 20
51.6989661051
 30
0.0
 11
248.4676368512
 21
51.7591588135
 31
0.0
  0
LINE
  5
C5
330
78
100
AcDbEntity
  8
0
  6
SLD-Durchgehend
 62
     7
370
    18
100
AcDbLine
 10
251.7625830182
 20
50.954350057
 30
0.0
 11
251.0299248964
 21
50.954350057
 31
0.0
  0
LINE
  5
C6
330
78
100
AcDbEntity
  8
0
  6
SLD-Durchgehend
 62
     7
370
    18
100
AcDbLine
 10
272.5521168952
 20
54.0432571195
 30
0.0
 11
272.5521168952
 21
53.6264091784
 31
0.0
  0
LINE
  5
C7
330
78
100
AcDbEntity
  8
0
  6
SLD-Durchgehend
 62
     7
370
    18
100
AcDbLine
 10
269.7885180068
 20
51.7991976678
 30
0.0
 11
269.7882492894
 21
51.7991976678
 31
0.0
  0
LINE
  5
C8
330
78
100
AcDbEntity
  8
0
  6
SLD-Durchgehend
 62
     7
370
    18
100
AcDbLine
 10
272.6762643972
 20
49.5548695882
 30
0.0
 11
273.2284787527
 21
49.5548695882
 31
0.0
  0
LINE
  5
C9
330
78
100
AcDbEntity
  8
0
  6
SLD-Durchgehend
 62
     7
370
    18
100
AcDbLine
 10
272.5890655808
 20
50.0075241284
 30
0.0
 11
272.6762643972
 21
49.5548695882
 31
0.0
  0
LINE
  5
CA
330
78
100
AcDbEntity
  8
0
  6
SLD-Durchgehend
 62
     7
370
    18
100
AcDbLine
 10
273.2284787527
 20
49.5548695882
 30
0.0
 11
273.2284787527
 21
54.0432571195
 31
0.0
  0
LINE
  5
CB
330
78
100
AcDbEntity
  8
0
  6
SLD-Durchgehend
 62
     7
370
    18
100
AcDbLine
 10
272.5521168952
 20
54.0432571195
 30
0.0
 11
273.2284787527
 21
54.0432571195
 31
0.0
  0
SPLINE
  5
CC
330
78
100
AcDbEntity
  8
0
  6
SLD-Durchgehend
 62
     8
420
  8421504
370
     0
100
AcDbSpline
210
0.0
220
0.0
230
1.0
 70
     8
 71
     3
 72
     8
 73
     4
 74
     0
 42
0.00000001
 43
0.00000001
 40
23.0
 40
23.0
 40
23.0
 40
23.0
 40
24.0
 40
24.0
 40
24.0
 40
24.0
 10
260.0939659527489
 20
50.82039440917971
 30
0.0
 10
260.0961156923323
 20
51.7381988525391
 30
0.0
 10
259.4008092958479
 20
51.98891223144533
 30
0.0
 10
258.7550812685041
 20
52.13281042480472
 30
0.0
  0
SPLINE
  5
CD
330
78
100
AcDbEntity
  8
0
  6
SLD-Durchgehend
 62
     8
420
  8421504
370
     0
100
AcDbSpline
210
0.0
220
0.0
230
1.0
 70
     8
 71
     3
 72
     8
 73
     4
 74
     0
 42
0.00000001
 43
0.00000001
 40
3.0
 40
3.0
 40
3.0
 40
3.0
 40
4.0
 40
4.0
 40
4.0
 40
4.0
 10
246.363243337189
 20
51.79919771321618
 30
0.0
 10
246.3701628114729
 20
50.59198457845055
 30
0.0
 10
245.7664218853661
 20
50.07403169759117
 30
0.0
 10
244.9913735862125
 20
50.07188195800784
 30
0.0
  0
SPLINE
  5
CE
330
78
100
AcDbEntity
  8
0
  6
SLD-Durchgehend
 62
     8
420
  8421504
370
     0
100
AcDbSpline
210
0.0
220
0.0
230
1.0
 70
     8
 71
     3
 72
     8
 73
     4
 74
     0
 42
0.00000001
 43
0.00000001
 40
1.0
 40
1.0
 40
1.0
 40
1.0
 40
2.0
 40
2.0
 40
2.0
 40
2.0
 10
249.7665498150536
 20
54.15289383951826
 30
0.0
 10
249.2061395774234
 20
54.15289383951826
 30
0.0
 10
248.694904632762
 20
53.94645166015629
 30
0.0
 10
248.3258883974104
 20
53.54626420084637
 30
0.0
  0
SPLINE
  5
CF
330
78
100
AcDbEntity
  8
0
  6
SLD-Durchgehend
 62
     8
420
  8421504
370
     0
100
AcDbSpline
210
0.0
220
0.0
230
1.0
 70
     8
 71
     3
 72
     8
 73
     4
 74
     0
 42
0.00000001
 43
0.00000001
 40
5.0
 40
5.0
 40
5.0
 40
5.0
 40
6.0
 40
6.0
 40
6.0
 40
6.0
 10
232.9472759882492
 20
51.77971569824223
 30
0.0
 10
232.9535908482752
 20
50.25501289876306
 30
0.0
 10
233.8585640334966
 20
49.43676826985681
 30
0.0
 10
234.9778393834315
 20
49.43676826985681
 30
0.0
  0
SPLINE
  5
D0
330
78
100
AcDbEntity
  8
0
  6
SLD-Durchgehend
 62
     8
420
  8421504
370
     0
100
AcDbSpline
210
0.0
220
0.0
230
1.0
 70
     8
 71
     3
 72
     8
 73
     4
 74
     0
 42
0.00000001
 43
0.00000001
 40
12.0
 40
12.0
 40
12.0
 40
12.0
 40
13.0
 40
13.0
 40
13.0
 40
13.0
 10
268.0578105979312
 20
53.71165979003909
 30
0.0
 10
267.7943331402489
 20
53.99354439290368
 30
0.0
 10
267.3903164573062
 20
54.15289383951826
 30
0.0
 10
266.842804657176
 20
54.15289383951826
 30
0.0
  0
SPLINE
  5
D1
330
78
100
AcDbEntity
  8
0
  6
SLD-Durchgehend
 62
     8
420
  8421504
370
     0
100
AcDbSpline
210
0.0
220
0.0
230
1.0
 70
     8
 71
     3
 72
     8
 73
     4
 74
     0
 42
0.00000001
 43
0.00000001
 40
9.0
 40
9.0
 40
9.0
 40
9.0
 40
10.0
 40
10.0
 40
10.0
 40
10.0
 10
260.5381558941552
 20
51.799735148112
 30
0.0
 10
260.5538758648583
 20
50.3993141682943
 30
0.0
 10
261.4438680523583
 20
49.44469543457033
 30
0.0
 10
262.5728844097802
 20
49.44563594563805
 30
0.0
  0
SPLINE
  5
D2
330
78
100
AcDbEntity
  8
0
  6
SLD-Durchgehend
 62
     8
420
  8421504
370
     0
100
AcDbSpline
210
0.0
220
0.0
230
1.0
 70
     8
 71
     3
 72
     8
 73
     4
 74
     0
 42
0.00000001
 43
0.00000001
 40
3.0
 40
3.0
 40
3.0
 40
3.0
 40
4.0
 40
4.0
 40
4.0
 40
4.0
 10
242.9563763531395
 20
51.79919771321618
 30
0.0
 10
242.9563763531395
 20
51.04101143391929
 30
0.0
 10
243.1810913189599
 20
50.45144535319012
 30
0.0
 10
243.5503762717593
 20
50.05172814941409
 30
0.0
  0
SPLINE
  5
D3
330
78
100
AcDbEntity
  8
0
  6
SLD-Durchgehend
 62
     8
420
  8421504
370
     0
100
AcDbSpline
210
0.0
220
0.0
230
1.0
 70
     8
 71
     3
 72
     8
 73
     4
 74
     0
 42
0.00000001
 43
0.00000001
 40
0.0
 40
0.0
 40
0.0
 40
0.0
 40
1.0
 40
1.0
 40
1.0
 40
1.0
 10
246.3676771750796
 20
53.54109138997399
 30
0.0
 10
246.0469629009911
 20
53.931269124349
 30
0.0
 10
245.5208141379703
 20
54.15289383951826
 30
0.0
 10
244.9913735862125
 20
54.15289383951826
 30
0.0
  0
SPLINE
  5
D4
330
78
100
AcDbEntity
  8
0
  6
SLD-Durchgehend
 62
     8
420
  8421504
370
     0
100
AcDbSpline
210
0.0
220
0.0
230
1.0
 70
     8
 71
     3
 72
    11
 73
     7
 74
     0
 42
0.00000001
 43
0.00000001
 40
1.0
 40
1.0
 40
1.0
 40
1.0
 40
2.0
 40
2.0
 40
2.0
 40
3.0
 40
3.0
 40
3.0
 40
3.0
 10
235.7273595250331
 20
53.54102421061203
 30
0.0
 10
236.3061097284836
 20
53.32248974609381
 30
0.0
 10
236.7050879592778
 20
52.70645499674485
 30
0.0
 10
236.7050879592778
 20
51.7957043863933
 30
0.0
 10
236.7050879592778
 20
50.87816866048182
 30
0.0
 10
236.3067815221034
 20
50.26656774902347
 30
0.0
 10
235.7287031122727
 20
50.04930969238286
 30
0.0
  0
SPLINE
  5
D5
330
78
100
AcDbEntity
  8
0
  6
SLD-Durchgehend
 62
     8
420
  8421504
370
     0
100
AcDbSpline
210
0.0
220
0.0
230
1.0
 70
     8
 71
     3
 72
     8
 73
     4
 74
     0
 42
0.00000001
 43
0.00000001
 40
1.0
 40
1.0
 40
1.0
 40
1.0
 40
2.0
 40
2.0
 40
2.0
 40
2.0
 10
249.7665498150536
 20
53.52637910970056
 30
0.0
 10
250.6097851666161
 20
53.52456526692713
 30
0.0
 10
250.922908172801
 20
52.93708174641929
 30
0.0
 10
251.0529674175927
 20
52.33072082519535
 30
0.0
  0
SPLINE
  5
D6
330
78
100
AcDbEntity
  8
0
  6
SLD-Durchgehend
 62
     8
420
  8421504
370
     0
100
AcDbSpline
210
0.0
220
0.0
230
1.0
 70
     8
 71
     3
 72
     8
 73
     4
 74
     0
 42
0.00000001
 43
0.00000001
 40
6.0
 40
6.0
 40
6.0
 40
6.0
 40
7.0
 40
7.0
 40
7.0
 40
7.0
 10
234.9778393834315
 20
49.43676826985681
 30
0.0
 10
235.0608058954758
 20
49.43676826985681
 30
0.0
 10
235.14377240752
 20
49.43985852050785
 30
0.0
 10
235.2267389195643
 20
49.44563594563805
 30
0.0
  0
SPLINE
  5
D7
330
78
100
AcDbEntity
  8
0
  6
SLD-Durchgehend
 62
     8
420
  8421504
370
     0
100
AcDbSpline
210
0.0
220
0.0
230
1.0
 70
     8
 71
     3
 72
     8
 73
     4
 74
     0
 42
0.00000001
 43
0.00000001
 40
6.0
 40
6.0
 40
6.0
 40
6.0
 40
7.0
 40
7.0
 40
7.0
 40
7.0
 10
241.6913217877099
 20
50.05172814941409
 30
0.0
 10
242.0604723817854
 20
50.45144535319012
 30
0.0
 10
242.2852545269677
 20
51.04101143391929
 30
0.0
 10
242.2852545269677
 20
51.79919771321618
 30
0.0
  0
SPLINE
  5
D8
330
78
100
AcDbEntity
  8
0
  6
SLD-Durchgehend
 62
     8
420
  8421504
370
     0
100
AcDbSpline
210
0.0
220
0.0
230
1.0
 70
     8
 71
     3
 72
     8
 73
     4
 74
     0
 42
0.00000001
 43
0.00000001
 40
5.0
 40
5.0
 40
5.0
 40
5.0
 40
6.0
 40
6.0
 40
6.0
 40
6.0
 10
237.4308937861008
 20
51.79570438639327
 30
0.0
 10
237.4271317418299
 20
52.92707202148441
 30
0.0
 10
236.8167400588872
 20
53.57031441243492
 30
0.0
 10
236.0195897496424
 20
53.57185953776045
 30
0.0
  0
SPLINE
  5
D9
330
78
100
AcDbEntity
  8
0
  6
SLD-Durchgehend
 62
     8
420
  8421504
370
     0
100
AcDbSpline
210
0.0
220
0.0
230
1.0
 70
     8
 71
     3
 72
     8
 73
     4
 74
     0
 42
0.00000001
 43
0.00000001
 40
3.0
 40
3.0
 40
3.0
 40
3.0
 40
4.0
 40
4.0
 40
4.0
 40
4.0
 10
235.7287031122727
 20
50.04930969238285
 30
0.0
 10
235.8220824254237
 20
50.029424601237
 30
0.0
 10
235.9193581415695
 20
50.01948205566409
 30
0.0
 10
236.0195897496424
 20
50.01907897949221
 30
0.0
  0
SPLINE
  5
DA
330
78
100
AcDbEntity
  8
0
  6
SLD-Durchgehend
 62
     8
420
  8421504
370
     0
100
AcDbSpline
210
0.0
220
0.0
230
1.0
 70
     8
 71
     3
 72
     8
 73
     4
 74
     0
 42
0.00000001
 43
0.00000001
 40
3.0
 40
3.0
 40
3.0
 40
3.0
 40
4.0
 40
4.0
 40
4.0
 40
4.0
 10
258.3858634950666
 20
53.56460416666669
 30
0.0
 10
258.8105714214989
 20
53.56124519856773
 30
0.0
 10
259.0927247418114
 20
53.38248091634117
 30
0.0
 10
259.2722279970197
 20
53.08124865722658
 30
0.0
  0
SPLINE
  5
DB
330
78
100
AcDbEntity
  8
0
  6
SLD-Durchgehend
 62
     8
420
  8421504
370
     0
100
AcDbSpline
210
0.0
220
0.0
230
1.0
 70
     8
 71
     3
 72
     8
 73
     4
 74
     0
 42
0.00000001
 43
0.00000001
 40
0.0
 40
0.0
 40
0.0
 40
0.0
 40
1.0
 40
1.0
 40
1.0
 40
1.0
 10
254.4773682151187
 20
54.1524235839844
 30
0.0
 10
254.0052316591292
 20
54.15369999186201
 30
0.0
 10
253.5150910341292
 20
53.98333312988284
 30
0.0
 10
253.2143962099104
 20
53.53269396972657
 30
0.0
  0
SPLINE
  5
DC
330
78
100
AcDbEntity
  8
0
  6
SLD-Durchgehend
 62
     8
420
  8421504
370
     0
100
AcDbSpline
210
0.0
220
0.0
230
1.0
 70
     8
 71
     3
 72
     8
 73
     4
 74
     0
 42
0.00000001
 43
0.00000001
 40
4.0
 40
4.0
 40
4.0
 40
4.0
 40
5.0
 40
5.0
 40
5.0
 40
5.0
 10
236.0195897496424
 20
50.01907897949221
 30
0.0
 10
236.8172103144211
 20
50.02109436035159
 30
0.0
 10
237.4267286656581
 20
50.65526753743492
 30
0.0
 10
237.4308937861008
 20
51.79570438639327
 30
0.0
  0
SPLINE
  5
DD
330
78
100
AcDbEntity
  8
0
  6
SLD-Durchgehend
 62
     8
420
  8421504
370
     0
100
AcDbSpline
210
0.0
220
0.0
230
1.0
 70
     8
 71
     3
 72
     8
 73
     4
 74
     0
 42
0.00000001
 43
0.00000001
 40
13.0
 40
13.0
 40
13.0
 40
13.0
 40
14.0
 40
14.0
 40
14.0
 40
14.0
 10
258.1843254091291
 20
51.63823596191408
 30
0.0
 10
258.5088017274885
 20
51.5730719807943
 30
0.0
 10
258.8295160015771
 20
51.52094079589845
 30
0.0
 10
259.0598068544416
 20
51.40996048990888
 30
0.0
  0
SPLINE
  5
DE
330
78
100
AcDbEntity
  8
0
  6
SLD-Durchgehend
 62
     8
420
  8421504
370
     0
100
AcDbSpline
210
0.0
220
0.0
230
1.0
 70
     8
 71
     3
 72
     8
 73
     4
 74
     0
 42
0.00000001
 43
0.00000001
 40
11.0
 40
11.0
 40
11.0
 40
11.0
 40
12.0
 40
12.0
 40
12.0
 40
12.0
 10
256.0747590842593
 20
52.5733055013021
 30
0.0
 10
256.0747590842593
 20
53.03361848958336
 30
0.0
 10
255.9559859722802
 20
53.43037980143232
 30
0.0
 10
255.6924413352359
 20
53.71165979003909
 30
0.0
  0
SPLINE
  5
DF
330
78
100
AcDbEntity
  8
0
  6
SLD-Durchgehend
 62
     8
420
  8421504
370
     0
100
AcDbSpline
210
0.0
220
0.0
230
1.0
 70
     8
 71
     3
 72
     8
 73
     4
 74
     0
 42
0.00000001
 43
0.00000001
 40
0.0
 40
0.0
 40
0.0
 40
0.0
 40
1.0
 40
1.0
 40
1.0
 40
1.0
 10
248.4766388856916
 20
52.33072082519535
 30
0.0
 10
248.5873504742333
 20
53.00748571777345
 30
0.0
 10
249.0482008974104
 20
53.52537141927086
 30
0.0
 10
249.7665498150536
 20
53.52637910970056
 30
0.0
  0
SPLINE
  5
E0
330
78
100
AcDbEntity
  8
0
  6
SLD-Durchgehend
 62
     8
420
  8421504
370
     0
100
AcDbSpline
210
0.0
220
0.0
230
1.0
 70
     8
 71
     3
 72
     8
 73
     4
 74
     0
 42
0.00000001
 43
0.00000001
 40
14.0
 40
14.0
 40
14.0
 40
14.0
 40
15.0
 40
15.0
 40
15.0
 40
15.0
 10
259.0598068544416
 20
51.40996048990888
 30
0.0
 10
259.2900977073062
 20
51.29615865071617
 30
0.0
 10
259.4282184755354
 20
51.14339278157556
 30
0.0
 10
259.4309056500146
 20
50.83866719563805
 30
0.0
  0
SPLINE
  5
E1
330
78
100
AcDbEntity
  8
0
  6
SLD-Durchgehend
 62
     8
420
  8421504
370
     0
100
AcDbSpline
210
0.0
220
0.0
230
1.0
 70
     8
 71
     3
 72
     8
 73
     4
 74
     0
 42
0.00000001
 43
0.00000001
 40
7.0
 40
7.0
 40
7.0
 40
7.0
 40
8.0
 40
8.0
 40
8.0
 40
8.0
 10
235.2267389195643
 20
49.44563594563805
 30
0.0
 10
234.3484359410487
 20
49.66813399251304
 30
0.0
 10
233.6945792109055
 20
50.4570884195964
 30
0.0
 10
233.6739551467778
 20
51.72167272949222
 30
0.0
  0
SPLINE
  5
E2
330
78
100
AcDbEntity
  8
0
  6
SLD-Durchgehend
 62
     8
420
  8421504
370
     0
100
AcDbSpline
210
0.0
220
0.0
230
1.0
 70
     8
 71
     3
 72
     8
 73
     4
 74
     0
 42
0.00000001
 43
0.00000001
 40
7.0
 40
7.0
 40
7.0
 40
7.0
 40
8.0
 40
8.0
 40
8.0
 40
8.0
 10
242.2852545269677
 20
51.79919771321618
 30
0.0
 10
242.2852545269677
 20
52.55704809570316
 30
0.0
 10
242.0604723817854
 20
53.14695007324222
 30
0.0
 10
241.6913217877099
 20
53.54626420084637
 30
0.0
  0
SPLINE
  5
E3
330
78
100
AcDbEntity
  8
0
  6
SLD-Durchgehend
 62
     8
420
  8421504
370
     0
100
AcDbSpline
210
0.0
220
0.0
230
1.0
 70
     8
 71
     3
 72
     8
 73
     4
 74
     0
 42
0.00000001
 43
0.00000001
 40
0.0
 40
0.0
 40
0.0
 40
0.0
 40
1.0
 40
1.0
 40
1.0
 40
1.0
 10
236.0195897496424
 20
53.57185953776045
 30
0.0
 10
235.9188207066737
 20
53.57159082031254
 30
0.0
 10
235.8212090937179
 20
53.56117801920577
 30
0.0
 10
235.7273595250331
 20
53.54102421061203
 30
0.0
  0
SPLINE
  5
E4
330
78
100
AcDbEntity
  8
0
  6
SLD-Durchgehend
 62
     8
420
  8421504
370
     0
100
AcDbSpline
210
0.0
220
0.0
230
1.0
 70
     8
 71
     3
 72
     8
 73
     4
 74
     0
 42
0.00000001
 43
0.00000001
 40
12.0
 40
12.0
 40
12.0
 40
12.0
 40
13.0
 40
13.0
 40
13.0
 40
13.0
 10
251.016354665314
 20
50.9159234619141
 30
0.0
 10
250.8335596213687
 20
50.40294185384116
 30
0.0
 10
250.4579598085432
 20
50.0826306559245
 30
0.0
 10
249.8141799826968
 20
50.07188195800784
 30
0.0
  0
SPLINE
  5
E5
330
78
100
AcDbEntity
  8
0
  6
SLD-Durchgehend
 62
     8
420
  8421504
370
     0
100
AcDbSpline
210
0.0
220
0.0
230
1.0
 70
     8
 71
     3
 72
     8
 73
     4
 74
     0
 42
0.00000001
 43
0.00000001
 40
21.0
 40
21.0
 40
21.0
 40
21.0
 40
22.0
 40
22.0
 40
22.0
 40
22.0
 10
274.6302340347482
 20
49.67283655090634
 30
0.0
 10
274.7848809273797
 20
49.56158752935308
 30
0.0
 10
274.9834631217241
 20
49.53417835208514
 30
0.0
 10
275.1847324902169
 20
49.53390963708953
 30
0.0
  0
SPLINE
  5
E6
330
78
100
AcDbEntity
  8
0
  6
SLD-Durchgehend
 62
     8
420
  8421504
370
     0
100
AcDbSpline
210
0.0
220
0.0
230
1.0
 70
     8
 71
     3
 72
     8
 73
     4
 74
     0
 42
0.00000001
 43
0.00000001
 40
6.0
 40
6.0
 40
6.0
 40
6.0
 40
7.0
 40
7.0
 40
7.0
 40
7.0
 10
244.9984945985823
 20
49.44563594563805
 30
0.0
 10
245.9458579612125
 20
49.44563594563805
 30
0.0
 10
246.7583251649885
 20
50.01303283691409
 30
0.0
 10
246.9688652854312
 20
51.13371895345053
 30
0.0
  0
SPLINE
  5
E7
330
78
100
AcDbEntity
  8
0
  6
SLD-Durchgehend
 62
     8
420
  8421504
370
     0
100
AcDbSpline
210
0.0
220
0.0
230
1.0
 70
     8
 71
     3
 72
     8
 73
     4
 74
     0
 42
0.00000001
 43
0.00000001
 40
7.0
 40
7.0
 40
7.0
 40
7.0
 40
8.0
 40
8.0
 40
8.0
 40
8.0
 10
264.4000286968895
 20
53.05558614095054
 30
0.0
 10
263.9996396994937
 20
53.97654801432294
 30
0.0
 10
263.2563672385562
 20
54.15558101399741
 30
0.0
 10
262.6999877626448
 20
54.1524235839844
 30
0.0
  0
SPLINE
  5
E8
330
78
100
AcDbEntity
  8
0
  6
SLD-Durchgehend
 62
     8
420
  8421504
370
     0
100
AcDbSpline
210
0.0
220
0.0
230
1.0
 70
     8
 71
     3
 72
     8
 73
     4
 74
     0
 42
0.00000001
 43
0.00000001
 40
3.0
 40
3.0
 40
3.0
 40
3.0
 40
4.0
 40
4.0
 40
4.0
 40
4.0
 10
262.6275684104312
 20
53.52637910970056
 30
0.0
 10
263.1397438661604
 20
53.52456526692713
 30
0.0
 10
263.5299216005354
 20
53.37381477864585
 30
0.0
 10
263.7028412782698
 20
53.01218827311202
 30
0.0
  0
SPLINE
  5
E9
330
78
100
AcDbEntity
  8
0
  6
SLD-Durchgehend
 62
     8
420
  8421504
370
     0
100
AcDbSpline
210
0.0
220
0.0
230
1.0
 70
     8
 71
     3
 72
     8
 73
     4
 74
     0
 42
0.00000001
 43
0.00000001
 40
20.0
 40
20.0
 40
20.0
 40
20.0
 40
21.0
 40
21.0
 40
21.0
 40
21.0
 10
256.6847476910302
 20
50.7275525309245
 30
0.0
 10
256.9378795269677
 20
49.9117263590495
 30
0.0
 10
257.6850483909
 20
49.45960925292972
 30
0.0
 10
258.397687062775
 20
49.43569340006511
 30
0.0
  0
SPLINE
  5
EA
330
78
100
AcDbEntity
  8
0
  6
SLD-Durchgehend
 62
     8
420
  8421504
370
     0
100
AcDbSpline
210
0.0
220
0.0
230
1.0
 70
     8
 71
     3
 72
     8
 73
     4
 74
     0
 42
0.00000001
 43
0.00000001
 40
0.0
 40
0.0
 40
0.0
 40
0.0
 40
1.0
 40
1.0
 40
1.0
 40
1.0
 10
251.8015470481265
 20
51.81962023925784
 30
0.0
 10
251.7605004579573
 20
53.12733369954429
 30
0.0
 10
251.0964324647933
 20
54.1553122965495
 30
0.0
 10
249.7665498150536
 20
54.15289383951826
 30
0.0
  0
SPLINE
  5
EB
330
78
100
AcDbEntity
  8
0
  6
SLD-Durchgehend
 62
     8
420
  8421504
370
     0
100
AcDbSpline
210
0.0
220
0.0
230
1.0
 70
     8
 71
     3
 72
     8
 73
     4
 74
     0
 42
0.00000001
 43
0.00000001
 40
12.0
 40
12.0
 40
12.0
 40
12.0
 40
13.0
 40
13.0
 40
13.0
 40
13.0
 10
256.8442314963687
 20
52.87897159830732
 30
0.0
 10
256.8418130393375
 20
51.96848970540368
 30
0.0
 10
257.5411501975406
 20
51.76144291178387
 30
0.0
 10
258.1843254091291
 20
51.63823596191408
 30
0.0
  0
SPLINE
  5
EC
330
78
100
AcDbEntity
  8
0
  6
SLD-Durchgehend
 62
     8
420
  8421504
370
     0
100
AcDbSpline
210
0.0
220
0.0
230
1.0
 70
     8
 71
     3
 72
     8
 73
     4
 74
     0
 42
0.00000001
 43
0.00000001
 40
15.0
 40
15.0
 40
15.0
 40
15.0
 40
16.0
 40
16.0
 40
16.0
 40
16.0
 10
259.4309056500146
 20
50.83866719563805
 30
0.0
 10
259.4306369325666
 20
50.17480074055992
 30
0.0
 10
258.8938738303531
 20
50.022975382487
 30
0.0
 10
258.4449813336083
 20
50.00443387858074
 30
0.0
  0
SPLINE
  5
ED
330
78
100
AcDbEntity
  8
0
  6
SLD-Durchgehend
 62
     8
420
  8421504
370
     0
100
AcDbSpline
210
0.0
220
0.0
230
1.0
 70
     8
 71
     3
 72
     8
 73
     4
 74
     0
 42
0.00000001
 43
0.00000001
 40
6.0
 40
6.0
 40
6.0
 40
6.0
 40
7.0
 40
7.0
 40
7.0
 40
7.0
 10
249.8010128277489
 20
49.44644209798179
 30
0.0
 10
249.8100148622541
 20
49.44644209798179
 30
0.0
 10
249.8223086854963
 20
49.44563594563805
 30
0.0
 10
249.8366850689599
 20
49.44563594563805
 30
0.0
  0
SPLINE
  5
EE
330
78
100
AcDbEntity
  8
0
  6
SLD-Durchgehend
 62
     8
420
  8421504
370
     0
100
AcDbSpline
210
0.0
220
0.0
230
1.0
 70
     8
 71
     3
 72
     8
 73
     4
 74
     0
 42
0.00000001
 43
0.00000001
 40
2.0
 40
2.0
 40
2.0
 40
2.0
 40
3.0
 40
3.0
 40
3.0
 40
3.0
 10
261.2008131207177
 20
51.79919771321618
 30
0.0
 10
261.2039033713687
 20
52.97658321126303
 30
0.0
 10
261.9115707704573
 20
53.52355757649742
 30
0.0
 10
262.6275684104312
 20
53.52637910970056
 30
0.0
  0
SPLINE
  5
EF
330
78
100
AcDbEntity
  8
0
  6
SLD-Durchgehend
 62
     8
420
  8421504
370
     0
100
AcDbSpline
210
0.0
220
0.0
230
1.0
 70
     8
 71
     3
 72
     8
 73
     4
 74
     0
 42
0.00000001
 43
0.00000001
 40
1.0
 40
1.0
 40
1.0
 40
1.0
 40
2.0
 40
2.0
 40
2.0
 40
2.0
 10
257.8763752138166
 20
52.36605716959637
 30
0.0
 10
257.6433971864729
 20
52.47173030598961
 30
0.0
 10
257.5089041037905
 20
52.6036705729167
 30
0.0
 10
257.5067543642073
 20
52.86090034993494
 30
0.0
  0
SPLINE
  5
F0
330
78
100
AcDbEntity
  8
0
  6
SLD-Durchgehend
 62
     8
420
  8421504
370
     0
100
AcDbSpline
210
0.0
220
0.0
230
1.0
 70
     8
 71
     3
 72
     8
 73
     4
 74
     0
 42
0.00000001
 43
0.00000001
 40
7.0
 40
7.0
 40
7.0
 40
7.0
 40
8.0
 40
8.0
 40
8.0
 40
8.0
 10
254.4043442486473
 20
53.52637910970056
 30
0.0
 10
255.0787578635562
 20
53.51542887369794
 30
0.0
 10
255.4008829042463
 20
53.27620316569013
 30
0.0
 10
255.4121690370588
 20
52.409186319987
 30
0.0
  0
SPLINE
  5
F1
330
78
100
AcDbEntity
  8
0
  6
SLD-Durchgehend
 62
     8
420
  8421504
370
     0
100
AcDbSpline
210
0.0
220
0.0
230
1.0
 70
     8
 71
     3
 72
     8
 73
     4
 74
     0
 42
0.00000001
 43
0.00000001
 40
1.0
 40
1.0
 40
1.0
 40
1.0
 40
2.0
 40
2.0
 40
2.0
 40
2.0
 10
238.8781860048323
 20
51.79919771321618
 30
0.0
 10
238.8819480491031
 20
52.89966284179692
 30
0.0
 10
239.475746429637
 20
53.52456526692712
 30
0.0
 10
240.2502572938948
 20
53.52637910970054
 30
0.0
  0
SPLINE
  5
F2
330
78
100
AcDbEntity
  8
0
  6
SLD-Durchgehend
 62
     8
420
  8421504
370
     0
100
AcDbSpline
210
0.0
220
0.0
230
1.0
 70
     8
 71
     3
 72
     8
 73
     4
 74
     0
 42
0.00000001
 43
0.00000001
 40
8.0
 40
8.0
 40
8.0
 40
8.0
 40
9.0
 40
9.0
 40
9.0
 40
9.0
 10
249.8415219830224
 20
49.44563594563805
 30
0.0
 10
250.7082029319156
 20
49.44563594563805
 30
0.0
 10
251.4525502626448
 20
49.94867500813804
 30
0.0
 10
251.7394061382958
 20
50.87978096516928
 30
0.0
  0
SPLINE
  5
F3
330
78
100
AcDbEntity
  8
0
  6
SLD-Durchgehend
 62
     8
420
  8421504
370
     0
100
AcDbSpline
210
0.0
220
0.0
230
1.0
 70
     8
 71
     3
 72
     8
 73
     4
 74
     0
 42
0.00000001
 43
0.00000001
 40
8.0
 40
8.0
 40
8.0
 40
8.0
 40
9.0
 40
9.0
 40
9.0
 40
9.0
 10
258.4156911317854
 20
54.14039847819013
 30
0.0
 10
258.3994337261864
 20
54.14039847819013
 30
0.0
 10
258.3858634950666
 20
54.13932360839846
 30
0.0
 10
258.3740399273583
 20
54.13932360839846
 30
0.0
  0
SPLINE
  5
F4
330
78
100
AcDbEntity
  8
0
  6
SLD-Durchgehend
 62
     8
420
  8421504
370
     0
100
AcDbSpline
210
0.0
220
0.0
230
1.0
 70
     8
 71
     3
 72
     8
 73
     4
 74
     0
 42
0.00000001
 43
0.00000001
 40
20.0
 40
20.0
 40
20.0
 40
20.0
 40
21.0
 40
21.0
 40
21.0
 40
21.0
 10
274.3795206484703
 20
50.27785388183599
 30
0.0
 10
274.3784457823096
 20
49.9798462320833
 30
0.0
 10
274.474780989773
 20
49.78408557244977
 30
0.0
 10
274.6302340347482
 20
49.67283655090634
 30
0.0
  0
SPLINE
  5
F5
330
78
100
AcDbEntity
  8
0
  6
SLD-Durchgehend
 62
     8
420
  8421504
370
     0
100
AcDbSpline
210
0.0
220
0.0
230
1.0
 70
     8
 71
     3
 72
     8
 73
     4
 74
     0
 42
0.00000001
 43
0.00000001
 40
2.0
 40
2.0
 40
2.0
 40
2.0
 40
3.0
 40
3.0
 40
3.0
 40
3.0
 10
238.2156631369937
 20
51.79919771321618
 30
0.0
 10
238.2155287782698
 20
51.04101143391929
 30
0.0
 10
238.440310923452
 20
50.45144535319012
 30
0.0
 10
238.8093271588036
 20
50.05172814941409
 30
0.0
  0
SPLINE
  5
F6
330
78
100
AcDbEntity
  8
0
  6
SLD-Durchgehend
 62
     8
420
  8421504
370
     0
100
AcDbSpline
210
0.0
220
0.0
230
1.0
 70
     8
 71
     3
 72
     8
 73
     4
 74
     0
 42
0.00000001
 43
0.00000001
 40
8.0
 40
8.0
 40
8.0
 40
8.0
 40
9.0
 40
9.0
 40
9.0
 40
9.0
 10
262.6999877626448
 20
54.1524235839844
 30
0.0
 10
261.4113532411604
 20
54.15558101399741
 30
0.0
 10
260.5522635601708
 20
53.19773767089846
 30
0.0
 10
260.5381558941552
 20
51.799735148112
 30
0.0
  0
SPLINE
  5
F7
330
78
100
AcDbEntity
  8
0
  6
SLD-Durchgehend
 62
     8
420
  8421504
370
     0
100
AcDbSpline
210
0.0
220
0.0
230
1.0
 70
     8
 71
     3
 72
     8
 73
     4
 74
     0
 42
0.00000001
 43
0.00000001
 40
14.0
 40
14.0
 40
14.0
 40
14.0
 40
15.0
 40
15.0
 40
15.0
 40
15.0
 10
249.8012143658349
 20
50.07215067545575
 30
0.0
 10
248.8709145611474
 20
50.08155578613283
 30
0.0
 10
248.4738845318505
 20
50.74166019694015
 30
0.0
 10
248.4677712099104
 20
51.69896610514325
 30
0.0
  0
SPLINE
  5
F8
330
78
100
AcDbEntity
  8
0
  6
SLD-Durchgehend
 62
     8
420
  8421504
370
     0
100
AcDbSpline
210
0.0
220
0.0
230
1.0
 70
     8
 71
     3
 72
     8
 73
     4
 74
     0
 42
0.00000001
 43
0.00000001
 40
2.0
 40
2.0
 40
2.0
 40
2.0
 40
3.0
 40
3.0
 40
3.0
 40
3.0
 10
248.3258883974104
 20
53.54626420084637
 30
0.0
 10
247.9568721620588
 20
53.14695007324222
 30
0.0
 10
247.7316869407047
 20
52.55704809570316
 30
0.0
 10
247.7320900168766
 20
51.79866027832033
 30
0.0
  0
SPLINE
  5
F9
330
78
100
AcDbEntity
  8
0
  6
SLD-Durchgehend
 62
     8
420
  8421504
370
     0
100
AcDbSpline
210
0.0
220
0.0
230
1.0
 70
    24
 71
     2
 72
     6
 73
     3
 74
     0
 42
0.00000001
 43
0.00000001
 40
24.0
 40
24.0
 40
24.0
 40
25.0
 40
25.0
 40
25.0
 10
275.769192939439
 20
50.09781320866384
 30
0.0
 10
275.5543533398296
 20
50.09781320604619
 30
0.0
 10
275.3033712434755
 20
50.09781320298818
 30
0.0
  0
SPLINE
  5
FA
330
78
100
AcDbEntity
  8
0
  6
SLD-Durchgehend
 62
     8
420
  8421504
370
     0
100
AcDbSpline
210
0.0
220
0.0
230
1.0
 70
     8
 71
     3
 72
     8
 73
     4
 74
     0
 42
0.00000001
 43
0.00000001
 40
2.0
 40
2.0
 40
2.0
 40
2.0
 40
3.0
 40
3.0
 40
3.0
 40
3.0
 10
257.5067543642073
 20
52.86090034993494
 30
0.0
 10
257.5157563987125
 20
53.25866935221357
 30
0.0
 10
257.6615356142073
 20
53.52980525716148
 30
0.0
 10
258.3858634950666
 20
53.56460416666669
 30
0.0
  0
SPLINE
  5
FB
330
78
100
AcDbEntity
  8
0
  6
SLD-Durchgehend
 62
     8
420
  8421504
370
     0
100
AcDbSpline
210
0.0
220
0.0
230
1.0
 70
     8
 71
     3
 72
     8
 73
     4
 74
     0
 42
0.00000001
 43
0.00000001
 40
3.0
 40
3.0
 40
3.0
 40
3.0
 40
4.0
 40
4.0
 40
4.0
 40
4.0
 10
241.6222614035953
 20
51.79919771321618
 30
0.0
 10
241.6187008974104
 20
50.68979772949221
 30
0.0
 10
241.0255743104963
 20
50.07403169759117
 30
0.0
 10
240.2502572938948
 20
50.07161324055993
 30
0.0
  0
SPLINE
  5
FC
330
78
100
AcDbEntity
  8
0
  6
SLD-Durchgehend
 62
     8
420
  8421504
370
     0
100
AcDbSpline
210
0.0
220
0.0
230
1.0
 70
     8
 71
     3
 72
     8
 73
     4
 74
     0
 42
0.00000001
 43
0.00000001
 40
0.0
 40
0.0
 40
0.0
 40
0.0
 40
1.0
 40
1.0
 40
1.0
 40
1.0
 10
263.7591375836083
 20
50.74918428548179
 30
0.0
 10
263.573050750926
 20
50.36532141113282
 30
0.0
 10
263.234735483999
 20
50.0743004150391
 30
0.0
 10
262.5728844097802
 20
50.07161324055993
 30
0.0
  0
SPLINE
  5
FD
330
78
100
AcDbEntity
  8
0
  6
SLD-Durchgehend
 62
     8
420
  8421504
370
     0
100
AcDbSpline
210
0.0
220
0.0
230
1.0
 70
     8
 71
     3
 72
     8
 73
     4
 74
     0
 42
0.00000001
 43
0.00000001
 40
0.0
 40
0.0
 40
0.0
 40
0.0
 40
1.0
 40
1.0
 40
1.0
 40
1.0
 10
240.2502572938948
 20
50.07161324055993
 30
0.0
 10
239.4752761741031
 20
50.07403169759117
 30
0.0
 10
238.882216766551
 20
50.68979772949221
 30
0.0
 10
238.8781860048323
 20
51.79919771321618
 30
0.0
  0
SPLINE
  5
FE
330
78
100
AcDbEntity
  8
0
  6
SLD-Durchgehend
 62
     8
420
  8421504
370
     0
100
AcDbSpline
210
0.0
220
0.0
230
1.0
 70
     8
 71
     3
 72
     8
 73
     4
 74
     0
 42
0.00000001
 43
0.00000001
 40
7.0
 40
7.0
 40
7.0
 40
7.0
 40
8.0
 40
8.0
 40
8.0
 40
8.0
 10
246.9688652854312
 20
51.13371895345053
 30
0.0
 10
247.0101805930484
 20
51.35352982584638
 30
0.0
 10
247.0248256939599
 20
51.60007808430993
 30
0.0
 10
247.0248256939599
 20
51.7258378499349
 30
0.0
  0
SPLINE
  5
FF
330
78
100
AcDbEntity
  8
0
  6
SLD-Durchgehend
 62
     8
420
  8421504
370
     0
100
AcDbSpline
210
0.0
220
0.0
230
1.0
 70
     8
 71
     3
 72
     8
 73
     4
 74
     0
 42
0.00000001
 43
0.00000001
 40
7.0
 40
7.0
 40
7.0
 40
7.0
 40
8.0
 40
8.0
 40
8.0
 40
8.0
 10
259.9116411643375
 20
53.13411881510418
 30
0.0
 10
259.6226355491031
 20
53.78965502929691
 30
0.0
 10
259.0584632672021
 20
54.14140616861981
 30
0.0
 10
258.4156911317854
 20
54.14039847819013
 30
0.0
  0
SPLINE
  5
100
330
78
100
AcDbEntity
  8
0
  6
SLD-Durchgehend
 62
     8
420
  8421504
370
     0
100
AcDbSpline
210
0.0
220
0.0
230
1.0
 70
     8
 71
     3
 72
     8
 73
     4
 74
     0
 42
0.00000001
 43
0.00000001
 40
1.0
 40
1.0
 40
1.0
 40
1.0
 40
2.0
 40
2.0
 40
2.0
 40
2.0
 10
238.8093271588036
 20
53.54626420084637
 30
0.0
 10
238.440310923452
 20
53.14695007324222
 30
0.0
 10
238.2155287782698
 20
52.55704809570316
 30
0.0
 10
238.2156631369937
 20
51.79919771321618
 30
0.0
  0
SPLINE
  5
101
330
78
100
AcDbEntity
  8
0
  6
SLD-Durchgehend
 62
     8
420
  8421504
370
     0
100
AcDbSpline
210
0.0
220
0.0
230
1.0
 70
     8
 71
     3
 72
     8
 73
     4
 74
     0
 42
0.00000001
 43
0.00000001
 40
0.0
 40
0.0
 40
0.0
 40
0.0
 40
1.0
 40
1.0
 40
1.0
 40
1.0
 10
258.7550812685041
 20
52.13281042480472
 30
0.0
 10
258.4303362326968
 20
52.20764823404951
 30
0.0
 10
258.1084127300927
 20
52.26286966959638
 30
0.0
 10
257.8763752138166
 20
52.36605716959637
 30
0.0
  0
SPLINE
  5
102
330
78
100
AcDbEntity
  8
0
  6
SLD-Durchgehend
 62
     8
420
  8421504
370
     0
100
AcDbSpline
210
0.0
220
0.0
230
1.0
 70
     8
 71
     3
 72
     8
 73
     4
 74
     0
 42
0.00000001
 43
0.00000001
 40
7.0
 40
7.0
 40
7.0
 40
7.0
 40
8.0
 40
8.0
 40
8.0
 40
8.0
 10
266.7699822287906
 20
53.52637910970056
 30
0.0
 10
267.4439255881656
 20
53.51516015625004
 30
0.0
 10
267.7661178082177
 20
53.27620316569013
 30
0.0
 10
267.7771352235823
 20
52.40972375488285
 30
0.0
  0
SPLINE
  5
103
330
78
100
AcDbEntity
  8
0
  6
SLD-Durchgehend
 62
     8
420
  8421504
370
     0
100
AcDbSpline
210
0.0
220
0.0
230
1.0
 70
     8
 71
     3
 72
     8
 73
     4
 74
     0
 42
0.00000001
 43
0.00000001
 40
25.0
 40
25.0
 40
25.0
 40
25.0
 40
26.0
 40
26.0
 40
26.0
 40
26.0
 10
275.3033712434755
 20
50.09781320298818
 30
0.0
 10
275.1656535513739
 20
50.1014408868571
 30
0.0
 10
275.1203746608532
 20
50.1463167001075
 30
0.0
 10
275.0822167821244
 20
50.23862114300191
 30
0.0
  0
SPLINE
  5
104
330
78
100
AcDbEntity
  8
0
  6
SLD-Durchgehend
 62
     8
420
  8421504
370
     0
100
AcDbSpline
210
0.0
220
0.0
230
1.0
 70
     8
 71
     3
 72
     8
 73
     4
 74
     0
 42
0.00000001
 43
0.00000001
 40
4.0
 40
4.0
 40
4.0
 40
4.0
 40
5.0
 40
5.0
 40
5.0
 40
5.0
 10
248.3258883974104
 20
50.05172814941409
 30
0.0
 10
248.6946359153141
 20
49.65241402180991
 30
0.0
 10
249.2061395774234
 20
49.44536722819013
 30
0.0
 10
249.7665498150536
 20
49.44563594563805
 30
0.0
  0
SPLINE
  5
105
330
78
100
AcDbEntity
  8
0
  6
SLD-Durchgehend
 62
     8
420
  8421504
370
     0
100
AcDbSpline
210
0.0
220
0.0
230
1.0
 70
     8
 71
     3
 72
     8
 73
     4
 74
     0
 42
0.00000001
 43
0.00000001
 40
1.0
 40
1.0
 40
1.0
 40
1.0
 40
2.0
 40
2.0
 40
2.0
 40
2.0
 10
244.9913735862125
 20
54.15289383951826
 30
0.0
 10
244.4305602724104
 20
54.15289383951826
 30
0.0
 10
243.919190969025
 20
53.94645166015629
 30
0.0
 10
243.5503762717593
 20
53.54626420084637
 30
0.0
  0
SPLINE
  5
106
330
78
100
AcDbEntity
  8
0
  6
SLD-Durchgehend
 62
     8
420
  8421504
370
     0
100
AcDbSpline
210
0.0
220
0.0
230
1.0
 70
     8
 71
     3
 72
     8
 73
     4
 74
     0
 42
0.00000001
 43
0.00000001
 40
1.0
 40
1.0
 40
1.0
 40
1.0
 40
2.0
 40
2.0
 40
2.0
 40
2.0
 10
262.5728844097802
 20
50.07161324055993
 30
0.0
 10
261.9138548687646
 20
50.07376298014326
 30
0.0
 10
261.203097219025
 20
50.62154349772136
 30
0.0
 10
261.2008131207177
 20
51.79919771321618
 30
0.0
  0
SPLINE
  5
107
330
78
100
AcDbEntity
  8
0
  6
SLD-Durchgehend
 62
     8
420
  8421504
370
     0
100
AcDbSpline
210
0.0
220
0.0
230
1.0
 70
     8
 71
     2
 72
     6
 73
     3
 74
     0
 42
0.00000001
 43
0.00000001
 40
22.0
 40
22.0
 40
22.0
 40
23.0
 40
23.0
 40
23.0
 10
275.1847324902169
 20
49.53390963708953
 30
0.0
 10
275.2214124218576
 20
49.53390963753644
 30
0.0
 10
275.769192939439
 20
49.53364092676277
 30
0.0
  0
SPLINE
  5
108
330
78
100
AcDbEntity
  8
0
  6
SLD-Durchgehend
 62
     8
420
  8421504
370
     0
100
AcDbSpline
210
0.0
220
0.0
230
1.0
 70
     8
 71
     3
 72
     8
 73
     4
 74
     0
 42
0.00000001
 43
0.00000001
 40
26.0
 40
26.0
 40
26.0
 40
26.0
 40
27.0
 40
27.0
 40
27.0
 40
27.0
 10
275.0822167821244
 20
50.23862114300191
 30
0.0
 10
275.0460742842386
 20
50.33226917316051
 30
0.0
 10
275.0419091620066
 20
50.47912325839622
 30
0.0
 10
275.0421778774671
 20
50.64223474928492
 30
0.0
  0
SPLINE
  5
109
330
78
100
AcDbEntity
  8
0
  6
SLD-Durchgehend
 62
     8
420
  8421504
370
     0
100
AcDbSpline
210
0.0
220
0.0
230
1.0
 70
     8
 71
     3
 72
     8
 73
     4
 74
     0
 42
0.00000001
 43
0.00000001
 40
12.0
 40
12.0
 40
12.0
 40
12.0
 40
13.0
 40
13.0
 40
13.0
 40
13.0
 10
255.6924413352359
 20
53.71165979003909
 30
0.0
 10
255.4291654156395
 20
53.99381311035158
 30
0.0
 10
255.0250815533349
 20
54.15316255696617
 30
0.0
 10
254.4773682151187
 20
54.1524235839844
 30
0.0
  0
SPLINE
  5
10A
330
78
100
AcDbEntity
  8
0
  6
SLD-Durchgehend
 62
     8
420
  8421504
370
     0
100
AcDbSpline
210
0.0
220
0.0
230
1.0
 70
     8
 71
     3
 72
     8
 73
     4
 74
     0
 42
0.00000001
 43
0.00000001
 40
3.0
 40
3.0
 40
3.0
 40
3.0
 40
4.0
 40
4.0
 40
4.0
 40
4.0
 10
247.7320900168766
 20
51.79866027832033
 30
0.0
 10
247.7316869407047
 20
51.04101143391929
 30
0.0
 10
247.9568721620588
 20
50.45144535319012
 30
0.0
 10
248.3258883974104
 20
50.05172814941409
 30
0.0
  0
SPLINE
  5
10B
330
78
100
AcDbEntity
  8
0
  6
SLD-Durchgehend
 62
     8
420
  8421504
370
     0
100
AcDbSpline
210
0.0
220
0.0
230
1.0
 70
     8
 71
     3
 72
     8
 73
     4
 74
     0
 42
0.00000001
 43
0.00000001
 40
0.0
 40
0.0
 40
0.0
 40
0.0
 40
1.0
 40
1.0
 40
1.0
 40
1.0
 10
244.9913735862125
 20
50.07188195800785
 30
0.0
 10
244.215855031525
 20
50.07403169759117
 30
0.0
 10
243.6230643414208
 20
50.68979772949222
 30
0.0
 10
243.6193022971499
 20
51.79919771321618
 30
0.0
  0
SPLINE
  5
10C
330
78
100
AcDbEntity
  8
0
  6
SLD-Durchgehend
 62
     8
420
  8421504
370
     0
100
AcDbSpline
210
0.0
220
0.0
230
1.0
 70
     8
 71
     3
 72
     8
 73
     4
 74
     0
 42
0.00000001
 43
0.00000001
 40
1.0
 40
1.0
 40
1.0
 40
1.0
 40
2.0
 40
2.0
 40
2.0
 40
2.0
 10
243.61930229715
 20
51.79919771321617
 30
0.0
 10
243.6228628033349
 20
52.89966284179692
 30
0.0
 10
244.2162581076968
 20
53.52456526692713
 30
0.0
 10
244.9913735862125
 20
53.52637910970056
 30
0.0
  0
SPLINE
  5
10D
330
78
100
AcDbEntity
  8
0
  6
SLD-Durchgehend
 62
     8
420
  8421504
370
     0
100
AcDbSpline
210
0.0
220
0.0
230
1.0
 70
     8
 71
     3
 72
     8
 73
     4
 74
     0
 42
0.00000001
 43
0.00000001
 40
0.0
 40
0.0
 40
0.0
 40
0.0
 40
1.0
 40
1.0
 40
1.0
 40
1.0
 10
240.2502572938948
 20
54.1524235839844
 30
0.0
 10
239.6897126975406
 20
54.15289383951826
 30
0.0
 10
239.1780746767073
 20
53.94645166015629
 30
0.0
 10
238.8093271588036
 20
53.54626420084637
 30
0.0
  0
SPLINE
  5
10E
330
78
100
AcDbEntity
  8
0
  6
SLD-Durchgehend
 62
     8
420
  8421504
370
     0
100
AcDbSpline
210
0.0
220
0.0
230
1.0
 70
     8
 71
     3
 72
     8
 73
     4
 74
     0
 42
0.00000001
 43
0.00000001
 40
12.0
 40
12.0
 40
12.0
 40
12.0
 40
13.0
 40
13.0
 40
13.0
 40
13.0
 10
269.7527529176072
 20
50.05172811989913
 30
0.0
 10
270.1217019776297
 20
49.65241399602138
 30
0.0
 10
270.6333400005543
 20
49.4453672075692
 30
0.0
 10
271.1938845969058
 20
49.44563593067868
 30
0.0
  0
SPLINE
  5
10F
330
78
100
AcDbEntity
  8
0
  6
SLD-Durchgehend
 62
     8
420
  8421504
370
     0
100
AcDbSpline
210
0.0
220
0.0
230
1.0
 70
     8
 71
     3
 72
     8
 73
     4
 74
     0
 42
0.00000001
 43
0.00000001
 40
2.0
 40
2.0
 40
2.0
 40
2.0
 40
3.0
 40
3.0
 40
3.0
 40
3.0
 10
269.7882492893593
 20
51.79919766776327
 30
0.0
 10
269.7921456922359
 20
52.89966279634443
 30
0.0
 10
270.3860112520646
 20
53.52456522153849
 30
0.0
 10
271.1605892956841
 20
53.52637906439517
 30
0.0
  0
SPLINE
  5
110
330
78
100
AcDbEntity
  8
0
  6
SLD-Durchgehend
 62
     8
420
  8421504
370
     0
100
AcDbSpline
210
0.0
220
0.0
230
1.0
 70
     8
 71
     3
 72
     8
 73
     4
 74
     0
 42
0.00000001
 43
0.00000001
 40
0.0
 40
0.0
 40
0.0
 40
0.0
 40
1.0
 40
1.0
 40
1.0
 40
1.0
 10
271.1605892960555
 20
50.07188191270246
 30
0.0
 10
270.3854738175397
 20
50.07403165220246
 30
0.0
 10
269.7921456924734
 20
50.68979768403972
 30
0.0
 10
269.7885180068072
 20
51.79919766776329
 30
0.0
  0
SPLINE
  5
111
330
78
100
AcDbEntity
  8
0
  6
SLD-Durchgehend
 62
     8
420
  8421504
370
     0
100
AcDbSpline
210
0.0
220
0.0
230
1.0
 70
     8
 71
     3
 72
     8
 73
     4
 74
     0
 42
0.00000001
 43
0.00000001
 40
8.0
 40
8.0
 40
8.0
 40
8.0
 40
9.0
 40
9.0
 40
9.0
 40
9.0
 10
241.6913217877099
 20
53.54626420084637
 30
0.0
 10
241.3222383729963
 20
53.94645166015629
 30
0.0
 10
240.8108690696109
 20
54.15289383951826
 30
0.0
 10
240.2502572938948
 20
54.1524235839844
 30
0.0
  0
SPLINE
  5
112
330
78
100
AcDbEntity
  8
0
  6
SLD-Durchgehend
 62
     8
420
  8421504
370
     0
100
AcDbSpline
210
0.0
220
0.0
230
1.0
 70
     8
 71
     3
 72
     8
 73
     4
 74
     0
 42
0.00000001
 43
0.00000001
 40
10.0
 40
10.0
 40
10.0
 40
10.0
 40
11.0
 40
11.0
 40
11.0
 40
11.0
 10
269.7527528823119
 20
53.54626417133141
 30
0.0
 10
269.3842069065273
 20
53.14695004000491
 30
0.0
 10
269.1588873324072
 20
52.55704806019009
 30
0.0
 10
269.1588873400616
 20
51.79919767770311
 30
0.0
  0
SPLINE
  5
113
330
78
100
AcDbEntity
  8
0
  6
SLD-Durchgehend
 62
     8
420
  8421504
370
     0
100
AcDbSpline
210
0.0
220
0.0
230
1.0
 70
     8
 71
     3
 72
     8
 73
     4
 74
     0
 42
0.00000001
 43
0.00000001
 40
2.0
 40
2.0
 40
2.0
 40
2.0
 40
3.0
 40
3.0
 40
3.0
 40
3.0
 10
243.5503762717593
 20
53.54626420084637
 30
0.0
 10
243.1810913189599
 20
53.14695007324222
 30
0.0
 10
242.9563763531395
 20
52.55704809570316
 30
0.0
 10
242.9563763531395
 20
51.79919771321618
 30
0.0
  0
SPLINE
  5
114
330
78
100
AcDbEntity
  8
0
  6
SLD-Durchgehend
 62
     8
420
  8421504
370
     0
100
AcDbSpline
210
0.0
220
0.0
230
1.0
 70
     8
 71
     3
 72
     8
 73
     4
 74
     0
 42
0.00000001
 43
0.00000001
 40
8.0
 40
8.0
 40
8.0
 40
8.0
 40
9.0
 40
9.0
 40
9.0
 40
9.0
 10
272.5521168951743
 20
53.62640917844642
 30
0.0
 10
272.1912293591284
 20
53.97231570963218
 30
0.0
 10
271.7145246047004
 20
54.1528938298174
 30
0.0
 10
271.1938845493668
 20
54.15242356902503
 30
0.0
  0
SPLINE
  5
115
330
78
100
AcDbEntity
  8
0
  6
SLD-Durchgehend
 62
     8
420
  8421504
370
     0
100
AcDbSpline
210
0.0
220
0.0
230
1.0
 70
     8
 71
     3
 72
     8
 73
     4
 74
     0
 42
0.00000001
 43
0.00000001
 40
5.0
 40
5.0
 40
5.0
 40
5.0
 40
6.0
 40
6.0
 40
6.0
 40
6.0
 10
240.2521383160301
 20
49.44563594563805
 30
0.0
 10
240.8120111187646
 20
49.44563594563805
 30
0.0
 10
241.3224399110823
 20
49.65241402180991
 30
0.0
 10
241.6913217877099
 20
50.05172814941409
 30
0.0
  0
SPLINE
  5
116
330
78
100
AcDbEntity
  8
0
  6
SLD-Durchgehend
 62
     8
420
  8421504
370
     0
100
AcDbSpline
210
0.0
220
0.0
230
1.0
 70
     8
 71
     3
 72
     8
 73
     4
 74
     0
 42
0.00000001
 43
0.00000001
 40
0.0
 40
0.0
 40
0.0
 40
0.0
 40
1.0
 40
1.0
 40
1.0
 40
1.0
 10
266.842804657176
 20
54.15289383951826
 30
0.0
 10
266.3709368186343
 20
54.15369999186201
 30
0.0
 10
265.8797213238427
 20
53.98306441243492
 30
0.0
 10
265.5798326519676
 20
53.52537141927086
 30
0.0
  0
SPLINE
  5
117
330
78
100
AcDbEntity
  8
0
  6
SLD-Durchgehend
 62
     8
420
  8421504
370
     0
100
AcDbSpline
210
0.0
220
0.0
230
1.0
 70
     8
 71
     3
 72
     8
 73
     4
 74
     0
 42
0.00000001
 43
0.00000001
 40
5.0
 40
5.0
 40
5.0
 40
5.0
 40
6.0
 40
6.0
 40
6.0
 40
6.0
 10
249.7665498150536
 20
49.44563594563805
 30
0.0
 10
249.7813292746891
 20
49.44563594563805
 30
0.0
 10
249.7922123313296
 20
49.44644209798179
 30
0.0
 10
249.8010128277489
 20
49.44644209798179
 30
0.0
  0
SPLINE
  5
118
330
78
100
AcDbEntity
  8
0
  6
SLD-Durchgehend
 62
     8
420
  8421504
370
     0
100
AcDbSpline
210
0.0
220
0.0
230
1.0
 70
     8
 71
     3
 72
     8
 73
     4
 74
     0
 42
0.00000001
 43
0.00000001
 40
3.0
 40
3.0
 40
3.0
 40
3.0
 40
4.0
 40
4.0
 40
4.0
 40
4.0
 10
238.8093271588036
 20
50.05172814941409
 30
0.0
 10
239.1780746767073
 20
49.65241402180991
 30
0.0
 10
239.6897126975406
 20
49.44536722819013
 30
0.0
 10
240.2502572938948
 20
49.44563594563805
 30
0.0
  0
SPLINE
  5
119
330
78
100
AcDbEntity
  8
0
  6
SLD-Durchgehend
 62
     8
420
  8421504
370
     0
100
AcDbSpline
210
0.0
220
0.0
230
1.0
 70
     8
 71
     3
 72
     8
 73
     4
 74
     0
 42
0.00000001
 43
0.00000001
 40
16.0
 40
16.0
 40
16.0
 40
16.0
 40
17.0
 40
17.0
 40
17.0
 40
17.0
 10
258.4449813336083
 20
50.00443387858074
 30
0.0
 10
258.0674333192854
 20
50.01249540201825
 30
0.0
 10
257.526908172801
 20
50.1397331136068
 30
0.0
 10
257.3465987652489
 20
50.7604704182943
 30
0.0
  0
SPLINE
  5
11A
330
78
100
AcDbEntity
  8
0
  6
SLD-Durchgehend
 62
     8
420
  8421504
370
     0
100
AcDbSpline
210
0.0
220
0.0
230
1.0
 70
     8
 71
     3
 72
     8
 73
     4
 74
     0
 42
0.00000001
 43
0.00000001
 40
2.0
 40
2.0
 40
2.0
 40
2.0
 40
3.0
 40
3.0
 40
3.0
 40
3.0
 10
244.9913735862125
 20
53.52637910970056
 30
0.0
 10
245.7659516298322
 20
53.52456526692713
 30
0.0
 10
246.363243337189
 20
52.96791707356772
 30
0.0
 10
246.363243337189
 20
51.79919771321618
 30
0.0
  0
SPLINE
  5
11B
330
78
100
AcDbEntity
  8
0
  6
SLD-Durchgehend
 62
     8
420
  8421504
370
     0
100
AcDbSpline
210
0.0
220
0.0
230
1.0
 70
     8
 71
     3
 72
     8
 73
     4
 74
     0
 42
0.00000001
 43
0.00000001
 40
6.0
 40
6.0
 40
6.0
 40
6.0
 40
7.0
 40
7.0
 40
7.0
 40
7.0
 10
253.2143962099104
 20
52.16317549641928
 30
0.0
 10
253.219098765249
 20
53.12182499186201
 30
0.0
 10
253.7753438824364
 20
53.52167655436201
 30
0.0
 10
254.4043442486473
 20
53.52637910970056
 30
0.0
  0
SPLINE
  5
11C
330
78
100
AcDbEntity
  8
0
  6
SLD-Durchgehend
 62
     8
420
  8421504
370
     0
100
AcDbSpline
210
0.0
220
0.0
230
1.0
 70
     8
 71
     3
 72
     8
 73
     4
 74
     0
 42
0.00000001
 43
0.00000001
 40
9.0
 40
9.0
 40
9.0
 40
9.0
 40
10.0
 40
10.0
 40
10.0
 40
10.0
 10
271.1938845493668
 20
54.15242356902503
 30
0.0
 10
270.6333399530077
 20
54.15289381889733
 30
0.0
 10
270.1217019342595
 20
53.94645163436776
 30
0.0
 10
269.7527528823119
 20
53.54626417133141
 30
0.0
  0
SPLINE
  5
11D
330
78
100
AcDbEntity
  8
0
  6
SLD-Durchgehend
 62
     8
420
  8421504
370
     0
100
AcDbSpline
210
0.0
220
0.0
230
1.0
 70
     8
 71
     3
 72
     8
 73
     4
 74
     0
 42
0.00000001
 43
0.00000001
 40
3.0
 40
3.0
 40
3.0
 40
3.0
 40
4.0
 40
4.0
 40
4.0
 40
4.0
 10
271.1605892956841
 20
53.52637906439517
 30
0.0
 10
271.9350329805802
 20
53.524565221705
 30
0.0
 10
272.5287641818192
 20
52.89966279663861
 30
0.0
 10
272.5327949436563
 20
51.7991976680583
 30
0.0
  0
SPLINE
  5
11E
330
78
100
AcDbEntity
  8
0
  6
SLD-Durchgehend
 62
     8
420
  8421504
370
     0
100
AcDbSpline
210
0.0
220
0.0
230
1.0
 70
     8
 71
     3
 72
     8
 73
     4
 74
     0
 42
0.00000001
 43
0.00000001
 40
4.0
 40
4.0
 40
4.0
 40
4.0
 40
5.0
 40
5.0
 40
5.0
 40
5.0
 10
272.5327949436563
 20
51.7991976680583
 30
0.0
 10
272.5287641820568
 20
50.6897976843339
 30
0.0
 10
271.9355704158469
 20
50.07403165236909
 30
0.0
 10
271.1605892960555
 20
50.07188191270246
 30
0.0
  0
SPLINE
  5
11F
330
78
100
AcDbEntity
  8
0
  6
SLD-Durchgehend
 62
     8
420
  8421504
370
     0
100
AcDbSpline
210
0.0
220
0.0
230
1.0
 70
     8
 71
     3
 72
     8
 73
     4
 74
     0
 42
0.00000001
 43
0.00000001
 40
11.0
 40
11.0
 40
11.0
 40
11.0
 40
12.0
 40
12.0
 40
12.0
 40
12.0
 10
262.5853797711083
 20
49.44563594563805
 30
0.0
 10
263.5398641461083
 20
49.44563594563805
 30
0.0
 10
264.1459563498844
 20
49.87115002441409
 30
0.0
 10
264.4688203635562
 20
50.70296488444013
 30
0.0
  0
SPLINE
  5
120
330
78
100
AcDbEntity
  8
0
  6
SLD-Durchgehend
 62
     8
420
  8421504
370
     0
100
AcDbSpline
210
0.0
220
0.0
230
1.0
 70
     8
 71
     3
 72
     8
 73
     4
 74
     0
 42
0.00000001
 43
0.00000001
 40
14.0
 40
14.0
 40
14.0
 40
14.0
 40
15.0
 40
15.0
 40
15.0
 40
15.0
 10
271.1949594666974
 20
49.44563593067868
 30
0.0
 10
271.7330661561506
 20
49.44563593611291
 30
0.0
 10
272.2242816489937
 20
49.63857506867777
 30
0.0
 10
272.5890655808147
 20
50.00752412835124
 30
0.0
  0
SPLINE
  5
121
330
78
100
AcDbEntity
  8
0
  6
SLD-Durchgehend
 62
     8
420
  8421504
370
     0
100
AcDbSpline
210
0.0
220
0.0
230
1.0
 70
     8
 71
     3
 72
     8
 73
     4
 74
     0
 42
0.00000001
 43
0.00000001
 40
22.0
 40
22.0
 40
22.0
 40
22.0
 40
23.0
 40
23.0
 40
23.0
 40
23.0
 10
258.4476685080875
 20
49.43623083496097
 30
0.0
 10
259.4949947613427
 20
49.47237333170574
 30
0.0
 10
260.0955782574364
 20
50.09028910319014
 30
0.0
 10
260.0939659527489
 20
50.82039440917971
 30
0.0
  0
SPLINE
  5
122
330
78
100
AcDbEntity
  8
0
  6
SLD-Durchgehend
 62
     8
420
  8421504
370
     0
100
AcDbSpline
210
0.0
220
0.0
230
1.0
 70
     8
 71
     3
 72
     8
 73
     4
 74
     0
 42
0.00000001
 43
0.00000001
 40
2.0
 40
2.0
 40
2.0
 40
2.0
 40
3.0
 40
3.0
 40
3.0
 40
3.0
 10
240.2502572938948
 20
53.52637910970054
 30
0.0
 10
241.0251712343245
 20
53.52456526692713
 30
0.0
 10
241.6187008974104
 20
52.89966284179692
 30
0.0
 10
241.6222614035953
 20
51.79919771321618
 30
0.0
  0
SPLINE
  5
123
330
78
100
AcDbEntity
  8
0
  6
SLD-Durchgehend
 62
     8
420
  8421504
370
     0
100
AcDbSpline
210
0.0
220
0.0
230
1.0
 70
     8
 71
     3
 72
     8
 73
     4
 74
     0
 42
0.00000001
 43
0.00000001
 40
6.0
 40
6.0
 40
6.0
 40
6.0
 40
7.0
 40
7.0
 40
7.0
 40
7.0
 10
265.5798326519676
 20
52.16371293131513
 30
0.0
 10
265.5845352073062
 20
53.12182499186201
 30
0.0
 10
266.1406459657697
 20
53.52167655436201
 30
0.0
 10
266.7699822287906
 20
53.52637910970056
 30
0.0
  0
SPLINE
  5
124
330
78
100
AcDbEntity
  8
0
  6
SLD-Durchgehend
 62
     8
420
  8421504
370
     0
100
AcDbSpline
210
0.0
220
0.0
230
1.0
 70
     8
 71
     3
 72
     8
 73
     4
 74
     0
 42
0.00000001
 43
0.00000001
 40
11.0
 40
11.0
 40
11.0
 40
11.0
 40
12.0
 40
12.0
 40
12.0
 40
12.0
 10
258.3170718283999
 20
54.13750976562503
 30
0.0
 10
257.3694397483218
 20
54.10976468912763
 30
0.0
 10
256.8420817567854
 20
53.52429654947919
 30
0.0
 10
256.8442314963687
 20
52.87897159830732
 30
0.0
  0
SPLINE
  5
125
330
78
100
AcDbEntity
  8
0
  6
SLD-Durchgehend
 62
     8
420
  8421504
370
     0
100
AcDbSpline
210
0.0
220
0.0
230
1.0
 70
     8
 71
     3
 72
     8
 73
     4
 74
     0
 42
0.00000001
 43
0.00000001
 40
4.0
 40
4.0
 40
4.0
 40
4.0
 40
5.0
 40
5.0
 40
5.0
 40
5.0
 10
243.5503762717593
 20
50.05172814941409
 30
0.0
 10
243.919190969025
 20
49.65241402180991
 30
0.0
 10
244.4305602724104
 20
49.44536722819013
 30
0.0
 10
244.9913735862125
 20
49.44563594563805
 30
0.0
  0
SPLINE
  5
126
330
78
100
AcDbEntity
  8
0
  6
SLD-Durchgehend
 62
     8
420
  8421504
370
     0
100
AcDbSpline
210
0.0
220
0.0
230
1.0
 70
     8
 71
     3
 72
     8
 73
     4
 74
     0
 42
0.00000001
 43
0.00000001
 40
11.0
 40
11.0
 40
11.0
 40
11.0
 40
12.0
 40
12.0
 40
12.0
 40
12.0
 10
269.1588873400616
 20
51.79919767770311
 30
0.0
 10
269.1588873477193
 20
51.04101139840623
 30
0.0
 10
269.3842069337522
 20
50.4514453199528
 30
0.0
 10
269.7527529176072
 20
50.05172811989913
 30
0.0
  0
SPLINE
  5
127
330
78
100
AcDbEntity
  8
0
  6
SLD-Durchgehend
 62
     8
420
  8421504
370
     0
100
AcDbSpline
210
0.0
220
0.0
230
1.0
 70
     8
 71
     3
 72
     8
 73
     4
 74
     0
 42
0.00000001
 43
0.00000001
 40
11.0
 40
11.0
 40
11.0
 40
11.0
 40
12.0
 40
12.0
 40
12.0
 40
12.0
 10
268.4404642437646
 20
52.5733055013021
 30
0.0
 10
268.4404642437646
 20
53.03361848958336
 30
0.0
 10
268.3216911317854
 20
53.43037980143232
 30
0.0
 10
268.0578105979312
 20
53.71165979003909
 30
0.0
  0
HATCH
  5
128
330
78
100
AcDbEntity
  8
0
  6
Continuous
 62
     7
100
AcDbHatch
 10
0.0
 20
0.0
 30
0.0
210
0.0
220
0.0
230
1.0
  2
SOLID
 70
     1
 71
     0
 91
        2
 92
        0
 93
       12
 72
     4
 94
        3
 73
     1
 74
     0
 95
        8
 96
        4
 40
4.0
 40
4.0
 40
4.0
 40
4.0
 40
5.0
 40
5.0
 40
5.0
 40
5.0
 10
243.5503762717593
 20
50.05172814941409
 42
1.0
 10
243.919190969025
 20
49.65241402180991
 42
1.0
 10
244.4305602724104
 20
49.44536722819013
 42
1.0
 10
244.9913735862125
 20
49.44563594563805
 42
1.0
 97
        0
 72
     1
 10
244.9913735862125
 20
49.44563594563805
 11
244.9984945985823
 21
49.44563594563805
 72
     4
 94
        3
 73
     1
 74
     0
 95
        8
 96
        4
 40
6.0
 40
6.0
 40
6.0
 40
6.0
 40
7.0
 40
7.0
 40
7.0
 40
7.0
 10
244.9984945985823
 20
49.44563594563805
 42
1.0
 10
245.9458579612125
 20
49.44563594563805
 42
1.0
 10
246.7583251649885
 20
50.01303283691409
 42
1.0
 10
246.9688652854312
 20
51.13371895345053
 42
1.0
 97
        0
 72
     4
 94
        3
 73
     1
 74
     0
 95
        8
 96
        4
 40
7.0
 40
7.0
 40
7.0
 40
7.0
 40
8.0
 40
8.0
 40
8.0
 40
8.0
 10
246.9688652854312
 20
51.13371895345053
 42
1.0
 10
247.0101805930484
 20
51.35352982584638
 42
1.0
 10
247.0248256939599
 20
51.60007808430993
 42
1.0
 10
247.0248256939599
 20
51.7258378499349
 42
1.0
 97
        0
 72
     1
 10
247.0248256939599
 20
51.7258378499349
 11
247.0260349224755
 21
51.7258378499349
 72
     1
 10
247.0260349224755
 20
51.7258378499349
 11
247.0260349224755
 21
55.23085388183598
 72
     1
 10
247.0260349224755
 20
55.23085388183598
 11
246.3676771750796
 21
55.23085388183598
 72
     1
 10
246.3676771750796
 20
55.23085388183598
 11
246.3676771750796
 21
53.54109138997399
 72
     4
 94
        3
 73
     1
 74
     0
 95
        8
 96
        4
 40
0.0
 40
0.0
 40
0.0
 40
0.0
 40
1.0
 40
1.0
 40
1.0
 40
1.0
 10
246.3676771750796
 20
53.54109138997399
 42
1.0
 10
246.0469629009911
 20
53.931269124349
 42
1.0
 10
245.5208141379703
 20
54.15289383951826
 42
1.0
 10
244.9913735862125
 20
54.15289383951826
 42
1.0
 97
        0
 72
     4
 94
        3
 73
     1
 74
     0
 95
        8
 96
        4
 40
1.0
 40
1.0
 40
1.0
 40
1.0
 40
2.0
 40
2.0
 40
2.0
 40
2.0
 10
244.9913735862125
 20
54.15289383951826
 42
1.0
 10
244.4305602724104
 20
54.15289383951826
 42
1.0
 10
243.919190969025
 20
53.94645166015629
 42
1.0
 10
243.5503762717593
 20
53.54626420084637
 42
1.0
 97
        0
 72
     4
 94
        3
 73
     1
 74
     0
 95
        8
 96
        4
 40
2.0
 40
2.0
 40
2.0
 40
2.0
 40
3.0
 40
3.0
 40
3.0
 40
3.0
 10
243.5503762717593
 20
53.54626420084637
 42
1.0
 10
243.1810913189599
 20
53.14695007324222
 42
1.0
 10
242.9563763531395
 20
52.55704809570316
 42
1.0
 10
242.9563763531395
 20
51.79919771321618
 42
1.0
 97
        0
 72
     4
 94
        3
 73
     1
 74
     0
 95
        8
 96
        4
 40
3.0
 40
3.0
 40
3.0
 40
3.0
 40
4.0
 40
4.0
 40
4.0
 40
4.0
 10
242.9563763531395
 20
51.79919771321618
 42
1.0
 10
242.9563763531395
 20
51.04101143391929
 42
1.0
 10
243.1810913189599
 20
50.45144535319012
 42
1.0
 10
243.5503762717593
 20
50.05172814941409
 42
1.0
 97
        0
 97
        0
 92
        0
 93
        4
 72
     4
 94
        3
 73
     1
 74
     0
 95
        8
 96
        4
 40
1.0
 40
1.0
 40
1.0
 40
1.0
 40
2.0
 40
2.0
 40
2.0
 40
2.0
 10
243.61930229715
 20
51.79919771321617
 42
1.0
 10
243.6228628033349
 20
52.89966284179692
 42
1.0
 10
244.2162581076968
 20
53.52456526692713
 42
1.0
 10
244.9913735862125
 20
53.52637910970056
 42
1.0
 97
        0
 72
     4
 94
        3
 73
     1
 74
     0
 95
        8
 96
        4
 40
2.0
 40
2.0
 40
2.0
 40
2.0
 40
3.0
 40
3.0
 40
3.0
 40
3.0
 10
244.9913735862125
 20
53.52637910970056
 42
1.0
 10
245.7659516298322
 20
53.52456526692713
 42
1.0
 10
246.363243337189
 20
52.96791707356772
 42
1.0
 10
246.363243337189
 20
51.79919771321618
 42
1.0
 97
        0
 72
     4
 94
        3
 73
     1
 74
     0
 95
        8
 96
        4
 40
3.0
 40
3.0
 40
3.0
 40
3.0
 40
4.0
 40
4.0
 40
4.0
 40
4.0
 10
246.363243337189
 20
51.79919771321618
 42
1.0
 10
246.3701628114729
 20
50.59198457845055
 42
1.0
 10
245.7664218853661
 20
50.07403169759117
 42
1.0
 10
244.9913735862125
 20
50.07188195800784
 42
1.0
 97
        0
 72
     4
 94
        3
 73
     1
 74
     0
 95
        8
 96
        4
 40
0.0
 40
0.0
 40
0.0
 40
0.0
 40
1.0
 40
1.0
 40
1.0
 40
1.0
 10
244.9913735862125
 20
50.07188195800785
 42
1.0
 10
244.215855031525
 20
50.07403169759117
 42
1.0
 10
243.6230643414208
 20
50.68979772949222
 42
1.0
 10
243.6193022971499
 20
51.79919771321618
 42
1.0
 97
        0
 97
        0
 75
     0
 76
     1
 98
        1
 10
0.0
 20
0.0
  0
HATCH
  5
129
330
78
100
AcDbEntity
  8
0
  6
Continuous
 62
     7
100
AcDbHatch
 10
0.0
 20
0.0
 30
0.0
210
0.0
220
0.0
230
1.0
  2
SOLID
 70
     1
 71
     0
 91
        1
 92
        0
 93
        8
 72
     4
 94
        3
 73
     1
 74
     0
 95
        8
 96
        4
 40
7.0
 40
7.0
 40
7.0
 40
7.0
 40
8.0
 40
8.0
 40
8.0
 40
8.0
 10
235.2267389195643
 20
49.44563594563805
 42
1.0
 10
234.3484359410487
 20
49.66813399251304
 42
1.0
 10
233.6945792109055
 20
50.4570884195964
 42
1.0
 10
233.6739551467778
 20
51.72167272949222
 42
1.0
 97
        0
 72
     1
 10
233.6739551467778
 20
51.72167272949222
 11
233.6727459182622
 21
51.72167272949222
 72
     1
 10
233.6727459182622
 20
51.72167272949222
 11
233.6727459182622
 21
55.26249536132816
 72
     1
 10
233.6727459182622
 20
55.26249536132816
 11
232.9466713739914
 21
55.26249536132816
 72
     1
 10
232.9466713739914
 20
55.26249536132816
 11
232.9466713739914
 21
51.77971569824223
 72
     1
 10
232.9466713739914
 20
51.77971569824223
 11
232.9472759882492
 21
51.77971569824223
 72
     4
 94
        3
 73
     1
 74
     0
 95
        8
 96
        4
 40
5.0
 40
5.0
 40
5.0
 40
5.0
 40
6.0
 40
6.0
 40
6.0
 40
6.0
 10
232.9472759882492
 20
51.77971569824223
 42
1.0
 10
232.9535908482752
 20
50.25501289876306
 42
1.0
 10
233.8585640334966
 20
49.43676826985681
 42
1.0
 10
234.9778393834315
 20
49.43676826985681
 42
1.0
 97
        0
 72
     4
 94
        3
 73
     1
 74
     0
 95
        8
 96
        4
 40
6.0
 40
6.0
 40
6.0
 40
6.0
 40
7.0
 40
7.0
 40
7.0
 40
7.0
 10
234.9778393834315
 20
49.43676826985681
 42
1.0
 10
235.0608058954758
 20
49.43676826985681
 42
1.0
 10
235.14377240752
 20
49.43985852050785
 42
1.0
 10
235.2267389195643
 20
49.44563594563805
 42
1.0
 97
        0
 97
        0
 75
     0
 76
     1
 98
        1
 10
0.0
 20
0.0
  0
HATCH
  5
12A
330
78
100
AcDbEntity
  8
0
  6
Continuous
 62
     7
100
AcDbHatch
 10
0.0
 20
0.0
 30
0.0
210
0.0
220
0.0
230
1.0
  2
SOLID
 70
     1
 71
     0
 91
        2
 92
        0
 93
        9
 72
     4
 94
        3
 73
     1
 74
     0
 95
        8
 96
        4
 40
3.0
 40
3.0
 40
3.0
 40
3.0
 40
4.0
 40
4.0
 40
4.0
 40
4.0
 10
238.8093271588036
 20
50.05172814941409
 42
1.0
 10
239.1780746767073
 20
49.65241402180991
 42
1.0
 10
239.6897126975406
 20
49.44536722819013
 42
1.0
 10
240.2502572938948
 20
49.44563594563805
 42
1.0
 97
        0
 72
     1
 10
240.2502572938948
 20
49.44563594563805
 11
240.2521383160301
 21
49.44563594563805
 72
     4
 94
        3
 73
     1
 74
     0
 95
        8
 96
        4
 40
5.0
 40
5.0
 40
5.0
 40
5.0
 40
6.0
 40
6.0
 40
6.0
 40
6.0
 10
240.2521383160301
 20
49.44563594563805
 42
1.0
 10
240.8120111187646
 20
49.44563594563805
 42
1.0
 10
241.3224399110823
 20
49.65241402180991
 42
1.0
 10
241.6913217877099
 20
50.05172814941409
 42
1.0
 97
        0
 72
     4
 94
        3
 73
     1
 74
     0
 95
        8
 96
        4
 40
6.0
 40
6.0
 40
6.0
 40
6.0
 40
7.0
 40
7.0
 40
7.0
 40
7.0
 10
241.6913217877099
 20
50.05172814941409
 42
1.0
 10
242.0604723817854
 20
50.45144535319012
 42
1.0
 10
242.2852545269677
 20
51.04101143391929
 42
1.0
 10
242.2852545269677
 20
51.79919771321618
 42
1.0
 97
        0
 72
     4
 94
        3
 73
     1
 74
     0
 95
        8
 96
        4
 40
7.0
 40
7.0
 40
7.0
 40
7.0
 40
8.0
 40
8.0
 40
8.0
 40
8.0
 10
242.2852545269677
 20
51.79919771321618
 42
1.0
 10
242.2852545269677
 20
52.55704809570316
 42
1.0
 10
242.0604723817854
 20
53.14695007324222
 42
1.0
 10
241.6913217877099
 20
53.54626420084637
 42
1.0
 97
        0
 72
     4
 94
        3
 73
     1
 74
     0
 95
        8
 96
        4
 40
8.0
 40
8.0
 40
8.0
 40
8.0
 40
9.0
 40
9.0
 40
9.0
 40
9.0
 10
241.6913217877099
 20
53.54626420084637
 42
1.0
 10
241.3222383729963
 20
53.94645166015629
 42
1.0
 10
240.8108690696109
 20
54.15289383951826
 42
1.0
 10
240.2502572938948
 20
54.1524235839844
 42
1.0
 97
        0
 72
     4
 94
        3
 73
     1
 74
     0
 95
        8
 96
        4
 40
0.0
 40
0.0
 40
0.0
 40
0.0
 40
1.0
 40
1.0
 40
1.0
 40
1.0
 10
240.2502572938948
 20
54.1524235839844
 42
1.0
 10
239.6897126975406
 20
54.15289383951826
 42
1.0
 10
239.1780746767073
 20
53.94645166015629
 42
1.0
 10
238.8093271588036
 20
53.54626420084637
 42
1.0
 97
        0
 72
     4
 94
        3
 73
     1
 74
     0
 95
        8
 96
        4
 40
1.0
 40
1.0
 40
1.0
 40
1.0
 40
2.0
 40
2.0
 40
2.0
 40
2.0
 10
238.8093271588036
 20
53.54626420084637
 42
1.0
 10
238.440310923452
 20
53.14695007324222
 42
1.0
 10
238.2155287782698
 20
52.55704809570316
 42
1.0
 10
238.2156631369937
 20
51.79919771321618
 42
1.0
 97
        0
 72
     4
 94
        3
 73
     1
 74
     0
 95
        8
 96
        4
 40
2.0
 40
2.0
 40
2.0
 40
2.0
 40
3.0
 40
3.0
 40
3.0
 40
3.0
 10
238.2156631369937
 20
51.79919771321618
 42
1.0
 10
238.2155287782698
 20
51.04101143391929
 42
1.0
 10
238.440310923452
 20
50.45144535319012
 42
1.0
 10
238.8093271588036
 20
50.05172814941409
 42
1.0
 97
        0
 97
        0
 92
        0
 93
        4
 72
     4
 94
        3
 73
     1
 74
     0
 95
        8
 96
        4
 40
1.0
 40
1.0
 40
1.0
 40
1.0
 40
2.0
 40
2.0
 40
2.0
 40
2.0
 10
238.8781860048323
 20
51.79919771321618
 42
1.0
 10
238.8819480491031
 20
52.89966284179692
 42
1.0
 10
239.475746429637
 20
53.52456526692712
 42
1.0
 10
240.2502572938948
 20
53.52637910970054
 42
1.0
 97
        0
 72
     4
 94
        3
 73
     1
 74
     0
 95
        8
 96
        4
 40
2.0
 40
2.0
 40
2.0
 40
2.0
 40
3.0
 40
3.0
 40
3.0
 40
3.0
 10
240.2502572938948
 20
53.52637910970054
 42
1.0
 10
241.0251712343245
 20
53.52456526692713
 42
1.0
 10
241.6187008974104
 20
52.89966284179692
 42
1.0
 10
241.6222614035953
 20
51.79919771321618
 42
1.0
 97
        0
 72
     4
 94
        3
 73
     1
 74
     0
 95
        8
 96
        4
 40
3.0
 40
3.0
 40
3.0
 40
3.0
 40
4.0
 40
4.0
 40
4.0
 40
4.0
 10
241.6222614035953
 20
51.79919771321618
 42
1.0
 10
241.6187008974104
 20
50.68979772949221
 42
1.0
 10
241.0255743104963
 20
50.07403169759117
 42
1.0
 10
240.2502572938948
 20
50.07161324055993
 42
1.0
 97
        0
 72
     4
 94
        3
 73
     1
 74
     0
 95
        8
 96
        4
 40
0.0
 40
0.0
 40
0.0
 40
0.0
 40
1.0
 40
1.0
 40
1.0
 40
1.0
 10
240.2502572938948
 20
50.07161324055993
 42
1.0
 10
239.4752761741031
 20
50.07403169759117
 42
1.0
 10
238.882216766551
 20
50.68979772949221
 42
1.0
 10
238.8781860048323
 20
51.79919771321618
 42
1.0
 97
        0
 97
        0
 75
     0
 76
     1
 98
        1
 10
0.0
 20
0.0
  0
HATCH
  5
12B
330
78
100
AcDbEntity
  8
0
  6
Continuous
 62
     7
100
AcDbHatch
 10
0.0
 20
0.0
 30
0.0
210
0.0
220
0.0
230
1.0
  2
SOLID
 70
     1
 71
     0
 91
        1
 92
        0
 93
        5
 72
     4
 94
        3
 73
     1
 74
     0
 95
        8
 96
        4
 40
0.0
 40
0.0
 40
0.0
 40
0.0
 40
1.0
 40
1.0
 40
1.0
 40
1.0
 10
236.0195897496424
 20
53.57185953776045
 42
1.0
 10
235.9188207066737
 20
53.57159082031254
 42
1.0
 10
235.8212090937179
 20
53.56117801920577
 42
1.0
 10
235.7273595250331
 20
53.54102421061203
 42
1.0
 97
        0
 72
     4
 94
        3
 73
     1
 74
     0
 95
       11
 96
        7
 40
1.0
 40
1.0
 40
1.0
 40
1.0
 40
2.0
 40
2.0
 40
2.0
 40
3.0
 40
3.0
 40
3.0
 40
3.0
 10
235.7273595250331
 20
53.54102421061203
 42
1.0
 10
236.3061097284836
 20
53.32248974609381
 42
1.0
 10
236.7050879592778
 20
52.70645499674485
 42
1.0
 10
236.7050879592778
 20
51.7957043863933
 42
1.0
 10
236.7050879592778
 20
50.87816866048182
 42
1.0
 10
236.3067815221034
 20
50.26656774902347
 42
1.0
 10
235.7287031122727
 20
50.04930969238286
 42
1.0
 97
        0
 72
     4
 94
        3
 73
     1
 74
     0
 95
        8
 96
        4
 40
3.0
 40
3.0
 40
3.0
 40
3.0
 40
4.0
 40
4.0
 40
4.0
 40
4.0
 10
235.7287031122727
 20
50.04930969238285
 42
1.0
 10
235.8220824254237
 20
50.029424601237
 42
1.0
 10
235.9193581415695
 20
50.01948205566409
 42
1.0
 10
236.0195897496424
 20
50.01907897949221
 42
1.0
 97
        0
 72
     4
 94
        3
 73
     1
 74
     0
 95
        8
 96
        4
 40
4.0
 40
4.0
 40
4.0
 40
4.0
 40
5.0
 40
5.0
 40
5.0
 40
5.0
 10
236.0195897496424
 20
50.01907897949221
 42
1.0
 10
236.8172103144211
 20
50.02109436035159
 42
1.0
 10
237.4267286656581
 20
50.65526753743492
 42
1.0
 10
237.4308937861008
 20
51.79570438639327
 42
1.0
 97
        0
 72
     4
 94
        3
 73
     1
 74
     0
 95
        8
 96
        4
 40
5.0
 40
5.0
 40
5.0
 40
5.0
 40
6.0
 40
6.0
 40
6.0
 40
6.0
 10
237.4308937861008
 20
51.79570438639327
 42
1.0
 10
237.4271317418299
 20
52.92707202148441
 42
1.0
 10
236.8167400588872
 20
53.57031441243492
 42
1.0
 10
236.0195897496424
 20
53.57185953776045
 42
1.0
 97
        0
 97
        0
 75
     0
 76
     1
 98
        1
 10
0.0
 20
0.0
  0
HATCH
  5
12C
330
78
100
AcDbEntity
  8
0
  6
Continuous
 62
     7
100
AcDbHatch
 10
0.0
 20
0.0
 30
0.0
210
0.0
220
0.0
230
1.0
  2
SOLID
 70
     1
 71
     0
 91
        2
 92
        0
 93
       18
 72
     4
 94
        3
 73
     1
 74
     0
 95
        8
 96
        4
 40
5.0
 40
5.0
 40
5.0
 40
5.0
 40
6.0
 40
6.0
 40
6.0
 40
6.0
 10
249.7665498150536
 20
49.44563594563805
 42
1.0
 10
249.7813292746891
 20
49.44563594563805
 42
1.0
 10
249.7922123313296
 20
49.44644209798179
 42
1.0
 10
249.8010128277489
 20
49.44644209798179
 42
1.0
 97
        0
 72
     4
 94
        3
 73
     1
 74
     0
 95
        8
 96
        4
 40
6.0
 40
6.0
 40
6.0
 40
6.0
 40
7.0
 40
7.0
 40
7.0
 40
7.0
 10
249.8010128277489
 20
49.44644209798179
 42
1.0
 10
249.8100148622541
 20
49.44644209798179
 42
1.0
 10
249.8223086854963
 20
49.44563594563805
 42
1.0
 10
249.8366850689599
 20
49.44563594563805
 42
1.0
 97
        0
 72
     1
 10
249.8366850689599
 20
49.44563594563805
 11
249.8415219830224
 21
49.44563594563805
 72
     4
 94
        3
 73
     1
 74
     0
 95
        8
 96
        4
 40
8.0
 40
8.0
 40
8.0
 40
8.0
 40
9.0
 40
9.0
 40
9.0
 40
9.0
 10
249.8415219830224
 20
49.44563594563805
 42
1.0
 10
250.7082029319156
 20
49.44563594563805
 42
1.0
 10
251.4525502626448
 20
49.94867500813804
 42
1.0
 10
251.7394061382958
 20
50.87978096516928
 42
1.0
 97
        0
 72
     1
 10
251.7394061382958
 20
50.87978096516928
 11
251.7625830181786
 21
50.95435005696617
 72
     1
 10
251.7625830181786
 20
50.95435005696617
 11
251.0299248964338
 21
50.95435005696617
 72
     1
 10
251.0299248964338
 20
50.95435005696617
 11
251.016354665314
 21
50.9159234619141
 72
     4
 94
        3
 73
     1
 74
     0
 95
        8
 96
        4
 40
12.0
 40
12.0
 40
12.0
 40
12.0
 40
13.0
 40
13.0
 40
13.0
 40
13.0
 10
251.016354665314
 20
50.9159234619141
 42
1.0
 10
250.8335596213687
 20
50.40294185384116
 42
1.0
 10
250.4579598085432
 20
50.0826306559245
 42
1.0
 10
249.8141799826968
 20
50.07188195800784
 42
1.0
 97
        0
 72
     1
 10
249.8141799826968
 20
50.07188195800784
 11
249.8012143658349
 21
50.07215067545575
 72
     4
 94
        3
 73
     1
 74
     0
 95
        8
 96
        4
 40
14.0
 40
14.0
 40
14.0
 40
14.0
 40
15.0
 40
15.0
 40
15.0
 40
15.0
 10
249.8012143658349
 20
50.07215067545575
 42
1.0
 10
248.8709145611474
 20
50.08155578613283
 42
1.0
 10
248.4738845318505
 20
50.74166019694015
 42
1.0
 10
248.4677712099104
 20
51.69896610514325
 42
1.0
 97
        0
 72
     1
 10
248.4677712099104
 20
51.69896610514325
 11
248.4676368511865
 21
51.75915881347657
 72
     1
 10
248.4676368511865
 20
51.75915881347657
 11
251.8036296083479
 21
51.75915881347657
 72
     1
 10
251.8036296083479
 20
51.75915881347657
 11
251.8015470481265
 21
51.81962023925784
 72
     4
 94
        3
 73
     1
 74
     0
 95
        8
 96
        4
 40
0.0
 40
0.0
 40
0.0
 40
0.0
 40
1.0
 40
1.0
 40
1.0
 40
1.0
 10
251.8015470481265
 20
51.81962023925784
 42
1.0
 10
251.7605004579573
 20
53.12733369954429
 42
1.0
 10
251.0964324647933
 20
54.1553122965495
 42
1.0
 10
249.7665498150536
 20
54.15289383951826
 42
1.0
 97
        0
 72
     4
 94
        3
 73
     1
 74
     0
 95
        8
 96
        4
 40
1.0
 40
1.0
 40
1.0
 40
1.0
 40
2.0
 40
2.0
 40
2.0
 40
2.0
 10
249.7665498150536
 20
54.15289383951826
 42
1.0
 10
249.2061395774234
 20
54.15289383951826
 42
1.0
 10
248.694904632762
 20
53.94645166015629
 42
1.0
 10
248.3258883974104
 20
53.54626420084637
 42
1.0
 97
        0
 72
     4
 94
        3
 73
     1
 74
     0
 95
        8
 96
        4
 40
2.0
 40
2.0
 40
2.0
 40
2.0
 40
3.0
 40
3.0
 40
3.0
 40
3.0
 10
248.3258883974104
 20
53.54626420084637
 42
1.0
 10
247.9568721620588
 20
53.14695007324222
 42
1.0
 10
247.7316869407047
 20
52.55704809570316
 42
1.0
 10
247.7320900168766
 20
51.79866027832033
 42
1.0
 97
        0
 72
     4
 94
        3
 73
     1
 74
     0
 95
        8
 96
        4
 40
3.0
 40
3.0
 40
3.0
 40
3.0
 40
4.0
 40
4.0
 40
4.0
 40
4.0
 10
247.7320900168766
 20
51.79866027832033
 42
1.0
 10
247.7316869407047
 20
51.04101143391929
 42
1.0
 10
247.9568721620588
 20
50.45144535319012
 42
1.0
 10
248.3258883974104
 20
50.05172814941409
 42
1.0
 97
        0
 72
     4
 94
        3
 73
     1
 74
     0
 95
        8
 96
        4
 40
4.0
 40
4.0
 40
4.0
 40
4.0
 40
5.0
 40
5.0
 40
5.0
 40
5.0
 10
248.3258883974104
 20
50.05172814941409
 42
1.0
 10
248.6946359153141
 20
49.65241402180991
 42
1.0
 10
249.2061395774234
 20
49.44536722819013
 42
1.0
 10
249.7665498150536
 20
49.44563594563805
 42
1.0
 97
        0
 97
        0
 92
        0
 93
        3
 72
     1
 10
251.0529674175927
 20
52.33072082519535
 11
248.4766388856916
 21
52.33072082519535
 72
     4
 94
        3
 73
     1
 74
     0
 95
        8
 96
        4
 40
0.0
 40
0.0
 40
0.0
 40
0.0
 40
1.0
 40
1.0
 40
1.0
 40
1.0
 10
248.4766388856916
 20
52.33072082519535
 42
1.0
 10
248.5873504742333
 20
53.00748571777345
 42
1.0
 10
249.0482008974104
 20
53.52537141927086
 42
1.0
 10
249.7665498150536
 20
53.52637910970056
 42
1.0
 97
        0
 72
     4
 94
        3
 73
     1
 74
     0
 95
        8
 96
        4
 40
1.0
 40
1.0
 40
1.0
 40
1.0
 40
2.0
 40
2.0
 40
2.0
 40
2.0
 10
249.7665498150536
 20
53.52637910970056
 42
1.0
 10
250.6097851666161
 20
53.52456526692713
 42
1.0
 10
250.922908172801
 20
52.93708174641929
 42
1.0
 10
251.0529674175927
 20
52.33072082519535
 42
1.0
 97
        0
 97
        0
 75
     0
 76
     1
 98
        1
 10
0.0
 20
0.0
  0
HATCH
  5
12D
330
78
100
AcDbEntity
  8
0
  6
Continuous
 62
     7
100
AcDbHatch
 10
0.0
 20
0.0
 30
0.0
210
0.0
220
0.0
230
1.0
  2
SOLID
 70
     1
 71
     0
 91
        1
 92
        0
 93
       13
 72
     4
 94
        3
 73
     1
 74
     0
 95
        8
 96
        4
 40
6.0
 40
6.0
 40
6.0
 40
6.0
 40
7.0
 40
7.0
 40
7.0
 40
7.0
 10
253.2143962099104
 20
52.16317549641928
 42
1.0
 10
253.219098765249
 20
53.12182499186201
 42
1.0
 10
253.7753438824364
 20
53.52167655436201
 42
1.0
 10
254.4043442486473
 20
53.52637910970056
 42
1.0
 97
        0
 72
     4
 94
        3
 73
     1
 74
     0
 95
        8
 96
        4
 40
7.0
 40
7.0
 40
7.0
 40
7.0
 40
8.0
 40
8.0
 40
8.0
 40
8.0
 10
254.4043442486473
 20
53.52637910970056
 42
1.0
 10
255.0787578635562
 20
53.51542887369794
 42
1.0
 10
255.4008829042463
 20
53.27620316569013
 42
1.0
 10
255.4121690370588
 20
52.409186319987
 42
1.0
 97
        0
 72
     1
 10
255.4121690370588
 20
52.409186319987
 11
255.4121690370588
 21
49.55486958821616
 72
     1
 10
255.4121690370588
 20
49.55486958821616
 11
256.0747590842593
 21
49.55486958821616
 72
     1
 10
256.0747590842593
 20
49.55486958821616
 11
256.0747590842593
 21
52.5733055013021
 72
     4
 94
        3
 73
     1
 74
     0
 95
        8
 96
        4
 40
11.0
 40
11.0
 40
11.0
 40
11.0
 40
12.0
 40
12.0
 40
12.0
 40
12.0
 10
256.0747590842593
 20
52.5733055013021
 42
1.0
 10
256.0747590842593
 20
53.03361848958336
 42
1.0
 10
255.9559859722802
 20
53.43037980143232
 42
1.0
 10
255.6924413352359
 20
53.71165979003909
 42
1.0
 97
        0
 72
     4
 94
        3
 73
     1
 74
     0
 95
        8
 96
        4
 40
12.0
 40
12.0
 40
12.0
 40
12.0
 40
13.0
 40
13.0
 40
13.0
 40
13.0
 10
255.6924413352359
 20
53.71165979003909
 42
1.0
 10
255.4291654156395
 20
53.99381311035158
 42
1.0
 10
255.0250815533349
 20
54.15316255696617
 42
1.0
 10
254.4773682151187
 20
54.1524235839844
 42
1.0
 97
        0
 72
     4
 94
        3
 73
     1
 74
     0
 95
        8
 96
        4
 40
0.0
 40
0.0
 40
0.0
 40
0.0
 40
1.0
 40
1.0
 40
1.0
 40
1.0
 10
254.4773682151187
 20
54.1524235839844
 42
1.0
 10
254.0052316591292
 20
54.15369999186201
 42
1.0
 10
253.5150910341292
 20
53.98333312988284
 42
1.0
 10
253.2143962099104
 20
53.53269396972657
 42
1.0
 97
        0
 72
     1
 10
253.2143962099104
 20
53.53269396972657
 11
253.2143962099104
 21
54.04325712076826
 72
     1
 10
253.2143962099104
 20
54.04325712076826
 11
252.5518733420718
 21
54.04325712076826
 72
     1
 10
252.5518733420718
 20
54.04325712076826
 11
252.5518733420718
 21
49.55486958821616
 72
     1
 10
252.5518733420718
 20
49.55486958821616
 11
253.2143962099104
 21
49.55486958821616
 72
     1
 10
253.2143962099104
 20
49.55486958821616
 11
253.2143962099104
 21
52.16317549641928
 97
        0
 75
     0
 76
     1
 98
        1
 10
0.0
 20
0.0
  0
HATCH
  5
12E
330
78
100
AcDbEntity
  8
0
  6
Continuous
 62
     7
100
AcDbHatch
 10
0.0
 20
0.0
 30
0.0
210
0.0
220
0.0
230
1.0
  2
SOLID
 70
     1
 71
     0
 91
        1
 92
        0
 93
       24
 72
     4
 94
        3
 73
     1
 74
     0
 95
        8
 96
        4
 40
11.0
 40
11.0
 40
11.0
 40
11.0
 40
12.0
 40
12.0
 40
12.0
 40
12.0
 10
258.3170718283999
 20
54.13750976562503
 42
1.0
 10
257.3694397483218
 20
54.10976468912763
 42
1.0
 10
256.8420817567854
 20
53.52429654947919
 42
1.0
 10
256.8442314963687
 20
52.87897159830732
 42
1.0
 97
        0
 72
     4
 94
        3
 73
     1
 74
     0
 95
        8
 96
        4
 40
12.0
 40
12.0
 40
12.0
 40
12.0
 40
13.0
 40
13.0
 40
13.0
 40
13.0
 10
256.8442314963687
 20
52.87897159830732
 42
1.0
 10
256.8418130393375
 20
51.96848970540368
 42
1.0
 10
257.5411501975406
 20
51.76144291178387
 42
1.0
 10
258.1843254091291
 20
51.63823596191408
 42
1.0
 97
        0
 72
     4
 94
        3
 73
     1
 74
     0
 95
        8
 96
        4
 40
13.0
 40
13.0
 40
13.0
 40
13.0
 40
14.0
 40
14.0
 40
14.0
 40
14.0
 10
258.1843254091291
 20
51.63823596191408
 42
1.0
 10
258.5088017274885
 20
51.5730719807943
 42
1.0
 10
258.8295160015771
 20
51.52094079589845
 42
1.0
 10
259.0598068544416
 20
51.40996048990888
 42
1.0
 97
        0
 72
     4
 94
        3
 73
     1
 74
     0
 95
        8
 96
        4
 40
14.0
 40
14.0
 40
14.0
 40
14.0
 40
15.0
 40
15.0
 40
15.0
 40
15.0
 10
259.0598068544416
 20
51.40996048990888
 42
1.0
 10
259.2900977073062
 20
51.29615865071617
 42
1.0
 10
259.4282184755354
 20
51.14339278157556
 42
1.0
 10
259.4309056500146
 20
50.83866719563805
 42
1.0
 97
        0
 72
     4
 94
        3
 73
     1
 74
     0
 95
        8
 96
        4
 40
15.0
 40
15.0
 40
15.0
 40
15.0
 40
16.0
 40
16.0
 40
16.0
 40
16.0
 10
259.4309056500146
 20
50.83866719563805
 42
1.0
 10
259.4306369325666
 20
50.17480074055992
 42
1.0
 10
258.8938738303531
 20
50.022975382487
 42
1.0
 10
258.4449813336083
 20
50.00443387858074
 42
1.0
 97
        0
 72
     4
 94
        3
 73
     1
 74
     0
 95
        8
 96
        4
 40
16.0
 40
16.0
 40
16.0
 40
16.0
 40
17.0
 40
17.0
 40
17.0
 40
17.0
 10
258.4449813336083
 20
50.00443387858074
 42
1.0
 10
258.0674333192854
 20
50.01249540201825
 42
1.0
 10
257.526908172801
 20
50.1397331136068
 42
1.0
 10
257.3465987652489
 20
50.7604704182943
 42
1.0
 97
        0
 72
     1
 10
257.3465987652489
 20
50.7604704182943
 11
257.3349095562646
 21
50.80265905761723
 72
     1
 10
257.3349095562646
 20
50.80265905761723
 11
256.6612349143375
 21
50.80265905761723
 72
     1
 10
256.6612349143375
 20
50.80265905761723
 11
256.6847476910302
 21
50.7275525309245
 72
     4
 94
        3
 73
     1
 74
     0
 95
        8
 96
        4
 40
20.0
 40
20.0
 40
20.0
 40
20.0
 40
21.0
 40
21.0
 40
21.0
 40
21.0
 10
256.6847476910302
 20
50.7275525309245
 42
1.0
 10
256.9378795269677
 20
49.9117263590495
 42
1.0
 10
257.6850483909
 20
49.45960925292972
 42
1.0
 10
258.397687062775
 20
49.43569340006511
 42
1.0
 97
        0
 72
     1
 10
258.397687062775
 20
49.43569340006511
 11
258.4476685080875
 21
49.43623083496097
 72
     4
 94
        3
 73
     1
 74
     0
 95
        8
 96
        4
 40
22.0
 40
22.0
 40
22.0
 40
22.0
 40
23.0
 40
23.0
 40
23.0
 40
23.0
 10
258.4476685080875
 20
49.43623083496097
 42
1.0
 10
259.4949947613427
 20
49.47237333170574
 42
1.0
 10
260.0955782574364
 20
50.09028910319014
 42
1.0
 10
260.0939659527489
 20
50.82039440917971
 42
1.0
 97
        0
 72
     4
 94
        3
 73
     1
 74
     0
 95
        8
 96
        4
 40
23.0
 40
23.0
 40
23.0
 40
23.0
 40
24.0
 40
24.0
 40
24.0
 40
24.0
 10
260.0939659527489
 20
50.82039440917971
 42
1.0
 10
260.0961156923323
 20
51.7381988525391
 42
1.0
 10
259.4008092958479
 20
51.98891223144533
 42
1.0
 10
258.7550812685041
 20
52.13281042480472
 42
1.0
 97
        0
 72
     4
 94
        3
 73
     1
 74
     0
 95
        8
 96
        4
 40
0.0
 40
0.0
 40
0.0
 40
0.0
 40
1.0
 40
1.0
 40
1.0
 40
1.0
 10
258.7550812685041
 20
52.13281042480472
 42
1.0
 10
258.4303362326968
 20
52.20764823404951
 42
1.0
 10
258.1084127300927
 20
52.26286966959638
 42
1.0
 10
257.8763752138166
 20
52.36605716959637
 42
1.0
 97
        0
 72
     4
 94
        3
 73
     1
 74
     0
 95
        8
 96
        4
 40
1.0
 40
1.0
 40
1.0
 40
1.0
 40
2.0
 40
2.0
 40
2.0
 40
2.0
 10
257.8763752138166
 20
52.36605716959637
 42
1.0
 10
257.6433971864729
 20
52.47173030598961
 42
1.0
 10
257.5089041037905
 20
52.6036705729167
 42
1.0
 10
257.5067543642073
 20
52.86090034993494
 42
1.0
 97
        0
 72
     4
 94
        3
 73
     1
 74
     0
 95
        8
 96
        4
 40
2.0
 40
2.0
 40
2.0
 40
2.0
 40
3.0
 40
3.0
 40
3.0
 40
3.0
 10
257.5067543642073
 20
52.86090034993494
 42
1.0
 10
257.5157563987125
 20
53.25866935221357
 42
1.0
 10
257.6615356142073
 20
53.52980525716148
 42
1.0
 10
258.3858634950666
 20
53.56460416666669
 42
1.0
 97
        0
 72
     4
 94
        3
 73
     1
 74
     0
 95
        8
 96
        4
 40
3.0
 40
3.0
 40
3.0
 40
3.0
 40
4.0
 40
4.0
 40
4.0
 40
4.0
 10
258.3858634950666
 20
53.56460416666669
 42
1.0
 10
258.8105714214989
 20
53.56124519856773
 42
1.0
 10
259.0927247418114
 20
53.38248091634117
 42
1.0
 10
259.2722279970197
 20
53.08124865722658
 42
1.0
 97
        0
 72
     1
 10
259.2722279970197
 20
53.08124865722658
 11
259.2890228375146
 21
53.05276460774744
 72
     1
 10
259.2890228375146
 20
53.05276460774744
 11
259.9476493023583
 21
53.05276460774744
 72
     1
 10
259.9476493023583
 20
53.05276460774744
 11
259.9116411643375
 21
53.13411881510418
 72
     4
 94
        3
 73
     1
 74
     0
 95
        8
 96
        4
 40
7.0
 40
7.0
 40
7.0
 40
7.0
 40
8.0
 40
8.0
 40
8.0
 40
8.0
 10
259.9116411643375
 20
53.13411881510418
 42
1.0
 10
259.6226355491031
 20
53.78965502929691
 42
1.0
 10
259.0584632672021
 20
54.14140616861981
 42
1.0
 10
258.4156911317854
 20
54.14039847819013
 42
1.0
 97
        0
 72
     4
 94
        3
 73
     1
 74
     0
 95
        8
 96
        4
 40
8.0
 40
8.0
 40
8.0
 40
8.0
 40
9.0
 40
9.0
 40
9.0
 40
9.0
 10
258.4156911317854
 20
54.14039847819013
 42
1.0
 10
258.3994337261864
 20
54.14039847819013
 42
1.0
 10
258.3858634950666
 20
54.13932360839846
 42
1.0
 10
258.3740399273583
 20
54.13932360839846
 42
1.0
 97
        0
 72
     1
 10
258.3740399273583
 20
54.13932360839846
 11
258.3170718283999
 21
54.13878617350262
 72
     1
 10
258.3170718283999
 20
54.13878617350262
 11
258.3170718283999
 21
54.13750976562503
 97
        0
 75
     0
 76
     1
 98
        1
 10
0.0
 20
0.0
  0
HATCH
  5
12F
330
78
100
AcDbEntity
  8
0
  6
Continuous
 62
     7
100
AcDbHatch
 10
0.0
 20
0.0
 30
0.0
210
0.0
220
0.0
230
1.0
  2
SOLID
 70
     1
 71
     0
 91
        1
 92
        0
 93
       15
 72
     4
 94
        3
 73
     1
 74
     0
 95
        8
 96
        4
 40
11.0
 40
11.0
 40
11.0
 40
11.0
 40
12.0
 40
12.0
 40
12.0
 40
12.0
 10
262.5853797711083
 20
49.44563594563805
 42
1.0
 10
263.5398641461083
 20
49.44563594563805
 42
1.0
 10
264.1459563498844
 20
49.87115002441409
 42
1.0
 10
264.4688203635562
 20
50.70296488444013
 42
1.0
 97
        0
 72
     1
 10
264.4688203635562
 20
50.70296488444013
 11
264.4999915875146
 21
50.78196781412763
 72
     1
 10
264.4999915875146
 20
50.78196781412763
 11
263.7743201194156
 21
50.78223653157553
 72
     1
 10
263.7743201194156
 20
50.78223653157553
 11
263.7591375836083
 21
50.74918428548179
 72
     4
 94
        3
 73
     1
 74
     0
 95
        8
 96
        4
 40
0.0
 40
0.0
 40
0.0
 40
0.0
 40
1.0
 40
1.0
 40
1.0
 40
1.0
 10
263.7591375836083
 20
50.74918428548179
 42
1.0
 10
263.573050750926
 20
50.36532141113282
 42
1.0
 10
263.234735483999
 20
50.0743004150391
 42
1.0
 10
262.5728844097802
 20
50.07161324055993
 42
1.0
 97
        0
 72
     4
 94
        3
 73
     1
 74
     0
 95
        8
 96
        4
 40
1.0
 40
1.0
 40
1.0
 40
1.0
 40
2.0
 40
2.0
 40
2.0
 40
2.0
 10
262.5728844097802
 20
50.07161324055993
 42
1.0
 10
261.9138548687646
 20
50.07376298014326
 42
1.0
 10
261.203097219025
 20
50.62154349772136
 42
1.0
 10
261.2008131207177
 20
51.79919771321618
 42
1.0
 97
        0
 72
     4
 94
        3
 73
     1
 74
     0
 95
        8
 96
        4
 40
2.0
 40
2.0
 40
2.0
 40
2.0
 40
3.0
 40
3.0
 40
3.0
 40
3.0
 10
261.2008131207177
 20
51.79919771321618
 42
1.0
 10
261.2039033713687
 20
52.97658321126303
 42
1.0
 10
261.9115707704573
 20
53.52355757649742
 42
1.0
 10
262.6275684104312
 20
53.52637910970056
 42
1.0
 97
        0
 72
     4
 94
        3
 73
     1
 74
     0
 95
        8
 96
        4
 40
3.0
 40
3.0
 40
3.0
 40
3.0
 40
4.0
 40
4.0
 40
4.0
 40
4.0
 10
262.6275684104312
 20
53.52637910970056
 42
1.0
 10
263.1397438661604
 20
53.52456526692713
 42
1.0
 10
263.5299216005354
 20
53.37381477864585
 42
1.0
 10
263.7028412782698
 20
53.01218827311202
 42
1.0
 97
        0
 72
     1
 10
263.7028412782698
 20
53.01218827311202
 11
263.7180238140771
 21
52.97839705403647
 72
     1
 10
263.7180238140771
 20
52.97839705403647
 11
264.4359024761864
 21
52.97369449869794
 72
     1
 10
264.4359024761864
 20
52.97369449869794
 11
264.4000286968895
 21
53.05558614095054
 72
     4
 94
        3
 73
     1
 74
     0
 95
        8
 96
        4
 40
7.0
 40
7.0
 40
7.0
 40
7.0
 40
8.0
 40
8.0
 40
8.0
 40
8.0
 10
264.4000286968895
 20
53.05558614095054
 42
1.0
 10
263.9996396994937
 20
53.97654801432294
 42
1.0
 10
263.2563672385562
 20
54.15558101399741
 42
1.0
 10
262.6999877626448
 20
54.1524235839844
 42
1.0
 97
        0
 72
     4
 94
        3
 73
     1
 74
     0
 95
        8
 96
        4
 40
8.0
 40
8.0
 40
8.0
 40
8.0
 40
9.0
 40
9.0
 40
9.0
 40
9.0
 10
262.6999877626448
 20
54.1524235839844
 42
1.0
 10
261.4113532411604
 20
54.15558101399741
 42
1.0
 10
260.5522635601708
 20
53.19773767089846
 42
1.0
 10
260.5381558941552
 20
51.799735148112
 42
1.0
 97
        0
 72
     4
 94
        3
 73
     1
 74
     0
 95
        8
 96
        4
 40
9.0
 40
9.0
 40
9.0
 40
9.0
 40
10.0
 40
10.0
 40
10.0
 40
10.0
 10
260.5381558941552
 20
51.799735148112
 42
1.0
 10
260.5538758648583
 20
50.3993141682943
 42
1.0
 10
261.4438680523583
 20
49.44469543457033
 42
1.0
 10
262.5728844097802
 20
49.44563594563805
 42
1.0
 97
        0
 72
     1
 10
262.5728844097802
 20
49.44563594563805
 11
262.5853797711083
 21
49.44563594563805
 97
        0
 75
     0
 76
     1
 98
        1
 10
0.0
 20
0.0
  0
HATCH
  5
130
330
78
100
AcDbEntity
  8
0
  6
Continuous
 62
     7
100
AcDbHatch
 10
0.0
 20
0.0
 30
0.0
210
0.0
220
0.0
230
1.0
  2
SOLID
 70
     1
 71
     0
 91
        1
 92
        0
 93
       13
 72
     4
 94
        3
 73
     1
 74
     0
 95
        8
 96
        4
 40
11.0
 40
11.0
 40
11.0
 40
11.0
 40
12.0
 40
12.0
 40
12.0
 40
12.0
 10
268.4404642437646
 20
52.5733055013021
 42
1.0
 10
268.4404642437646
 20
53.03361848958336
 42
1.0
 10
268.3216911317854
 20
53.43037980143232
 42
1.0
 10
268.0578105979312
 20
53.71165979003909
 42
1.0
 97
        0
 72
     4
 94
        3
 73
     1
 74
     0
 95
        8
 96
        4
 40
12.0
 40
12.0
 40
12.0
 40
12.0
 40
13.0
 40
13.0
 40
13.0
 40
13.0
 10
268.0578105979312
 20
53.71165979003909
 42
1.0
 10
267.7943331402489
 20
53.99354439290368
 42
1.0
 10
267.3903164573062
 20
54.15289383951826
 42
1.0
 10
266.842804657176
 20
54.15289383951826
 42
1.0
 97
        0
 72
     4
 94
        3
 73
     1
 74
     0
 95
        8
 96
        4
 40
0.0
 40
0.0
 40
0.0
 40
0.0
 40
1.0
 40
1.0
 40
1.0
 40
1.0
 10
266.842804657176
 20
54.15289383951826
 42
1.0
 10
266.3709368186343
 20
54.15369999186201
 42
1.0
 10
265.8797213238427
 20
53.98306441243492
 42
1.0
 10
265.5798326519676
 20
53.52537141927086
 42
1.0
 97
        0
 72
     1
 10
265.5798326519676
 20
53.52537141927086
 11
265.5798326519676
 21
55.23085388183598
 72
     1
 10
265.5798326519676
 20
55.23085388183598
 11
264.9174441428531
 21
55.23085388183598
 72
     1
 10
264.9174441428531
 20
55.23085388183598
 11
264.9174441428531
 21
49.55486958821616
 72
     1
 10
264.9174441428531
 20
49.55486958821616
 11
265.5798326519676
 21
49.55486958821616
 72
     1
 10
265.5798326519676
 20
49.55486958821616
 11
265.5798326519676
 21
52.16371293131513
 72
     4
 94
        3
 73
     1
 74
     0
 95
        8
 96
        4
 40
6.0
 40
6.0
 40
6.0
 40
6.0
 40
7.0
 40
7.0
 40
7.0
 40
7.0
 10
265.5798326519676
 20
52.16371293131513
 42
1.0
 10
265.5845352073062
 20
53.12182499186201
 42
1.0
 10
266.1406459657697
 20
53.52167655436201
 42
1.0
 10
266.7699822287906
 20
53.52637910970056
 42
1.0
 97
        0
 72
     4
 94
        3
 73
     1
 74
     0
 95
        8
 96
        4
 40
7.0
 40
7.0
 40
7.0
 40
7.0
 40
8.0
 40
8.0
 40
8.0
 40
8.0
 10
266.7699822287906
 20
53.52637910970056
 42
1.0
 10
267.4439255881656
 20
53.51516015625004
 42
1.0
 10
267.7661178082177
 20
53.27620316569013
 42
1.0
 10
267.7771352235823
 20
52.40972375488285
 42
1.0
 97
        0
 72
     1
 10
267.7771352235823
 20
52.40972375488285
 11
267.7771352235823
 21
49.55486958821616
 72
     1
 10
267.7771352235823
 20
49.55486958821616
 11
268.4404642437646
 21
49.55486958821616
 72
     1
 10
268.4404642437646
 20
49.55486958821616
 11
268.4404642437646
 21
52.5733055013021
 97
        0
 75
     0
 76
     1
 98
        1
 10
0.0
 20
0.0
  0
HATCH
  5
131
330
78
100
AcDbEntity
  8
0
  6
Continuous
 62
     7
100
AcDbHatch
 10
0.0
 20
0.0
 30
0.0
210
0.0
220
0.0
230
1.0
  2
SOLID
 70
     1
 71
     0
 91
        1
 92
        0
 93
       10
 72
     1
 10
277.2619165933788
 20
50.12670030336879
 11
279.6434249755404
 21
53.66691832094693
 72
     1
 10
279.6434249755404
 20
53.66691832094693
 11
279.6434249755404
 21
54.04325710675423
 72
     1
 10
279.6434249755404
 20
54.04325710675423
 11
276.3750146495663
 21
54.04325710675421
 72
     1
 10
276.3750146495663
 20
54.04325710675421
 11
276.3749694859434
 21
53.47177920441256
 72
     1
 10
276.3749694859434
 20
53.47177920441256
 11
278.7109302679779
 21
53.47177920441256
 72
     1
 10
278.7109302679779
 20
53.47177920441256
 11
276.374695463315
 21
50.00443387717682
 72
     1
 10
276.374695463315
 20
50.00443387717682
 11
276.3746599344662
 21
49.55486958821617
 72
     1
 10
276.3746599344662
 20
49.55486958821617
 11
279.6774157734232
 21
49.55486958821617
 72
     1
 10
279.6774157734232
 20
49.55486958821617
 11
279.6776899522288
 21
50.12670030336879
 72
     1
 10
279.6776899522288
 20
50.12670030336879
 11
277.2619165933788
 21
50.12670030336879
 97
        0
 75
     0
 76
     1
 98
        1
 10
0.0
 20
0.0
  0
HATCH
  5
132
330
78
100
AcDbEntity
  8
0
  6
Continuous
 62
     7
100
AcDbHatch
 10
0.0
 20
0.0
 30
0.0
210
0.0
220
0.0
230
1.0
  2
SOLID
 70
     1
 71
     0
 91
        1
 92
        0
 93
       18
 72
     4
 94
        3
 73
     1
 74
     0
 95
        8
 96
        4
 40
25.0
 40
25.0
 40
25.0
 40
25.0
 40
26.0
 40
26.0
 40
26.0
 40
26.0
 10
275.3033712434755
 20
50.09781320298818
 42
1.0
 10
275.1656535513739
 20
50.1014408868571
 42
1.0
 10
275.1203746608532
 20
50.1463167001075
 42
1.0
 10
275.0822167821244
 20
50.23862114300191
 42
1.0
 97
        0
 72
     4
 94
        3
 73
     1
 74
     0
 95
        8
 96
        4
 40
26.0
 40
26.0
 40
26.0
 40
26.0
 40
27.0
 40
27.0
 40
27.0
 40
27.0
 10
275.0822167821244
 20
50.23862114300191
 42
1.0
 10
275.0460742842386
 20
50.33226917316051
 42
1.0
 10
275.0419091620066
 20
50.47912325839622
 42
1.0
 10
275.0421778774671
 20
50.64223474928492
 42
1.0
 97
        0
 72
     1
 10
275.0421778774671
 20
50.64223474928492
 11
275.0421778774671
 21
53.47142639967554
 72
     1
 10
275.0421778774671
 20
53.47142639967554
 11
275.7691929911002
 21
53.47142639967554
 72
     1
 10
275.7691929911002
 20
53.47142639967554
 11
275.7689641250673
 21
54.0429543062504
 72
     1
 10
275.7689641250673
 20
54.0429543062504
 11
275.0419489884256
 21
54.04301176190589
 72
     1
 10
275.0419489884256
 20
54.04301176190589
 11
275.041473321865
 21
55.23085388183598
 72
     1
 10
275.041473321865
 20
55.23085388183598
 11
274.3795206484703
 21
55.23085388183598
 72
     1
 10
274.3795206484703
 20
55.23085388183598
 11
274.3795206484703
 21
54.04298840332037
 72
     1
 10
274.3795206484703
 20
54.04298840332037
 11
273.7919506048935
 21
54.04298840332037
 72
     1
 10
273.7919506048935
 20
54.04298840332037
 11
273.7919506048935
 21
53.47142639160163
 72
     1
 10
273.7919506048935
 20
53.47142639160163
 11
274.3795206484703
 21
53.47142639160163
 72
     1
 10
274.3795206484703
 20
53.47142639160163
 11
274.3795206484703
 21
50.27785388183599
 72
     4
 94
        3
 73
     1
 74
     0
 95
        8
 96
        4
 40
20.0
 40
20.0
 40
20.0
 40
20.0
 40
21.0
 40
21.0
 40
21.0
 40
21.0
 10
274.3795206484703
 20
50.27785388183599
 42
1.0
 10
274.3784457823096
 20
49.9798462320833
 42
1.0
 10
274.474780989773
 20
49.78408557244977
 42
1.0
 10
274.6302340347482
 20
49.67283655090634
 42
1.0
 97
        0
 72
     4
 94
        3
 73
     1
 74
     0
 95
        8
 96
        4
 40
21.0
 40
21.0
 40
21.0
 40
21.0
 40
22.0
 40
22.0
 40
22.0
 40
22.0
 10
274.6302340347482
 20
49.67283655090634
 42
1.0
 10
274.7848809273797
 20
49.56158752935308
 42
1.0
 10
274.9834631217241
 20
49.53417835208514
 42
1.0
 10
275.1847324902169
 20
49.53390963708953
 42
1.0
 97
        0
 72
     4
 94
        2
 73
     1
 74
     0
 95
        6
 96
        3
 40
22.0
 40
22.0
 40
22.0
 40
23.0
 40
23.0
 40
23.0
 10
275.1847324902169
 20
49.53390963708953
 42
1.0
 10
275.2214124218576
 20
49.53390963753644
 42
1.0
 10
275.769192939439
 20
49.53364092676277
 42
1.0
 97
        0
 72
     1
 10
275.769192939439
 20
49.53364092676277
 11
275.769192939439
 21
50.09781320866384
 72
     1
 10
275.769192939439
 20
50.09781320866384
 11
275.3033712434755
 21
50.09781320298818
 97
        0
 75
     0
 76
     1
 98
        1
 10
0.0
 20
0.0
  0
HATCH
  5
133
330
78
100
AcDbEntity
  8
0
  6
Continuous
 62
     7
100
AcDbHatch
 10
0.0
 20
0.0
 30
0.0
210
0.0
220
0.0
230
1.0
  2
SOLID
 70
     1
 71
     0
 91
        2
 92
        0
 93
       12
 72
     4
 94
        3
 73
     1
 74
     0
 95
        8
 96
        4
 40
10.0
 40
10.0
 40
10.0
 40
10.0
 40
11.0
 40
11.0
 40
11.0
 40
11.0
 10
269.7527528823119
 20
53.54626417133141
 42
1.0
 10
269.3842069065273
 20
53.14695004000491
 42
1.0
 10
269.1588873324072
 20
52.55704806019009
 42
1.0
 10
269.1588873400616
 20
51.79919767770311
 42
1.0
 97
        0
 72
     4
 94
        3
 73
     1
 74
     0
 95
        8
 96
        4
 40
11.0
 40
11.0
 40
11.0
 40
11.0
 40
12.0
 40
12.0
 40
12.0
 40
12.0
 10
269.1588873400616
 20
51.79919767770311
 42
1.0
 10
269.1588873477193
 20
51.04101139840623
 42
1.0
 10
269.3842069337522
 20
50.4514453199528
 42
1.0
 10
269.7527529176072
 20
50.05172811989913
 42
1.0
 97
        0
 72
     4
 94
        3
 73
     1
 74
     0
 95
        8
 96
        4
 40
12.0
 40
12.0
 40
12.0
 40
12.0
 40
13.0
 40
13.0
 40
13.0
 40
13.0
 10
269.7527529176072
 20
50.05172811989913
 42
1.0
 10
270.1217019776297
 20
49.65241399602138
 42
1.0
 10
270.6333400005543
 20
49.4453672075692
 42
1.0
 10
271.1938845969058
 20
49.44563593067868
 42
1.0
 97
        0
 72
     1
 10
271.1938845969058
 20
49.44563593067868
 11
271.1949594666974
 21
49.44563593067868
 72
     4
 94
        3
 73
     1
 74
     0
 95
        8
 96
        4
 40
14.0
 40
14.0
 40
14.0
 40
14.0
 40
15.0
 40
15.0
 40
15.0
 40
15.0
 10
271.1949594666974
 20
49.44563593067868
 42
1.0
 10
271.7330661561506
 20
49.44563593611291
 42
1.0
 10
272.2242816489937
 20
49.63857506867777
 42
1.0
 10
272.5890655808147
 20
50.00752412835124
 42
1.0
 97
        0
 72
     1
 10
272.5890655808147
 20
50.00752412835124
 11
272.6762643972355
 21
49.55486958821616
 72
     1
 10
272.6762643972355
 20
49.55486958821616
 11
273.2284787527034
 21
49.55486958821616
 72
     1
 10
273.2284787527034
 20
49.55486958821616
 11
273.2284787527034
 21
54.04325711952716
 72
     1
 10
273.2284787527034
 20
54.04325711952716
 11
272.5521168951743
 21
54.04325711952716
 72
     1
 10
272.5521168951743
 20
54.04325711952716
 11
272.5521168951743
 21
53.62640917844642
 72
     4
 94
        3
 73
     1
 74
     0
 95
        8
 96
        4
 40
8.0
 40
8.0
 40
8.0
 40
8.0
 40
9.0
 40
9.0
 40
9.0
 40
9.0
 10
272.5521168951743
 20
53.62640917844642
 42
1.0
 10
272.1912293591284
 20
53.97231570963218
 42
1.0
 10
271.7145246047004
 20
54.1528938298174
 42
1.0
 10
271.1938845493668
 20
54.15242356902503
 42
1.0
 97
        0
 72
     4
 94
        3
 73
     1
 74
     0
 95
        8
 96
        4
 40
9.0
 40
9.0
 40
9.0
 40
9.0
 40
10.0
 40
10.0
 40
10.0
 40
10.0
 10
271.1938845493668
 20
54.15242356902503
 42
1.0
 10
270.6333399530077
 20
54.15289381889733
 42
1.0
 10
270.1217019342595
 20
53.94645163436776
 42
1.0
 10
269.7527528823119
 20
53.54626417133141
 42
1.0
 97
        0
 97
        0
 92
        0
 93
        5
 72
     4
 94
        3
 73
     1
 74
     0
 95
        8
 96
        4
 40
3.0
 40
3.0
 40
3.0
 40
3.0
 40
4.0
 40
4.0
 40
4.0
 40
4.0
 10
271.1605892956841
 20
53.52637906439517
 42
1.0
 10
271.9350329805802
 20
53.524565221705
 42
1.0
 10
272.5287641818192
 20
52.89966279663861
 42
1.0
 10
272.5327949436563
 20
51.7991976680583
 42
1.0
 97
        0
 72
     4
 94
        3
 73
     1
 74
     0
 95
        8
 96
        4
 40
4.0
 40
4.0
 40
4.0
 40
4.0
 40
5.0
 40
5.0
 40
5.0
 40
5.0
 10
272.5327949436563
 20
51.7991976680583
 42
1.0
 10
272.5287641820568
 20
50.6897976843339
 42
1.0
 10
271.9355704158469
 20
50.07403165236909
 42
1.0
 10
271.1605892960555
 20
50.07188191270246
 42
1.0
 97
        0
 72
     4
 94
        3
 73
     1
 74
     0
 95
        8
 96
        4
 40
0.0
 40
0.0
 40
0.0
 40
0.0
 40
1.0
 40
1.0
 40
1.0
 40
1.0
 10
271.1605892960555
 20
50.07188191270246
 42
1.0
 10
270.3854738175397
 20
50.07403165220246
 42
1.0
 10
269.7921456924734
 20
50.68979768403972
 42
1.0
 10
269.7885180068072
 20
51.79919766776329
 42
1.0
 97
        0
 72
     1
 10
269.7885180068072
 20
51.79919766776329
 11
269.7882492893593
 21
51.79919766776327
 72
     4
 94
        3
 73
     1
 74
     0
 95
        8
 96
        4
 40
2.0
 40
2.0
 40
2.0
 40
2.0
 40
3.0
 40
3.0
 40
3.0
 40
3.0
 10
269.7882492893593
 20
51.79919766776327
 42
1.0
 10
269.7921456922359
 20
52.89966279634443
 42
1.0
 10
270.3860112520646
 20
53.52456522153849
 42
1.0
 10
271.1605892956841
 20
53.52637906439517
 42
1.0
 97
        0
 97
        0
 75
     0
 76
     1
 98
        1
 10
0.0
 20
0.0
  0
ENDBLK
  5
7A
330
78
100
AcDbEntity
  8
0
100
AcDbBlockEnd
  0
ENDSEC
  0
SECTION
  2
ENTITIES
  0
SPLINE
  5
134
330
1F
100
AcDbEntity
  8
0
  6
SLD-Durchgehend
 62
     7
370
    25
100
AcDbSpline
210
0.0
220
0.0
230
1.0
 70
     8
 71
     3
 72
    12
 73
     8
 74
     0
 42
0.00000001
 43
0.00000001
 40
0.0
 40
0.0
 40
0.0
 40
0.0
 40
0.134477257385762
 40
0.3890819816670621
 40
0.6434137652873578
 40
0.8967893355552484
 40
1.0
 40
1.0
 40
1.0
 40
1.0
 10
132.4308799863077
 20
159.0607169132041
 30
0.0
 10
132.533345558333
 20
159.0205341759013
 30
0.0
 10
132.8298083847711
 20
158.9042737809283
 30
0.0
 10
133.3149526219054
 20
158.7645180892312
 30
0.0
 10
133.8757173604207
 20
158.6723534804634
 30
0.0
 10
134.3156650225686
 20
158.6446318710429
 30
0.0
 10
134.5578829033848
 20
158.6740460947267
 30
0.0
 10
134.6279906809314
 20
158.682559776061
 30
0.0
  0
LINE
  5
135
330
1F
100
AcDbEntity
  8
0
  6
SLD-Durchgehend
 62
     7
370
    25
100
AcDbLine
 10
135.9421182266
 20
159.0790304425
 30
0.0
 11
137.8866618749
 21
160.2015915962
 31
0.0
  0
ARC
  5
136
330
1F
100
AcDbEntity
  8
0
  6
SLD-Durchgehend
 62
     7
370
    25
100
AcDbCircle
 10
126.1105327237
 20
160.5954861734
 30
0.0
 40
0.2500000000000345
100
AcDbArc
 50
240.0026882664
 51
298.2655680998
  0
LINE
  5
137
330
1F
100
AcDbEntity
  8
0
  6
SLD-Durchgehend
 62
     7
370
    25
100
AcDbLine
 10
126.2289224739
 20
160.3752956489
 30
0.0
 11
126.8539360399
 21
160.7113464399
 31
0.0
  0
LINE
  5
138
330
1F
100
AcDbEntity
  8
0
  6
SLD-Durchgehend
 62
     7
370
    25
100
AcDbLine
 10
119.6215280036
 20
164.0528415467
 30
0.0
 11
125.9855428822
 21
160.3789739578
 31
0.0
  0
LINE
  5
139
330
1F
100
AcDbEntity
  8
0
  6
SLD-Durchgehend
 62
     7
370
    25
100
AcDbLine
 10
130.3502337592
 20
162.5911994193
 30
0.0
 11
131.9933932854
 21
163.4746763366
 31
0.0
  0
SPLINE
  5
13A
330
1F
100
AcDbEntity
  8
0
  6
SLD-Durchgehend
 62
     7
370
    25
100
AcDbSpline
210
0.0
220
0.0
230
1.0
 70
     8
 71
     3
 72
     9
 73
     5
 74
     0
 42
0.00000001
 43
0.00000001
 40
0.0
 40
0.0
 40
0.0
 40
0.0
 40
0.7171006363741893
 40
1.0
 40
1.0
 40
1.0
 40
1.0
 10
131.9931342586301
 20
163.4713094185329
 30
0.0
 10
132.0066373935819
 20
163.4766448211738
 30
0.0
 10
132.025467574824
 20
163.4840850636868
 30
0.0
 10
132.022529055588
 20
163.4840540778597
 30
0.0
 10
132.0216977503661
 20
163.4840453119889
 30
0.0
  0
SPLINE
  5
13B
330
1F
100
AcDbEntity
  8
0
  6
SLD-Durchgehend
 62
     7
370
    25
100
AcDbSpline
210
0.0
220
0.0
230
1.0
 70
     8
 71
     3
 72
     9
 73
     5
 74
     0
 42
0.00000001
 43
0.00000001
 40
0.0
 40
0.0
 40
0.0
 40
0.0
 40
0.3904386231696587
 40
1.0
 40
1.0
 40
1.0
 40
1.0
 10
119.5910555302416
 20
164.0670082883479
 30
0.0
 10
119.5901842306854
 20
164.0672954916285
 30
0.0
 10
119.5879526390742
 20
164.0680310829958
 30
0.0
 10
119.6088125857644
 20
164.0585940174153
 30
0.0
 10
119.6215280035894
 20
164.0528415467269
 30
0.0
  0
ARC
  5
13C
330
1F
100
AcDbEntity
  8
0
  6
SLD-Durchgehend
 62
     7
370
    25
100
AcDbCircle
 10
119.3930183025
 20
162.0238022689
 30
0.0
 40
0.2500000000000088
100
AcDbArc
 50
240.0026882663
 51
298.2655680998
  0
LINE
  5
13D
330
1F
100
AcDbEntity
  8
0
  6
SLD-Durchgehend
 62
     7
370
    25
100
AcDbLine
 10
119.5114080526
 20
161.8036117444
 30
0.0
 11
121.5857481926
 21
162.9189213678
 31
0.0
  0
LINE
  5
13E
330
1F
100
AcDbEntity
  8
0
  6
SLD-Durchgehend
 62
     7
370
    25
100
AcDbLine
 10
104.8741927815
 20
170.1166745208
 30
0.0
 11
119.2680284609
 21
161.8072900533
 31
0.0
  0
SPLINE
  5
13F
330
1F
100
AcDbEntity
  8
0
  6
SLD-Durchgehend
 62
     7
370
    25
100
AcDbSpline
210
0.0
220
0.0
230
1.0
 70
     8
 71
     3
 72
    11
 73
     7
 74
     0
 42
0.00000001
 43
0.00000001
 40
0.0
 40
0.0
 40
0.0
 40
0.0
 40
0.171328046264542
 40
0.4661107296297886
 40
0.743422634993435
 40
1.0
 40
1.0
 40
1.0
 40
1.0
 10
131.7397056397581
 20
159.0569416883233
 30
0.0
 10
131.7670697010257
 20
159.0757809877482
 30
0.0
 10
131.8415156708548
 20
159.1270347071018
 30
0.0
 10
131.9970721325861
 20
159.1520718648301
 30
0.0
 10
132.2025939210557
 20
159.1411728785781
 30
0.0
 10
132.3567806701966
 20
159.0868320946309
 30
0.0
 10
132.4308799863077
 20
159.0607169132041
 30
0.0
  0
ARC
  5
140
330
1F
100
AcDbEntity
  8
0
  6
SLD-Durchgehend
 62
     7
370
    25
100
AcDbCircle
 10
104.9991826231
 20
179.0799027234
 30
0.0
 40
0.25
100
AcDbArc
 50
120.8559601979
 51
180.0
  0
LINE
  5
141
330
1F
100
AcDbEntity
  8
0
  6
SLD-Durchgehend
 62
     7
370
    25
100
AcDbLine
 10
108.052942749
 20
181.1955732981
 30
0.0
 11
104.8709622337
 21
179.2945175685
 31
0.0
  0
LINE
  5
142
330
1F
100
AcDbEntity
  8
0
  6
SLD-Durchgehend
 62
     7
370
    25
100
AcDbLine
 10
104.7491826231
 20
179.0799027234
 30
0.0
 11
104.7491826231
 21
170.3331867364
 31
0.0
  0
SPLINE
  5
143
330
1F
100
AcDbEntity
  8
0
  6
SLD-Durchgehend
 62
     7
370
    25
100
AcDbSpline
210
0.0
220
0.0
230
1.0
 70
     8
 71
     3
 72
     9
 73
     5
 74
     0
 42
0.00000001
 43
0.00000001
 40
0.0
 40
0.0
 40
0.0
 40
0.0
 40
0.5149365495982333
 40
1.0
 40
1.0
 40
1.0
 40
1.0
 10
108.0829269438227
 20
181.2186417804443
 30
0.0
 10
108.0828440437992
 20
181.217906205338
 30
0.0
 10
108.0826830530451
 20
181.2164777281659
 30
0.0
 10
108.0626567679424
 20
181.20240127234
 30
0.0
 10
108.0529427489917
 20
181.1955732981077
 30
0.0
  0
ARC
  5
144
330
1F
100
AcDbEntity
  8
0
  6
SLD-Durchgehend
 62
     7
370
    25
100
AcDbCircle
 10
104.9991826231
 20
170.3331867364
 30
0.0
 40
0.2500000000000088
100
AcDbArc
 50
180.0
 51
240.0026882663
  0
SPLINE
  5
145
330
1F
100
AcDbEntity
  8
0
  6
SLD-Durchgehend
 62
     7
370
    25
100
AcDbSpline
210
0.0
220
0.0
230
1.0
 70
     8
 71
     3
 72
    14
 73
    10
 74
     0
 42
0.00000001
 43
0.00000001
 40
0.0
 40
0.0
 40
0.0
 40
0.0
 40
0.0847591536653618
 40
0.2455001561567943
 40
0.4063171616114969
 40
0.5664136523667884
 40
0.7248780899055716
 40
0.8809376865739202
 40
1.0
 40
1.0
 40
1.0
 40
1.0
 10
127.6783864747887
 20
142.9521554931981
 30
0.0
 10
127.7582695623555
 20
142.9079165898113
 30
0.0
 10
127.9896464653075
 20
142.7797810761821
 30
0.0
 10
128.3734765147832
 20
142.6188354306184
 30
0.0
 10
128.8222733914058
 20
142.4962059649683
 30
0.0
 10
129.2575626018917
 20
142.4485025916958
 30
0.0
 10
129.6689490052229
 20
142.4790704434291
 30
0.0
 10
130.0254519995983
 20
142.5692039237382
 30
0.0
 10
130.2245308978057
 20
142.6810166811586
 30
0.0
 10
130.3106846838373
 20
142.7294049958677
 30
0.0
  0
LINE
  5
146
330
1F
100
AcDbEntity
  8
0
  6
SLD-Durchgehend
 62
     7
370
    25
100
AcDbLine
 10
130.303173148
 20
142.7169922533
 30
0.0
 11
132.2477167962
 21
143.8395534071
 31
0.0
  0
LINE
  5
147
330
1F
100
AcDbEntity
  8
0
  6
SLD-Durchgehend
 62
     7
370
    25
100
AcDbLine
 10
102.0457656568
 20
175.7602674391
 30
0.0
 11
104.7491826231
 21
174.1996180438
 31
0.0
  0
ARC
  5
148
330
1F
100
AcDbEntity
  8
0
  6
SLD-Durchgehend
 62
     7
370
    25
100
AcDbCircle
 10
98.2816682018
 20
174.2111252675
 30
0.0
 40
0.2500000000000013
100
AcDbArc
 50
240.0026882663
 51
299.1235458709
  0
LINE
  5
149
330
1F
100
AcDbEntity
  8
0
  6
SLD-Durchgehend
 62
     7
370
    25
100
AcDbLine
 10
98.4033418065
 20
173.9927321955
 30
0.0
 11
101.5853223218
 21
175.7655129691
 31
0.0
  0
LINE
  5
14A
330
1F
100
AcDbEntity
  8
0
  6
SLD-Durchgehend
 62
     7
370
    25
100
AcDbLine
 10
83.7628426809
 20
182.3039975194
 30
0.0
 11
98.1566783603
 21
173.9946130519
 31
0.0
  0
LINE
  5
14B
330
1F
100
AcDbEntity
  8
0
  6
SLD-Durchgehend
 62
     7
370
    25
100
AcDbLine
 10
87.3732999472
 20
166.2197866801
 30
0.0
 11
127.6783864748
 21
142.9521554932
 31
0.0
  0
SPLINE
  5
14C
330
1F
100
AcDbEntity
  8
0
  6
SLD-Durchgehend
 62
     7
370
    25
100
AcDbSpline
210
0.0
220
0.0
230
1.0
 70
     8
 71
     3
 72
    13
 73
     9
 74
     0
 42
0.00000001
 43
0.00000001
 40
0.0
 40
0.0
 40
0.0
 40
0.0
 40
0.1282852473786527
 40
0.2874351764145391
 40
0.4631552387434785
 40
0.6500144218999513
 40
0.8374105788648188
 40
1.0
 40
1.0
 40
1.0
 40
1.0
 10
101.585322321829
 20
175.7655129690611
 30
0.0
 10
101.598407264617
 20
175.7720055865031
 30
0.0
 10
101.6277253110447
 20
175.7865529072432
 30
0.0
 10
101.7010047806563
 20
175.8063566189786
 30
0.0
 10
101.79568956418
 20
175.816021150028
 30
0.0
 10
101.8982918864525
 20
175.8099234564878
 30
0.0
 10
101.9901677760382
 20
175.7881065594234
 30
0.0
 10
102.0281299405221
 20
175.7690980423541
 30
0.0
 10
102.0457656567764
 20
175.7602674390941
 30
0.0
  0
SPLINE
  5
14D
330
1F
100
AcDbEntity
  8
0
  6
SLD-Durchgehend
 62
     7
370
    25
100
AcDbSpline
210
0.0
220
0.0
230
1.0
 70
     8
 71
     3
 72
    13
 73
     9
 74
     0
 42
0.00000001
 43
0.00000001
 40
0.0
 40
0.0
 40
0.0
 40
0.0
 40
0.0737607017399859
 40
0.280050125681986
 40
0.4881579181064707
 40
0.7016011618914894
 40
0.9204286456029703
 40
1.0
 40
1.0
 40
1.0
 40
1.0
 10
77.534003777589
 20
194.3131980271462
 30
0.0
 10
77.50317409196349
 20
194.2946102128955
 30
0.0
 10
77.38612182523482
 20
194.22403713544
 30
0.0
 10
77.22840376668826
 20
194.0346730178886
 30
0.0
 10
77.0680118042735
 20
193.7561022722452
 30
0.0
 10
76.96414160477437
 20
193.423320285698
 30
0.0
 10
76.92397666426737
 20
193.1297851594567
 30
0.0
 10
76.92108831224121
 20
192.9483900371081
 30
0.0
 10
76.92031810119026
 20
192.9000190191182
 30
0.0
  0
LINE
  5
14E
330
1F
100
AcDbEntity
  8
0
  6
SLD-Durchgehend
 62
     7
370
    25
100
AcDbLine
 10
83.1512754855
 20
197.7993410517
 30
0.0
 11
77.5845907058
 21
194.3573848518
 31
0.0
  0
SPLINE
  5
14F
330
1F
100
AcDbEntity
  8
0
  6
SLD-Durchgehend
 62
     7
370
    25
100
AcDbSpline
210
0.0
220
0.0
230
1.0
 70
     8
 71
     3
 72
    13
 73
     9
 74
     0
 42
0.00000001
 43
0.00000001
 40
0.0
 40
0.0
 40
0.0
 40
0.0
 40
0.1283810488669559
 40
0.2887971399339441
 40
0.4650087441982624
 40
0.6516490038069472
 40
0.8384040962610904
 40
1.0
 40
1.0
 40
1.0
 40
1.0
 10
83.40934313818354
 20
184.9576908972958
 30
0.0
 10
83.42178258411681
 20
184.9496924533829
 30
0.0
 10
83.44976550246494
 20
184.9316997064286
 30
0.0
 10
83.5044824249574
 20
184.8786332793029
 30
0.0
 10
83.56094555369897
 20
184.8021444387433
 30
0.0
 10
83.60724225938172
 20
184.7114107182534
 30
0.0
 10
83.63420432857576
 20
184.6224949097914
 30
0.0
 10
83.63668279242168
 20
184.5811181400095
 30
0.0
 10
83.63783252246246
 20
184.5619239462802
 30
0.0
  0
LINE
  5
150
330
1F
100
AcDbEntity
  8
0
  6
SLD-Durchgehend
 62
     7
370
    25
100
AcDbLine
 10
83.6378325225
 20
184.5619239463
 30
0.0
 11
83.6378325225
 21
182.520509735
 31
0.0
  0
LINE
  5
151
330
1F
100
AcDbEntity
  8
0
  6
SLD-Durchgehend
 62
     7
370
    25
100
AcDbLine
 10
77.0453282596
 20
188.6315584862
 30
0.0
 11
83.4093431382
 21
184.9576908973
 31
0.0
  0
ARC
  5
152
330
1F
100
AcDbEntity
  8
0
  6
SLD-Durchgehend
 62
     7
370
    25
100
AcDbCircle
 10
83.8878325225
 20
182.520509735
 30
0.0
 40
0.2500000000000017
100
AcDbArc
 50
180.0
 51
240.0026882664
  0
LINE
  5
153
330
1F
100
AcDbEntity
  8
0
  6
SLD-Durchgehend
 62
     7
370
    25
100
AcDbLine
 10
76.9203181012
 20
192.9000190191
 30
0.0
 11
76.9203181012
 21
188.8480707018
 31
0.0
  0
SPLINE
  5
154
330
1F
100
AcDbEntity
  8
0
  6
SLD-Durchgehend
 62
     7
370
    25
100
AcDbSpline
210
0.0
220
0.0
230
1.0
 70
     8
 71
     3
 72
    18
 73
    14
 74
     0
 42
0.00000001
 43
0.00000001
 40
0.0
 40
0.0
 40
0.0
 40
0.0
 40
0.0554359079292082
 40
0.1586696375700499
 40
0.2626183121805131
 40
0.3671455727512623
 40
0.4720539777158057
 40
0.577162768439526
 40
0.6823394158005959
 40
0.7874904207454742
 40
0.8925860150047518
 40
0.9976179431766422
 40
1.0
 40
1.0
 40
1.0
 40
1.0
 10
78.35762785526892
 20
200.6180812572208
 30
0.0
 10
78.3035341850781
 20
200.5435699625873
 30
0.0
 10
78.14870632413701
 20
200.330302415324
 30
0.0
 10
77.94885406411058
 20
199.9163577971237
 30
0.0
 10
77.75623868074072
 20
199.38526305928
 30
0.0
 10
77.62050983962608
 20
198.802673599768
 30
0.0
 10
77.54000865483815
 20
198.1777117766258
 30
0.0
 10
77.5162358135548
 20
197.5155638296158
 30
0.0
 10
77.54960433423166
 20
196.8229796823602
 30
0.0
 10
77.63756870500207
 20
196.1066075955834
 30
0.0
 10
77.78675356692223
 20
195.3729032772503
 30
0.0
 10
77.90820995364295
 20
194.8715806528524
 30
0.0
 10
77.99338574830115
 20
194.6169627737003
 30
0.0
 10
77.9952746418457
 20
194.6113162626207
 30
0.0
  0
LINE
  5
155
330
1F
100
AcDbEntity
  8
0
  6
SLD-Durchgehend
 62
     7
370
    25
100
AcDbLine
 10
81.3040915268
 20
202.6822980587
 30
0.0
 11
79.3595478785
 21
201.5597369049
 31
0.0
  0
ARC
  5
156
330
1F
100
AcDbEntity
  8
0
  6
SLD-Durchgehend
 62
     7
370
    25
100
AcDbCircle
 10
77.1703181012
 20
188.8480707018
 30
0.0
 40
0.2500000000000017
100
AcDbArc
 50
180.0
 51
240.0026882664
  0
LINE
  5
157
330
1F
100
AcDbEntity
  8
0
  6
SLD-Durchgehend
 62
     7
370
    25
100
AcDbLine
 10
83.8895325781
 20
182.2308609985
 30
0.0
 11
83.8895325781
 21
172.2538370178
 31
0.0
  0
SPLINE
  5
158
330
1F
100
AcDbEntity
  8
0
  6
SLD-Durchgehend
 62
     7
370
    25
100
AcDbSpline
210
0.0
220
0.0
230
1.0
 70
     8
 71
     3
 72
    20
 73
    16
 74
     0
 42
0.00000001
 43
0.00000001
 40
0.0
 40
0.0
 40
0.0
 40
0.0
 40
0.0431381045360772
 40
0.1247168871432572
 40
0.2062306621538409
 40
0.2876464928234463
 40
0.3689729667112291
 40
0.4502370511482411
 40
0.531473321797888
 40
0.6127194365420379
 40
0.6940030498238166
 40
0.7753625631163369
 40
0.8568372802920996
 40
0.9384621330087184
 40
1.0
 40
1.0
 40
1.0
 40
1.0
 10
83.88953257809901
 20
172.2538370177768
 30
0.0
 10
83.89115255492776
 20
172.1610007739323
 30
0.0
 10
83.89583608169602
 20
171.8926012354991
 30
0.0
 10
83.94750927707123
 20
171.4285809491523
 30
0.0
 10
84.06171032416223
 20
170.8628816919135
 30
0.0
 10
84.23030103897281
 20
170.28870023197
 30
0.0
 10
84.4493543510854
 20
169.7153951264559
 30
0.0
 10
84.71555545922344
 20
169.1515372069244
 30
0.0
 10
85.02465080217522
 20
168.6057406992439
 30
0.0
 10
85.37191022684712
 20
168.0863094416565
 30
0.0
 10
85.75209599501746
 20
167.6013202033449
 30
0.0
 10
86.15956309103689
 20
167.1578995342142
 30
0.0
 10
86.58845647913677
 20
166.7643374574551
 30
0.0
 10
86.9957510079462
 20
166.450113787076
 30
0.0
 10
87.25979975265977
 20
166.2890284888737
 30
0.0
 10
87.37329994715559
 20
166.2197866801454
 30
0.0
  0
ARC
  5
159
330
1F
100
AcDbEntity
  8
0
  6
SLD-Durchgehend
 62
     7
370
    25
100
AcDbCircle
 10
134.457689624
 20
161.6497484779
 30
0.0
 40
2.964625978632469
100
AcDbArc
 50
274.6570107762
 51
324.6116648662
  0
LWPOLYLINE
  5
15A
330
1F
100
AcDbEntity
  8
0
  6
SLD-Durchgehend
 62
     7
370
    25
100
AcDbPolyline
 90
       24
 70
   128
 43
0.0
 10
137.8866618749
 20
160.2015915962
 10
138.2195288234
 20
160.4265254168
 10
138.5964339588
 20
160.7790494575
 10
138.9203748405
 20
161.2040228491
 10
139.1878919381
 20
161.6969070832
 10
139.3961282999
 20
162.2524383973
 10
139.5428600631
 20
162.8646839882
 10
139.6265202044
 20
163.5271053722
 10
139.6462152742
 20
164.2326282127
 10
139.6017349388
 20
164.9737178705
 10
139.4935542264
 20
165.7424598701
 10
139.3228284543
 20
166.5306444227
 10
139.0913808902
 20
167.3298541023
 10
138.8016832811
 20
168.1315537402
 10
138.4568294558
 20
168.927181576
 10
138.0605022846
 20
169.708240693
 10
137.6169343482
 20
170.4663897618
 10
137.1308627352
 20
171.1935321206
 10
136.6074784531
 20
171.8819022443
 10
136.0523709901
 20
172.5241486765
 10
135.4714686228
 20
173.1134125391
 10
134.8709751046
 20
173.643400782
 10
134.2573034128
 20
174.1084533896
 10
133.6370072612
 20
174.5036038275
  0
LWPOLYLINE
  5
15B
330
1F
100
AcDbEntity
  8
0
  6
SLD-Durchgehend
 62
     7
370
    25
100
AcDbPolyline
 90
       19
 70
   128
 43
0.0
 10
106.5901728808
 20
173.7881187791
 10
106.5581900632
 20
174.0160371208
 10
106.4660992102
 20
174.253391722
 10
106.3250078378
 20
174.4715541148
 10
106.1519336479
 20
174.6442106949
 10
105.9677519419
 20
174.7505365305
 10
105.7946777519
 20
174.7777071568
 10
105.6535863796
 20
174.7224453951
 10
105.5614955266
 20
174.5914166295
 10
105.529512709
 20
174.400424863
 10
105.5614955266
 20
174.1725065213
 10
105.6535863796
 20
173.9351519201
 10
105.7946777519
 20
173.7169895273
 10
105.9677519419
 20
173.5443329472
 10
106.1519336479
 20
173.4380071116
 10
106.3250078378
 20
173.4108364853
 10
106.4660992102
 20
173.466098247
 10
106.5581900632
 20
173.5971270126
 10
106.5901728808
 20
173.7881187791
  0
LWPOLYLINE
  5
15C
330
1F
100
AcDbEntity
  8
0
  6
SLD-Durchgehend
 62
     7
370
    25
100
AcDbPolyline
 90
       23
 70
   128
 43
0.0
 10
113.8380173879
 20
165.7254583496
 10
114.2908604304
 20
165.5014380622
 10
114.7344848943
 20
165.3567790548
 10
115.1598598651
 20
165.2944261677
 10
115.5583259349
 20
165.3156487258
 10
115.9217714836
 20
165.420014699
 10
116.242797808
 20
165.6053994971
 10
116.5148697379
 20
165.8680292203
 10
116.7324486733
 20
166.2025574846
 10
116.8911053346
 20
166.6021742594
 10
116.9876099297
 20
167.0587444995
 10
117.0199979033
 20
167.5629737515
 10
116.9876099297
 20
168.1045973618
 10
116.8911053346
 20
168.6725894357
 10
116.7324486733
 20
169.2553872925
 10
116.5148697379
 20
169.8411268485
 10
116.242797808
 20
170.4178841354
 10
115.9217714836
 20
170.9739180382
 10
115.5583259349
 20
171.4979093101
 10
115.1598598651
 20
171.9791909997
 10
114.7344848943
 20
172.4079655999
 10
114.2908604304
 20
172.7755044961
 10
113.8380173879
 20
173.0743256565
  0
LINE
  5
15D
330
1F
100
AcDbEntity
  8
0
  6
SLD-Durchgehend
 62
     7
370
    25
100
AcDbLine
 10
113.8380173879
 20
173.0743256565
 30
0.0
 11
110.302483482
 21
175.1153459361
 31
0.0
  0
LWPOLYLINE
  5
15E
330
1F
100
AcDbEntity
  8
0
  6
SLD-Durchgehend
 62
     7
370
    25
100
AcDbPolyline
 90
       23
 70
   128
 43
0.0
 10
110.302483482
 20
175.1153459361
 10
109.8496404396
 20
175.3393662235
 10
109.4060159756
 20
175.4840252309
 10
108.9806410048
 20
175.546378118
 10
108.5821749351
 20
175.5251555599
 10
108.2187293863
 20
175.4207895867
 10
107.8977030619
 20
175.2354047885
 10
107.6256311321
 20
174.9727750654
 10
107.4080521967
 20
174.6382468011
 10
107.2493955354
 20
174.2386300263
 10
107.1528909403
 20
173.7820597862
 10
107.1205029667
 20
173.2778305342
 10
107.1528909403
 20
172.7362069239
 10
107.2493955354
 20
172.16821485
 10
107.4080521967
 20
171.5854169932
 10
107.6256311321
 20
170.9996774372
 10
107.8977030619
 20
170.4229201502
 10
108.2187293863
 20
169.8668862474
 10
108.5821749351
 20
169.3428949756
 10
108.9806410048
 20
168.861613286
 10
109.4060159756
 20
168.4328386858
 10
109.8496404396
 20
168.0652997895
 10
110.302483482
 20
167.7664786291
  0
LINE
  5
15F
330
1F
100
AcDbEntity
  8
0
  6
SLD-Durchgehend
 62
     7
370
    25
100
AcDbLine
 10
110.302483482
 20
167.7664786291
 30
0.0
 11
113.8380173879
 21
165.7254583496
 31
0.0
  0
LINE
  5
160
330
1F
100
AcDbEntity
  8
0
  6
SLD-Durchgehend
 62
     7
370
    25
100
AcDbLine
 10
130.2725356016
 20
162.6360778978
 30
0.0
 11
128.625546819
 21
163.5871680656
 31
0.0
  0
LINE
  5
161
330
1F
100
AcDbEntity
  8
0
  6
SLD-Durchgehend
 62
     7
370
    25
100
AcDbLine
 10
128.625546819
 20
163.5871680656
 30
0.0
 11
127.0350682393
 21
160.8953901317
 31
0.0
  0
LINE
  5
162
330
1F
100
AcDbEntity
  8
0
  6
SLD-Durchgehend
 62
     7
370
    25
100
AcDbLine
 10
133.6370072612
 20
174.5036038275
 30
0.0
 11
85.5537461405
 21
202.2614796295
 31
0.0
  0
ELLIPSE
  5
163
330
1F
100
AcDbEntity
  8
0
  6
SLD-Durchgehend
 62
     7
370
    25
100
AcDbEllipse
 10
126.858318468
 20
160.9975478318
 30
0.0
 11
0.1783193862613075
 21
0.2983372436809474
 31
0.0
210
0.0
220
0.0
230
1.0
 40
0.5873233271
 41
3.918225511766097
 42
4.721001992358325
  0
ELLIPSE
  5
164
330
1F
100
AcDbEntity
  8
0
  6
SLD-Durchgehend
 62
     7
370
    25
100
AcDbEllipse
 10
130.0956762129
 20
162.7381766599
 30
0.0
 11
0.2545575465302078
 21
-0.1469772397725251
 31
0.0
210
0.0
220
0.0
230
1.0
 40
0.0000691024
 41
5.515427315302014
 42
7.085919053395756
  0
LINE
  5
165
330
1F
100
AcDbEntity
  8
0
  6
SLD-Durchgehend
 62
     7
370
    25
100
AcDbLine
 10
128.6253981042
 20
163.5869163759
 30
0.0
 11
130.2788155765
 21
162.6324187862
 31
0.0
  0
ARC
  5
166
330
1F
100
AcDbEntity
  8
0
  6
SLD-Durchgehend
 62
     7
370
    25
100
AcDbCircle
 10
117.2017912896
 20
169.3689123543
 30
0.0
 40
3.070353839386813
100
AcDbArc
 50
238.6803544199
 51
262.3089495487
  0
LINE
  5
167
330
1F
100
AcDbEntity
  8
0
  6
SLD-Durchgehend
 62
     7
370
    25
100
AcDbLine
 10
115.6057843409
 20
168.5831853161
 30
0.0
 11
112.070250435
 21
170.6242055956
 31
0.0
  0
ARC
  5
168
330
1F
100
AcDbEntity
  8
0
  6
SLD-Durchgehend
 62
     7
370
    25
100
AcDbCircle
 10
116.2389299751
 20
169.3973769102
 30
0.0
 40
1.031397763240526
100
AcDbArc
 50
232.130036911
 51
310.2040983826
  0
LWPOLYLINE
  5
169
330
1F
100
AcDbEntity
  8
0
  6
SLD-Durchgehend
 62
     7
370
    25
100
AcDbPolyline
 90
       14
 70
   128
 43
0.0
 10
112.070250435
 20
170.6242055956
 10
111.7394649604
 20
170.8553115811
 10
111.4231363984
 20
171.1566123172
 10
111.135089825
 20
171.5149395162
 10
110.8879142576
 20
171.9146325598
 10
110.6924124547
 20
172.3382229443
 10
110.557128783
 20
172.7671977371
 10
110.4879757884
 20
173.1828086814
 10
110.4879757884
 20
173.5668915846
 10
110.557128783
 20
173.9026601807
 10
110.6924124547
 20
174.175439771
 10
110.8879142576
 20
174.3733085784
 10
111.135089825
 20
174.4876187866
 10
111.3419391397
 20
174.5152809577
  0
LINE
  5
16A
330
1F
100
AcDbEntity
  8
0
  6
SLD-Durchgehend
 62
     7
370
    25
100
AcDbLine
 10
112.070250435
 20
168.7869887689
 30
0.0
 11
115.6057843409
 21
166.7459684893
 31
0.0
  0
ARC
  5
16B
330
1F
100
AcDbEntity
  8
0
  6
SLD-Durchgehend
 62
     7
370
    25
100
AcDbCircle
 10
115.1601788971
 20
174.1592170053
 30
0.0
 40
6.197458682814379
100
AcDbArc
 50
167.1726876424
 51
240.0939072639
  0
LINE
  5
16C
330
1F
100
AcDbEntity
  8
0
  6
SLD-Durchgehend
 62
     7
370
    25
100
AcDbLine
 10
131.753205052
 20
159.0744963778
 30
0.0
 11
131.7298183422
 21
159.0603487851
 31
0.0
  0
LINE
  5
16D
330
1F
100
AcDbEntity
  8
0
  6
SLD-Durchgehend
 62
     7
370
    25
100
AcDbLine
 10
133.2834538706
 20
146.1287774395
 30
0.0
 11
133.2834538706
 21
158.7852663019
 31
0.0
  0
LWPOLYLINE
  5
16E
330
1F
100
AcDbEntity
  8
0
  6
SLD-Durchgehend
 62
     7
370
    25
100
AcDbPolyline
 90
        3
 70
   128
 43
0.0
 10
108.052942749
 20
181.1955732981
 10
108.0539815876
 20
181.1961834364
 10
108.0559555384
 20
181.1972863226
  0
LWPOLYLINE
  5
16F
330
1F
100
AcDbEntity
  8
0
  6
SLD-Durchgehend
 62
     7
370
    25
100
AcDbPolyline
 90
       23
 70
   128
 43
0.0
 10
87.675066484
 20
183.8910364629
 10
87.7074544576
 20
183.3494128525
 10
87.8039590527
 20
182.7814207786
 10
87.962615714
 20
182.1986229218
 10
88.1801946494
 20
181.6128833658
 10
88.4522665793
 20
181.0361260789
 10
88.7732929037
 20
180.4800921761
 10
89.1367384524
 20
179.9561009043
 10
89.5352045222
 20
179.4748192146
 10
89.960579493
 20
179.0460446145
 10
90.4042039569
 20
178.6785057182
 10
90.8570469994
 20
178.3796845578
 10
91.3098900418
 20
178.1556642704
 10
91.7535145058
 20
178.011005263
 10
92.1788894765
 20
177.9486523759
 10
92.5773555463
 20
177.969874934
 10
92.940801095
 20
178.0742409072
 10
93.2618274194
 20
178.2596257053
 10
93.5338993493
 20
178.5222554285
 10
93.7514782847
 20
178.8567836928
 10
93.910134946
 20
179.2564004676
 10
94.0066395411
 20
179.7129707077
 10
94.0390275147
 20
180.2171999597
  0
LINE
  5
170
330
1F
100
AcDbEntity
  8
0
  6
SLD-Durchgehend
 62
     7
370
    25
100
AcDbLine
 10
94.0390275147
 20
180.2171999597
 30
0.0
 11
94.0390275147
 21
181.4420111775
 31
0.0
  0
LWPOLYLINE
  5
171
330
1F
100
AcDbEntity
  8
0
  6
SLD-Durchgehend
 62
     7
370
    25
100
AcDbPolyline
 90
       23
 70
   128
 43
0.0
 10
94.0390275147
 20
181.4420111775
 10
94.0066395411
 20
181.9836347878
 10
93.910134946
 20
182.5516268617
 10
93.7514782847
 20
183.1344247185
 10
93.5338993493
 20
183.7201642745
 10
93.2618274194
 20
184.2969215615
 10
92.940801095
 20
184.8529554643
 10
92.5773555463
 20
185.3769467361
 10
92.1788894765
 20
185.8582284257
 10
91.7535145058
 20
186.2870030259
 10
91.3098900418
 20
186.6545419222
 10
90.8570469994
 20
186.9533630826
 10
90.4042039569
 20
187.17738337
 10
89.960579493
 20
187.3220423774
 10
89.5352045222
 20
187.3843952645
 10
89.1367384524
 20
187.3631727064
 10
88.7732929037
 20
187.2588067331
 10
88.4522665793
 20
187.073421935
 10
88.1801946494
 20
186.8107922119
 10
87.962615714
 20
186.4762639475
 10
87.8039590527
 20
186.0766471727
 10
87.7074544576
 20
185.6200769326
 10
87.675066484
 20
185.1158476807
  0
LINE
  5
172
330
1F
100
AcDbEntity
  8
0
  6
SLD-Durchgehend
 62
     7
370
    25
100
AcDbLine
 10
87.675066484
 20
185.1158476807
 30
0.0
 11
87.675066484
 21
183.8910364629
 31
0.0
  0
LWPOLYLINE
  5
173
330
1F
100
AcDbEntity
  8
0
  6
SLD-Durchgehend
 62
     7
370
    25
100
AcDbPolyline
 90
       32
 70
   128
 43
0.0
 10
94.9582663303
 20
180.5030754989
 10
94.9901102684
 20
180.8463029901
 10
95.0843383884
 20
181.1387124791
 10
95.2370929798
 20
181.368332687
 10
95.4421202518
 20
181.5257629356
 10
95.6910263637
 20
181.6045580119
 10
95.9736210701
 20
181.6014920363
 10
96.2783349105
 20
181.5166905301
 10
96.5926928645
 20
181.3536252771
 10
96.9038250805
 20
181.1189721877
 10
97.198993769
 20
180.8223379872
 10
97.4661146892
 20
180.4758669144
 10
97.6942518793
 20
180.0937435359
 10
97.8740653759
 20
179.6916120276
 10
97.9981935933
 20
179.2859357007
 10
98.0615547078
 20
178.8933229917
 10
98.0615547078
 20
178.5298475111
 10
97.9981935933
 20
178.2103899878
 10
97.8740653759
 20
177.9480290502
 10
97.6942518793
 20
177.753505786
 10
97.4661146892
 20
177.6347840005
 10
97.198993769
 20
177.5967241775
 10
96.9038250805
 20
177.6408844907
 10
96.5926928645
 20
177.7654570116
 10
96.2783349105
 20
177.9653417266
 10
95.9736210701
 20
178.232355332
 10
95.6910263637
 20
178.5555662594
 10
95.4421202518
 20
178.9217422155
 10
95.2370929798
 20
179.3158919135
 10
95.0843383884
 20
179.7218788186
 10
94.9901102684
 20
180.1230817792
 10
94.9582663303
 20
180.5030754989
  0
ARC
  5
174
330
1F
100
AcDbEntity
  8
0
  6
SLD-Durchgehend
 62
     7
370
    25
100
AcDbCircle
 10
130.8045685369
 20
145.8714083365
 30
0.0
 40
2.492210134101001
100
AcDbArc
 50
305.3847106268
 51
5.9274697666
  0
LWPOLYLINE
  5
175
330
1F
100
AcDbEntity
  8
0
  6
SLD-Durchgehend
 62
     7
370
    25
100
AcDbPolyline
 90
       14
 70
   128
 43
0.0
 10
95.6653731114
 20
180.5030754989
 10
95.6977753746
 20
180.1642477109
 10
95.7932353497
 20
179.80627536
 10
95.9466067647
 20
179.4484568282
 10
96.1496213271
 20
179.1100822052
 10
96.3913344691
 20
178.8093933545
 10
96.6587153727
 20
178.5626004898
 10
96.9373494642
 20
178.3830082784
 10
97.2122155077
 20
178.2802985829
 10
97.4684954035
 20
178.2600085095
 10
97.6923730361
 20
178.3232319014
 10
97.8717791044
 20
178.4665603692
 10
97.9970417809
 20
178.6822670379
 10
98.0581133662
 20
178.9308666969
  0
LWPOLYLINE
  5
176
330
1F
100
AcDbEntity
  8
0
  6
SLD-Durchgehend
 62
     7
370
    25
100
AcDbPolyline
 90
        8
 70
   128
 43
0.0
 10
96.7023248486
 20
181.2794157639
 10
96.6587153727
 20
181.2966619453
 10
96.3913344691
 20
181.3585805008
 10
96.1496213271
 20
181.3369677035
 10
95.9466067647
 20
181.2329887049
 10
95.7932353497
 20
181.0522490397
 10
95.6977753746
 20
180.8044924301
 10
95.6653731114
 20
180.5030754989
  0
ARC
  5
177
330
1F
100
AcDbEntity
  8
0
  6
SLD-Durchgehend
 62
     7
370
    25
100
AcDbCircle
 10
92.5129263313
 20
186.2072420501
 30
0.0
 40
3.070911095047369
100
AcDbArc
 50
157.6872076492
 51
181.3226458864
  0
LINE
  5
178
330
1F
100
AcDbEntity
  8
0
  6
SLD-Durchgehend
 62
     7
370
    25
100
AcDbLine
 10
91.0338236947
 20
183.9930874768
 30
0.0
 11
91.0338236947
 21
185.2178986947
 31
0.0
  0
LWPOLYLINE
  5
179
330
1F
100
AcDbEntity
  8
0
  6
SLD-Durchgehend
 62
     7
370
    25
100
AcDbPolyline
 90
       14
 70
   128
 43
0.0
 10
94.0390275147
 20
181.4165492355
 10
93.9119521087
 20
181.2516903536
 10
93.6893942282
 20
181.0947410612
 10
93.4203090812
 20
181.0243223439
 10
93.1164569798
 20
181.0435118376
 10
92.791117719
 20
181.1514708693
 10
92.4585101856
 20
181.3434811113
 10
92.1331709248
 20
181.6111507946
 10
91.8293188235
 20
181.9427814697
 10
91.5602336765
 20
182.3238792847
 10
91.337675796
 20
182.7377884364
 10
91.1713720293
 20
183.1664191087
 10
91.068590649
 20
183.5910380845
 10
91.0338236947
 20
183.9930874768
  0
ARC
  5
17A
330
1F
100
AcDbEntity
  8
0
  6
SLD-Durchgehend
 62
     7
370
    25
100
AcDbCircle
 10
92.0293982927
 20
185.3750865492
 30
0.0
 40
1.007907139533827
100
AcDbArc
 50
108.6965694386
 51
188.9721698519
  0
ARC
  5
17B
330
1F
100
AcDbEntity
  8
0
  6
SLD-Durchgehend
 62
     7
370
    25
100
AcDbCircle
 10
95.640200014
 20
184.9013426411
 30
0.0
 40
6.197374977453969
100
AcDbArc
 50
179.9056626073
 51
252.8224982565
  0
LINE
  5
17C
330
1F
100
AcDbEntity
  8
0
  6
SLD-Durchgehend
 62
     7
370
    25
100
AcDbLine
 10
89.442833437
 20
186.1363578205
 30
0.0
 11
89.442833437
 21
184.9115466026
 31
0.0
  0
ELLIPSE
  5
17D
330
1F
100
AcDbEntity
  8
0
  6
SLD-Durchgehend
 62
     7
370
    25
100
AcDbEllipse
 10
79.115157958
 20
191.7766028186
 30
0.0
 11
-1.506799710193348
 21
2.595026569992541
 31
0.0
210
0.0
220
0.0
230
1.0
 40
0.5772327004
 41
0.0159962566579643
 42
0.0488012507189469
  0
ARC
  5
17E
330
1F
100
AcDbEntity
  8
0
  6
SLD-Durchgehend
 62
     7
370
    25
100
AcDbCircle
 10
80.8461737581
 20
198.9846166796
 30
0.0
 40
2.969250343942674
100
AcDbArc
 50
94.5469230325
 51
145.3737841919
  0
ARC
  5
17F
330
1F
100
AcDbEntity
  8
0
  6
SLD-Durchgehend
 62
     7
370
    25
100
AcDbCircle
 10
83.068178313
 20
198.8289338032
 30
0.0
 40
4.237973368758335
100
AcDbArc
 50
54.091030346
 51
114.5985112249
  0
LWPOLYLINE
  5
180
330
1F
100
AcDbEntity
  8
0
  6
SLD-Durchgehend
 62
     8
370
    18
100
AcDbPolyline
 90
       30
 70
   128
 43
0.0
 10
132.3490627669
 20
159.1899291647
 10
132.9404898335
 20
158.9834259307
 10
133.5167007013
 20
158.8554701697
 10
134.0715417197
 20
158.8074283868
 10
134.5990874577
 20
158.8398136448
 10
135.0937039846
 20
158.9522800849
 10
135.5501090376
 20
159.1436266205
 10
135.9634284339
 20
159.411809764
 10
136.3292481241
 20
159.7539654506
 10
136.6436613328
 20
160.1664396248
 10
136.9033102805
 20
160.6448272638
 10
137.1054220434
 20
161.1840194216
 10
137.2478381666
 20
161.7782577892
 10
137.3290377154
 20
162.4211961914
 10
137.3481535184
 20
163.1059683601
 10
137.3049814282
 20
163.8252612632
 10
137.1999825015
 20
164.571393204
 10
137.0342780757
 20
165.336395858
 10
136.8096377929
 20
166.1120993706
 10
136.5284607017
 20
166.8902196074
 10
136.1937496359
 20
167.6624466244
 10
135.8090791463
 20
168.4205334145
 10
135.3785573256
 20
169.1563839812
 10
134.9067819365
 20
169.8621398001
 10
134.3987913098
 20
170.5302637437
 10
133.8600105369
 20
171.153620575
 10
133.2961935333
 20
171.7255531475
 10
132.7133615892
 20
172.2399535008
 10
132.1177390648
 20
172.6913280906
 10
131.5156869176
 20
173.0748564568
  0
ARC
  5
181
330
1F
100
AcDbEntity
  8
0
  6
SLD-Durchgehend
 62
     8
370
    18
100
AcDbCircle
 10
131.8994909429
 20
173.0573912437
 30
0.0
 40
0.3842012018931115
100
AcDbArc
 50
122.60547834
 51
177.3945215143
  0
LWPOLYLINE
  5
182
330
1F
100
AcDbEntity
  8
0
  6
SLD-Durchgehend
 62
     8
370
    18
100
AcDbPolyline
 90
       22
 70
   128
 43
0.0
 10
131.6924636129
 20
173.3810426737
 10
132.3127597645
 20
172.9858922359
 10
132.9264314563
 20
172.5208396282
 10
133.5269249746
 20
171.9908513854
 10
134.1078273419
 20
171.4015875228
 10
134.6629348048
 20
170.7593410906
 10
135.186319087
 20
170.0709709668
 10
135.6723906999
 20
169.343828608
 10
136.1159586364
 20
168.5856795393
 10
136.5122858075
 20
167.8046204222
 10
136.8571396328
 20
167.0089925865
 10
137.146837242
 20
166.2072929486
 10
137.3782848061
 20
165.4080832689
 10
137.5490105782
 20
164.6198987163
 10
137.6571912905
 20
163.8511567167
 10
137.7016716259
 20
163.1100670589
 10
137.6819765561
 20
162.4045442184
 10
137.5983164149
 20
161.7421228344
 10
137.4515846516
 20
161.1298772435
 10
137.2433482899
 20
160.5743459295
 10
136.9758311922
 20
160.0814616953
 10
136.8745882493
 20
159.932888487
  0
ARC
  5
183
330
1F
100
AcDbEntity
  8
0
  6
SLD-Durchgehend
 62
     8
370
    18
100
AcDbCircle
 10
132.4956426144
 20
159.1922278335
 30
0.0
 40
0.1465978703106331
100
AcDbArc
 50
180.8984402071
 51
243.750350095
  0
LINE
  5
184
330
1F
100
AcDbEntity
  8
0
  6
SLD-Durchgehend
 62
     8
370
    18
100
AcDbLine
 10
133.6370072612
 20
174.5036038275
 30
0.0
 11
131.6924636129
 21
173.3810426737
 31
0.0
  0
LINE
  5
185
330
1F
100
AcDbEntity
  8
0
  6
SLD-Durchgehend
 62
     8
370
    18
100
AcDbLine
 10
132.0430121307
 20
163.383750852
 30
0.0
 11
131.9375336265
 21
163.4446422964
 31
0.0
  0
ELLIPSE
  5
186
330
1F
100
AcDbEntity
  8
0
  6
SLD-Durchgehend
 62
     8
370
    18
100
AcDbEllipse
 10
132.0429044267
 20
163.7921456252
 30
0.0
 11
-0.2500558537529116
 21
0.4331563339588911
 31
0.0
210
0.0
220
0.0
230
1.0
 40
0.5772057094
 41
2.356427998020544
 42
3.92691973832025
  0
LINE
  5
187
330
1F
100
AcDbEntity
  8
0
  6
SLD-Durchgehend
 62
     8
370
    18
100
AcDbLine
 10
132.3965116734
 20
167.8681295628
 30
0.0
 11
132.3965116734
 21
163.5878881341
 31
0.0
  0
ELLIPSE
  5
188
330
1F
100
AcDbEntity
  8
0
  6
SLD-Durchgehend
 62
     8
370
    18
100
AcDbEllipse
 10
130.09806457
 20
169.1941864107
 30
0.0
 11
-1.624867819781258
 21
2.814658872453606
 31
0.0
210
0.0
220
0.0
230
1.0
 40
0.5775574346
 41
3.927224423831253
 42
5.497716164130997
  0
LINE
  5
189
330
1F
100
AcDbEntity
  8
0
  6
SLD-Durchgehend
 62
     8
370
    18
100
AcDbLine
 10
84.8493480686
 20
197.9698763149
 30
0.0
 11
130.0987646459
 21
171.8479441458
 31
0.0
  0
ELLIPSE
  5
18A
330
1F
100
AcDbEntity
  8
0
  6
SLD-Durchgehend
 62
     8
370
    18
100
AcDbEllipse
 10
84.8500481446
 20
195.3153102893
 30
0.0
 11
-1.625363049393926
 21
2.815516170732934
 31
0.0
210
0.0
220
0.0
230
1.0
 40
0.5772057094
 41
5.498020651610322
 42
6.690461438282726
  0
LINE
  5
18B
330
1F
100
AcDbEntity
  8
0
  6
SLD-Durchgehend
 62
     8
370
    18
100
AcDbLine
 10
131.5156869176
 20
173.0748564568
 30
0.0
 11
83.4324257969
 21
200.8327322588
 31
0.0
  0
LWPOLYLINE
  5
18C
330
1F
100
AcDbEntity
  8
0
  6
SLD-Durchgehend
 62
     8
370
    18
100
AcDbPolyline
 90
        9
 70
   128
 43
0.0
 10
130.9853568317
 20
158.1588067648
 10
131.0106164077
 20
158.4703046133
 10
131.0855930613
 20
158.7427472991
 10
131.2079060382
 20
158.9674838746
 10
131.3736715008
 20
159.1373782175
 10
131.5776258526
 20
159.2470356258
 10
131.813292875
 20
159.2929741177
 10
132.0731893681
 20
159.2737349956
 10
132.3490627669
 20
159.1899291647
  0
LINE
  5
18D
330
1F
100
AcDbEntity
  8
0
  6
SLD-Durchgehend
 62
     8
370
    18
100
AcDbLine
 10
130.9853568317
 20
145.0062162857
 30
0.0
 11
130.9853568317
 21
158.1588067648
 31
0.0
  0
ARC
  5
18E
330
1F
100
AcDbEntity
  8
0
  6
SLD-Durchgehend
 62
     8
370
    18
100
AcDbCircle
 10
128.9283288496
 20
144.6903826869
 30
0.0
 40
2.081133100367185
100
AcDbArc
 50
231.2817934449
 51
8.7289583099
  0
LINE
  5
18F
330
1F
100
AcDbEntity
  8
0
  6
SLD-Durchgehend
 62
     8
370
    18
100
AcDbLine
 10
87.3215130934
 20
166.3342478818
 30
0.0
 11
127.6265996211
 21
143.0666166948
 31
0.0
  0
ARC
  5
190
330
1F
100
AcDbEntity
  8
0
  6
SLD-Durchgehend
 62
     8
370
    18
100
AcDbCircle
 10
91.2267642793
 20
172.4673044655
 30
0.0
 40
7.270857575592996
100
AcDbArc
 50
182.487128189
 51
237.5128719567
  0
LINE
  5
191
330
1F
100
AcDbEntity
  8
0
  6
SLD-Durchgehend
 62
     8
370
    18
100
AcDbLine
 10
83.9627558828
 20
182.1885900845
 30
0.0
 11
83.9627558828
 21
172.1517860038
 31
0.0
  0
LWPOLYLINE
  5
192
330
1F
100
AcDbEntity
  8
0
  6
SLD-Durchgehend
 62
     8
370
    18
100
AcDbPolyline
 90
       20
 70
   128
 43
0.0
 10
83.4324257969
 20
200.8327322588
 10
82.8303736498
 20
201.1443185058
 10
82.2347511253
 20
201.3806350448
 10
81.6519191812
 20
201.5391581306
 10
81.0881021776
 20
201.6181948141
 10
80.5493214048
 20
201.6169010222
 10
80.041330778
 20
201.5352905719
 10
79.5695553889
 20
201.374235023
 10
79.1390335682
 20
201.13545437
 10
78.7543630786
 20
200.8214986737
 10
78.4196520129
 20
200.4357208274
 10
78.1384749216
 20
199.98224075
 10
77.9138346388
 20
199.4659013871
 10
77.748130213
 20
198.8922169909
 10
77.6431312863
 20
198.2673142304
 10
77.5999591961
 20
197.5978667617
 10
77.6190749991
 20
196.8910239566
 10
77.7002745479
 20
196.1543345509
 10
77.8426906711
 20
195.3956660274
 10
78.0400797809
 20
194.6390198837
  0
ELLIPSE
  5
193
330
1F
100
AcDbEntity
  8
0
  6
SLD-Durchgehend
 62
     8
370
    18
100
AcDbEllipse
 10
129.9212878747
 20
169.0921353967
 30
0.0
 11
-1.499877434799032
 21
2.598146970558702
 31
0.0
210
0.0
220
0.0
230
1.0
 40
0.5792658025
 41
3.927224551254446
 42
5.49771629155417
  0
LINE
  5
194
330
1F
100
AcDbEntity
  8
0
  6
SLD-Durchgehend
 62
     8
370
    18
100
AcDbLine
 10
132.0460703855
 20
167.8698950557
 30
0.0
 11
126.2841973164
 21
164.5436179838
 31
0.0
  0
ELLIPSE
  5
195
330
1F
100
AcDbEntity
  8
0
  6
SLD-Durchgehend
 62
     8
370
    18
100
AcDbEllipse
 10
124.1656928669
 20
165.7694825927
 30
0.0
 11
-1.499878536862454
 21
2.598146334348712
 31
0.0
210
0.0
220
0.0
230
1.0
 40
0.5758490668
 41
3.927224297870574
 42
5.497716038170303
  0
LINE
  5
196
330
1F
100
AcDbEntity
  8
0
  6
SLD-Durchgehend
 62
     8
370
    18
100
AcDbLine
 10
124.1632000602
 20
168.2172929835
 30
0.0
 11
129.9250731293
 21
171.5435700554
 31
0.0
  0
ELLIPSE
  5
197
330
1F
100
AcDbEntity
  8
0
  6
SLD-Durchgehend
 62
     8
370
    18
100
AcDbEllipse
 10
123.9889161717
 20
165.6674315788
 30
0.0
 11
-1.374888155199542
 21
2.381634430537673
 31
0.0
210
0.0
220
0.0
230
1.0
 40
0.5775574346
 41
3.927224423831245
 42
5.497716164130982
  0
ARC
  5
198
330
1F
100
AcDbEntity
  8
0
  6
SLD-Durchgehend
 62
     8
370
    18
100
AcDbCircle
 10
124.3742795128
 20
167.8950944842
 30
0.0
 40
0.3851836033235034
100
AcDbArc
 50
123.2297058793
 51
177.3476850206
  0
ARC
  5
199
330
1F
100
AcDbEntity
  8
0
  6
SLD-Durchgehend
 62
     8
370
    18
100
AcDbCircle
 10
126.1107050661
 20
164.887578023
 30
0.0
 40
0.3852376792062582
100
AcDbArc
 50
242.6564838576
 51
296.7662186596
  0
LINE
  5
19A
330
1F
100
AcDbEntity
  8
0
  6
SLD-Durchgehend
 62
     8
370
    18
100
AcDbLine
 10
123.9895085436
 20
167.9129188931
 30
0.0
 11
104.8224059278
 21
178.9778517095
 31
0.0
  0
LINE
  5
19B
330
1F
100
AcDbEntity
  8
0
  6
SLD-Durchgehend
 62
     8
370
    18
100
AcDbLine
 10
125.9337560284
 20
160.4934351594
 30
0.0
 11
125.9337560284
 21
164.5453834767
 31
0.0
  0
LINE
  5
19C
330
1F
100
AcDbEntity
  8
0
  6
SLD-Durchgehend
 62
     8
370
    18
100
AcDbLine
 10
119.5697411499
 20
164.1673027483
 30
0.0
 11
125.9337560284
 21
160.4934351594
 31
0.0
  0
ELLIPSE
  5
19D
330
1F
100
AcDbEntity
  8
0
  6
SLD-Durchgehend
 62
     8
370
    18
100
AcDbEllipse
 10
119.5698488539
 20
163.7589079752
 30
0.0
 11
-0.2500558537529116
 21
0.4331563339589195
 31
0.0
210
0.0
220
0.0
230
1.0
 40
0.5772057094
 41
5.498020651610358
 42
7.068512391910106
  0
LINE
  5
19E
330
1F
100
AcDbEntity
  8
0
  6
SLD-Durchgehend
 62
     8
370
    18
100
AcDbLine
 10
119.2162416072
 20
161.9217512549
 30
0.0
 11
119.2162416072
 21
163.9631654662
 31
0.0
  0
LINE
  5
19F
330
1F
100
AcDbEntity
  8
0
  6
SLD-Durchgehend
 62
     8
370
    18
100
AcDbLine
 10
104.8224059278
 20
170.2311357224
 30
0.0
 11
119.2162416072
 21
161.9217512549
 31
0.0
  0
LINE
  5
1A0
330
1F
100
AcDbEntity
  8
0
  6
SLD-Durchgehend
 62
     8
370
    18
100
AcDbLine
 10
104.8224059278
 20
178.9778517095
 30
0.0
 11
104.8224059278
 21
170.2311357224
 31
0.0
  0
LINE
  5
1A1
330
1F
100
AcDbEntity
  8
0
  6
SLD-Durchgehend
 62
     8
370
    18
100
AcDbLine
 10
126.2841973164
 20
160.4916696665
 30
0.0
 11
127.0350682393
 21
160.8953901317
 31
0.0
  0
LINE
  5
1A2
330
1F
100
AcDbEntity
  8
0
  6
SLD-Durchgehend
 62
     8
370
    18
100
AcDbLine
 10
126.2841973164
 20
164.5436179838
 30
0.0
 11
126.2841973164
 21
160.4916696665
 31
0.0
  0
LINE
  5
1A3
330
1F
100
AcDbEntity
  8
0
  6
SLD-Durchgehend
 62
     8
370
    18
100
AcDbLine
 10
132.0460703855
 20
163.5896536271
 30
0.0
 11
132.0460703855
 21
167.8698950557
 31
0.0
  0
LINE
  5
1A4
330
1F
100
AcDbEntity
  8
0
  6
SLD-Durchgehend
 62
     8
370
    18
100
AcDbLine
 10
130.2725356016
 20
162.6360778978
 30
0.0
 11
132.0460703855
 21
163.5896536271
 31
0.0
  0
ELLIPSE
  5
1A5
330
1F
100
AcDbEntity
  8
0
  6
SLD-Durchgehend
 62
     8
370
    18
100
AcDbEllipse
 10
107.8245245691
 20
181.3873835574
 30
0.0
 11
0.4999795915590822
 21
0.007692350335872787
 31
0.0
210
0.0
220
0.0
230
1.0
 40
0.5872748834
 41
5.48875197255927
 42
7.059548299354228
  0
LINE
  5
1A6
330
1F
100
AcDbEntity
  8
0
  6
SLD-Durchgehend
 62
     8
370
    18
100
AcDbLine
 10
102.1676703196
 20
185.068346447
 30
0.0
 11
108.1780779597
 21
181.5986119718
 31
0.0
  0
ELLIPSE
  5
1A7
330
1F
100
AcDbEntity
  8
0
  6
SLD-Durchgehend
 62
     8
370
    18
100
AcDbEllipse
 10
101.814116929
 20
184.8571180326
 30
0.0
 11
0.499979591559068
 21
0.007692350335844365
 31
0.0
210
0.0
220
0.0
230
1.0
 40
0.5872748834
 41
0.7763629921745282
 42
2.347159318969724
  0
LINE
  5
1A8
330
1F
100
AcDbEntity
  8
0
  6
SLD-Durchgehend
 62
     8
370
    18
100
AcDbLine
 10
98.2785830231
 20
183.160164331
 30
0.0
 11
101.4605635384
 21
185.0612200606
 31
0.0
  0
LINE
  5
1A9
330
1F
100
AcDbEntity
  8
0
  6
SLD-Durchgehend
 62
     8
370
    18
100
AcDbLine
 10
79.1114804073
 20
194.2250971474
 30
0.0
 11
98.2785830231
 21
183.160164331
 31
0.0
  0
LINE
  5
1AA
330
1F
100
AcDbEntity
  8
0
  6
SLD-Durchgehend
 62
     8
370
    18
100
AcDbLine
 10
84.6756565521
 20
197.6655022245
 30
0.0
 11
79.1114804073
 21
194.2250971474
 31
0.0
  0
LINE
  5
1AB
330
1F
100
AcDbEntity
  8
0
  6
SLD-Durchgehend
 62
     8
370
    18
100
AcDbLine
 10
129.9250731293
 20
171.5435700554
 30
0.0
 11
84.6756565521
 21
197.6655022245
 31
0.0
  0
LINE
  5
1AC
330
1F
100
AcDbEntity
  8
0
  6
SLD-Durchgehend
 62
     8
370
    18
100
AcDbLine
 10
104.9960974444
 20
179.2822257998
 30
0.0
 11
124.1632000602
 21
168.2172929835
 31
0.0
  0
LINE
  5
1AD
330
1F
100
AcDbEntity
  8
0
  6
SLD-Durchgehend
 62
     8
370
    18
100
AcDbLine
 10
108.1780779597
 20
181.1832815294
 30
0.0
 11
104.9960974444
 21
179.2822257998
 31
0.0
  0
ARC
  5
1AE
330
1F
100
AcDbEntity
  8
0
  6
SLD-Durchgehend
 62
     8
370
    18
100
AcDbCircle
 10
126.1107050661
 20
160.8356297057
 30
0.0
 40
0.385237679206119
100
AcDbArc
 50
242.6564838576
 51
296.7662186596
  0
ARC
  5
1AF
330
1F
100
AcDbEntity
  8
0
  6
SLD-Durchgehend
 62
     8
370
    18
100
AcDbCircle
 10
105.207176897
 20
178.9600273005
 30
0.0
 40
0.3851836033234153
100
AcDbArc
 50
123.2297058793
 51
177.3476850206
  0
ARC
  5
1B0
330
1F
100
AcDbEntity
  8
0
  6
SLD-Durchgehend
 62
     8
370
    18
100
AcDbCircle
 10
83.8162298223
 20
200.8152670457
 30
0.0
 40
0.3842012018929249
100
AcDbArc
 50
122.60547834
 51
177.3945215144
  0
LINE
  5
1B1
330
1F
100
AcDbEntity
  8
0
  6
SLD-Durchgehend
 62
     8
370
    18
100
AcDbLine
 10
83.6092024922
 20
201.1389184757
 30
0.0
 11
131.6924636129
 21
173.3810426737
 31
0.0
  0
LINE
  5
1B2
330
1F
100
AcDbEntity
  8
0
  6
SLD-Durchgehend
 62
     8
370
    18
100
AcDbLine
 10
85.5537461405
 20
202.2614796295
 30
0.0
 11
83.6092024922
 21
201.1389184757
 31
0.0
  0
ARC
  5
1B3
330
1F
100
AcDbEntity
  8
0
  6
SLD-Durchgehend
 62
     8
370
    18
100
AcDbCircle
 10
129.7139936767
 20
171.8657685547
 30
0.0
 40
0.385183603323478
100
AcDbArc
 50
303.2297058793
 51
357.3476850206
  0
ARC
  5
1B4
330
1F
100
AcDbEntity
  8
0
  6
SLD-Durchgehend
 62
     8
370
    18
100
AcDbCircle
 10
132.2195626357
 20
167.5259350165
 30
0.0
 40
0.3852376792063593
100
AcDbArc
 50
62.6564838576
 51
116.7662186596
  0
ARC
  5
1B5
330
1F
100
AcDbEntity
  8
0
  6
SLD-Durchgehend
 62
     8
370
    18
100
AcDbCircle
 10
126.1631559511
 20
160.4778472711
 30
0.0
 40
0.1218280375019686
100
AcDbArc
 50
302.6721190949
 51
6.5147070209
  0
ARC
  5
1B6
330
1F
100
AcDbEntity
  8
0
  6
SLD-Durchgehend
 62
     8
370
    18
100
AcDbCircle
 10
126.0529319551
 20
160.4784093154
 30
0.0
 40
0.1201194301077412
100
AcDbArc
 50
172.8139965462
 51
235.8738230604
  0
ARC
  5
1B7
330
1F
100
AcDbEntity
  8
0
  6
SLD-Durchgehend
 62
     8
370
    18
100
AcDbCircle
 10
119.6889170766
 20
164.1522769043
 30
0.0
 40
0.1201194301061111
100
AcDbArc
 50
172.8139965457
 51
235.8738230609
  0
ARC
  5
1B8
330
1F
100
AcDbEntity
  8
0
  6
SLD-Durchgehend
 62
     8
370
    18
100
AcDbCircle
 10
132.2195626357
 20
163.2456935878
 30
0.0
 40
0.3852376792062713
100
AcDbArc
 50
62.6564838576
 51
116.7662186596
  0
ARC
  5
1B9
330
1F
100
AcDbEntity
  8
0
  6
SLD-Durchgehend
 62
     8
370
    18
100
AcDbCircle
 10
84.4645770995
 20
197.9877007238
 30
0.0
 40
0.385183603323475
100
AcDbArc
 50
303.2297058793
 51
357.3476850206
  0
ELLIPSE
  5
1BA
330
1F
100
AcDbEntity
  8
0
  6
SLD-Durchgehend
 62
     8
370
    18
100
AcDbEllipse
 10
131.8661277314
 20
163.6900946112
 30
0.0
 11
-0.131620274355015
 21
0.2129046670299885
 31
0.0
210
0.0
220
0.0
230
1.0
 40
0.5765060239
 41
3.106757201683648
 42
3.909533682275647
  0
LINE
  5
1BB
330
1F
100
AcDbEntity
  8
0
  6
SLD-Durchgehend
 62
     8
370
    18
100
AcDbLine
 10
115.6057843409
 20
166.7459684893
 30
0.0
 11
113.8380173879
 21
165.7254583496
 31
0.0
  0
ARC
  5
1BC
330
1F
100
AcDbEntity
  8
0
  6
SLD-Durchgehend
 62
     8
370
    18
100
AcDbCircle
 10
131.9057774309
 20
163.3938249578
 30
0.0
 40
0.1376039623637149
100
AcDbArc
 50
355.801569953
 51
39.7163680692
  0
ELLIPSE
  5
1BD
330
1F
100
AcDbEntity
  8
0
  6
SLD-Durchgehend
 62
     8
370
    18
100
AcDbEllipse
 10
119.7466255492
 20
163.8609589892
 30
0.0
 11
-0.1316202743550576
 21
0.2129046670299601
 31
0.0
210
0.0
220
0.0
230
1.0
 40
0.5765060239
 41
6.239020279546879
 42
7.051126335865233
  0
ARC
  5
1BE
330
1F
100
AcDbEntity
  8
0
  6
SLD-Durchgehend
 62
     8
370
    18
100
AcDbCircle
 10
119.3931906449
 20
164.3053600125
 30
0.0
 40
0.3852376792064154
100
AcDbArc
 50
242.6564838576
 51
296.7662186596
  0
LINE
  5
1BF
330
1F
100
AcDbEntity
  8
0
  6
SLD-Durchgehend
 62
     8
370
    18
100
AcDbLine
 10
119.6770933833
 20
164.0207643358
 30
0.0
 11
119.5666828951
 21
163.9613999733
 31
0.0
  0
LINE
  5
1C0
330
1F
100
AcDbEntity
  8
0
  6
SLD-Durchgehend
 62
     8
370
    18
100
AcDbLine
 10
119.5666828951
 20
163.9613999733
 30
0.0
 11
119.5666828951
 21
161.919985762
 31
0.0
  0
ARC
  5
1C1
330
1F
100
AcDbEntity
  8
0
  6
SLD-Durchgehend
 62
     8
370
    18
100
AcDbCircle
 10
119.3931906449
 20
162.2639458012
 30
0.0
 40
0.38523767920638
100
AcDbArc
 50
242.6564838576
 51
296.7662186596
  0
LINE
  5
1C2
330
1F
100
AcDbEntity
  8
0
  6
SLD-Durchgehend
 62
     8
370
    18
100
AcDbLine
 10
119.5666828951
 20
161.919985762
 30
0.0
 11
121.5080282523
 21
162.9637881343
 31
0.0
  0
ARC
  5
1C3
330
1F
100
AcDbEntity
  8
0
  6
SLD-Durchgehend
 62
     8
370
    18
100
AcDbCircle
 10
119.4456415298
 20
161.9061633666
 30
0.0
 40
0.1218280375017501
100
AcDbArc
 50
302.6721190949
 51
6.5147070209
  0
ARC
  5
1C4
330
1F
100
AcDbEntity
  8
0
  6
SLD-Durchgehend
 62
     8
370
    18
100
AcDbCircle
 10
119.3354175339
 20
161.9067254109
 30
0.0
 40
0.1201194301070225
100
AcDbArc
 50
172.813996546
 51
235.8738230606
  0
ARC
  5
1C5
330
1F
100
AcDbEntity
  8
0
  6
SLD-Durchgehend
 62
     8
370
    18
100
AcDbCircle
 10
104.9415818545
 20
170.2161098783
 30
0.0
 40
0.1201194301061028
100
AcDbArc
 50
172.8139965457
 51
235.8738230609
  0
LINE
  5
1C6
330
1F
100
AcDbEntity
  8
0
  6
SLD-Durchgehend
 62
     8
370
    18
100
AcDbLine
 10
116.7383413787
 20
169.2369965772
 30
0.0
 11
115.6057843409
 21
168.5831853161
 31
0.0
  0
ARC
  5
1C7
330
1F
100
AcDbEntity
  8
0
  6
SLD-Durchgehend
 62
     8
370
    18
100
AcDbCircle
 10
132.3460411679
 20
158.2576351276
 30
0.0
 40
1.011968273602162
100
AcDbArc
 50
127.5125309497
 51
185.6044126175
  0
ARC
  5
1C8
330
1F
100
AcDbEntity
  8
0
  6
SLD-Durchgehend
 62
     8
370
    18
100
AcDbCircle
 10
131.162133527
 20
158.4999845361
 30
0.0
 40
0.3842554769782083
100
AcDbArc
 50
242.6096722366
 51
297.3903277634
  0
LINE
  5
1C9
330
1F
100
AcDbEntity
  8
0
  6
SLD-Durchgehend
 62
     8
370
    18
100
AcDbLine
 10
132.7144423966
 20
158.9528845866
 30
0.0
 11
131.3389102223
 21
158.1588067648
 31
0.0
  0
LINE
  5
1CA
330
1F
100
AcDbEntity
  8
0
  6
SLD-Durchgehend
 62
     8
370
    18
100
AcDbLine
 10
112.070250435
 20
168.7869887689
 30
0.0
 11
110.302483482
 21
167.7664786291
 31
0.0
  0
LINE
  5
1CB
330
1F
100
AcDbEntity
  8
0
  6
SLD-Durchgehend
 62
     8
370
    18
100
AcDbLine
 10
131.3389102223
 20
158.1588067648
 30
0.0
 11
131.3389102223
 21
145.0062162857
 31
0.0
  0
ARC
  5
1CC
330
1F
100
AcDbEntity
  8
0
  6
SLD-Durchgehend
 62
     8
370
    18
100
AcDbCircle
 10
131.162133527
 20
145.3473940569
 30
0.0
 40
0.3842554769777036
100
AcDbArc
 50
242.6096722366
 51
297.3903277634
  0
LINE
  5
1CD
330
1F
100
AcDbEntity
  8
0
  6
SLD-Durchgehend
 62
     8
370
    18
100
AcDbLine
 10
131.3389102223
 20
145.0062162857
 30
0.0
 11
133.2834538706
 21
146.1287774395
 31
0.0
  0
LINE
  5
1CE
330
1F
100
AcDbEntity
  8
0
  6
SLD-Durchgehend
 62
     8
370
    18
100
AcDbLine
 10
114.8953829429
 20
172.2551198775
 30
0.0
 11
112.070250435
 21
170.6242055956
 31
0.0
  0
ARC
  5
1CF
330
1F
100
AcDbEntity
  8
0
  6
SLD-Durchgehend
 62
     8
370
    18
100
AcDbCircle
 10
104.9232975754
 20
179.1842030733
 30
0.0
 40
0.1220994506801029
100
AcDbArc
 50
53.3993340711
 51
115.3805721338
  0
ARC
  5
1D0
330
1F
100
AcDbEntity
  8
0
  6
SLD-Durchgehend
 62
     8
370
    18
100
AcDbCircle
 10
104.8742968887
 20
179.0923793177
 30
0.0
 40
0.1257348196233548
100
AcDbArc
 50
185.6947992512
 51
245.6253417064
  0
ARC
  5
1D1
330
1F
100
AcDbEntity
  8
0
  6
SLD-Durchgehend
 62
     8
370
    18
100
AcDbCircle
 10
108.1044576704
 20
181.0807681994
 30
0.0
 40
0.1262098642955617
100
AcDbArc
 50
54.3158566227
 51
112.6001334974
  0
ARC
  5
1D2
330
1F
100
AcDbEntity
  8
0
  6
SLD-Durchgehend
 62
     8
370
    18
100
AcDbCircle
 10
104.8742968887
 20
170.3456633306
 30
0.0
 40
0.1257348196233983
100
AcDbArc
 50
185.6947992512
 51
245.6253417064
  0
ELLIPSE
  5
1D3
330
1F
100
AcDbEntity
  8
0
  6
SLD-Durchgehend
 62
     8
370
    18
100
AcDbEllipse
 10
107.8276097478
 20
181.185060481
 30
0.0
 11
0.2499562615734874
 21
0.007832032014903232
 31
0.0
210
0.0
220
0.0
230
1.0
 40
0.5970670843
 41
6.25413293218136
 42
7.049877385588229
  0
ARC
  5
1D4
330
1F
100
AcDbEntity
  8
0
  6
SLD-Durchgehend
 62
     8
370
    18
100
AcDbCircle
 10
108.3891574123
 20
181.2764134725
 30
0.0
 40
0.3851836033236034
100
AcDbArc
 50
123.2297058793
 51
177.3476850206
  0
LINE
  5
1D5
330
1F
100
AcDbEntity
  8
0
  6
SLD-Durchgehend
 62
     8
370
    18
100
AcDbLine
 10
108.0043864431
 20
181.1665636159
 30
0.0
 11
108.0043864431
 21
181.2942378814
 31
0.0
  0
LINE
  5
1D6
330
1F
100
AcDbEntity
  8
0
  6
SLD-Durchgehend
 62
     8
370
    18
100
AcDbLine
 10
108.0043864431
 20
181.2942378814
 30
0.0
 11
101.9939788031
 21
184.7639723567
 31
0.0
  0
ARC
  5
1D7
330
1F
100
AcDbEntity
  8
0
  6
SLD-Durchgehend
 62
     8
370
    18
100
AcDbCircle
 10
102.3787497722
 20
184.7461479477
 30
0.0
 40
0.385183603323404
100
AcDbArc
 50
123.2297058793
 51
177.3476850206
  0
LINE
  5
1D8
330
1F
100
AcDbEntity
  8
0
  6
SLD-Durchgehend
 62
     8
370
    18
100
AcDbLine
 10
101.9939788031
 20
175.8747286407
 30
0.0
 11
104.7491826231
 21
174.2841833311
 31
0.0
  0
LINE
  5
1D9
330
1F
100
AcDbEntity
  8
0
  6
SLD-Durchgehend
 62
     8
370
    18
100
AcDbLine
 10
101.9939788031
 20
184.7639723567
 30
0.0
 11
101.9939788031
 21
175.8747286407
 31
0.0
  0
ARC
  5
1DA
330
1F
100
AcDbEntity
  8
0
  6
SLD-Durchgehend
 62
     8
370
    18
100
AcDbCircle
 10
98.069068186
 20
182.8310276709
 30
0.0
 40
0.3901633093866608
100
AcDbArc
 50
3.6388479754
 51
57.5208494677
  0
ARC
  5
1DB
330
1F
100
AcDbEntity
  8
0
  6
SLD-Durchgehend
 62
     8
370
    18
100
AcDbCircle
 10
98.2816682018
 20
183.1969680118
 30
0.0
 40
0.3842554769779933
100
AcDbArc
 50
242.6096722366
 51
297.3903277634
  0
ARC
  5
1DC
330
1F
100
AcDbEntity
  8
0
  6
SLD-Durchgehend
 62
     8
370
    18
100
AcDbCircle
 10
98.4896624757
 20
182.8379658317
 30
0.0
 40
0.3851836033235407
100
AcDbArc
 50
123.2297058793
 51
177.3476850206
  0
LINE
  5
1DD
330
1F
100
AcDbEntity
  8
0
  6
SLD-Durchgehend
 62
     8
370
    18
100
AcDbLine
 10
101.6404254125
 20
184.7568459702
 30
0.0
 11
98.4584448971
 21
182.8557902406
 31
0.0
  0
ARC
  5
1DE
330
1F
100
AcDbEntity
  8
0
  6
SLD-Durchgehend
 62
     8
370
    18
100
AcDbCircle
 10
101.2510487014
 20
184.7320834005
 30
0.0
 40
0.3901633093865557
100
AcDbArc
 50
3.6388479754
 51
57.5208494677
  0
ARC
  5
1DF
330
1F
100
AcDbEntity
  8
0
  6
SLD-Durchgehend
 62
     8
370
    18
100
AcDbCircle
 10
98.2816682018
 20
174.4502520248
 30
0.0
 40
0.3842554769782204
100
AcDbArc
 50
242.6096722366
 51
297.3903277634
  0
LINE
  5
1E0
330
1F
100
AcDbEntity
  8
0
  6
SLD-Durchgehend
 62
     8
370
    18
100
AcDbLine
 10
98.1048915065
 20
174.1090742536
 30
0.0
 11
98.1048915065
 21
182.8557902406
 31
0.0
  0
LINE
  5
1E1
330
1F
100
AcDbEntity
  8
0
  6
SLD-Durchgehend
 62
     8
370
    18
100
AcDbLine
 10
98.4584448971
 20
182.8557902406
 30
0.0
 11
98.4584448971
 21
174.1090742536
 31
0.0
  0
LINE
  5
1E2
330
1F
100
AcDbEntity
  8
0
  6
SLD-Durchgehend
 62
     8
370
    18
100
AcDbLine
 10
98.1048915065
 20
182.8557902406
 30
0.0
 11
78.9377888907
 21
193.920723057
 31
0.0
  0
ARC
  5
1E3
330
1F
100
AcDbEntity
  8
0
  6
SLD-Durchgehend
 62
     8
370
    18
100
AcDbCircle
 10
79.3225598599
 20
193.9028986481
 30
0.0
 40
0.385183603323478
100
AcDbArc
 50
123.2297058793
 51
177.3476850206
  0
LINE
  5
1E4
330
1F
100
AcDbEntity
  8
0
  6
SLD-Durchgehend
 62
     8
370
    18
100
AcDbLine
 10
98.4584448971
 20
174.1090742536
 30
0.0
 11
101.6404254125
 21
175.8818550272
 31
0.0
  0
LINE
  5
1E5
330
1F
100
AcDbEntity
  8
0
  6
SLD-Durchgehend
 62
     8
370
    18
100
AcDbLine
 10
101.6404254125
 20
175.8818550272
 30
0.0
 11
101.6404254125
 21
184.7568459702
 31
0.0
  0
ELLIPSE
  5
1E6
330
1F
100
AcDbEntity
  8
0
  6
SLD-Durchgehend
 62
     8
370
    18
100
AcDbEllipse
 10
83.3574485805
 20
184.6638816781
 30
0.0
 11
-0.2499796645817441
 21
0.4330244419159329
 31
0.0
210
0.0
220
0.0
230
1.0
 40
0.5775574346
 41
3.927224423831263
 42
5.497716164130901
  0
LINE
  5
1E7
330
1F
100
AcDbEntity
  8
0
  6
SLD-Durchgehend
 62
     8
370
    18
100
AcDbLine
 10
76.9935414059
 20
188.7460196878
 30
0.0
 11
83.3575562845
 21
185.0721520989
 31
0.0
  0
LINE
  5
1E8
330
1F
100
AcDbEntity
  8
0
  6
SLD-Durchgehend
 62
     8
370
    18
100
AcDbLine
 10
76.9935414059
 20
192.7979680051
 30
0.0
 11
76.9935414059
 21
188.7460196878
 31
0.0
  0
ELLIPSE
  5
1E9
330
1F
100
AcDbEntity
  8
0
  6
SLD-Durchgehend
 62
     8
370
    18
100
AcDbEllipse
 10
78.9383812627
 20
191.6745518046
 30
0.0
 11
-1.375307195641014
 21
2.382359836774015
 31
0.0
210
0.0
220
0.0
230
1.0
 40
0.5772057094
 41
5.498020651610322
 42
7.068512391910038
  0
LINE
  5
1EA
330
1F
100
AcDbEntity
  8
0
  6
SLD-Durchgehend
 62
     8
370
    18
100
AcDbLine
 10
83.7110558272
 20
182.418458721
 30
0.0
 11
98.1048915065
 21
174.1090742536
 31
0.0
  0
LINE
  5
1EB
330
1F
100
AcDbEntity
  8
0
  6
SLD-Durchgehend
 62
     8
370
    18
100
AcDbLine
 10
83.7110558272
 20
184.4598729323
 30
0.0
 11
83.7110558272
 21
182.418458721
 31
0.0
  0
ARC
  5
1EC
330
1F
100
AcDbEntity
  8
0
  6
SLD-Durchgehend
 62
     8
370
    18
100
AcDbCircle
 10
128.8554274506
 20
144.7497095291
 30
0.0
 40
2.496694293127054
100
AcDbArc
 50
305.7308095821
 51
5.8968904388
  0
ARC
  5
1ED
330
1F
100
AcDbEntity
  8
0
  6
SLD-Durchgehend
 62
     8
370
    18
100
AcDbCircle
 10
127.7517707723
 20
143.054300352
 30
0.0
 40
0.1257756312231337
100
AcDbArc
 50
174.3804127364
 51
234.2928756897
  0
ELLIPSE
  5
1EE
330
1F
100
AcDbEntity
  8
0
  6
SLD-Durchgehend
 62
     8
370
    18
100
AcDbEllipse
 10
101.8172021078
 20
184.6547949562
 30
0.0
 11
0.2499562615734732
 21
0.007832032014903234
 31
0.0
210
0.0
220
0.0
230
1.0
 40
0.5970670843
 41
0.7666920784086941
 42
2.337488405203538
  0
ELLIPSE
  5
1EF
330
1F
100
AcDbEntity
  8
0
  6
SLD-Durchgehend
 62
     8
370
    18
100
AcDbEllipse
 10
101.8172021078
 20
175.7798040132
 30
0.0
 11
0.2499669154307327
 21
-0.007304350111610346
 31
0.0
210
0.0
220
0.0
230
1.0
 40
0.5568032916
 41
0.8016672258191035
 42
2.37246355261378
  0
LINE
  5
1F0
330
1F
100
AcDbEntity
  8
0
  6
SLD-Durchgehend
 62
     8
370
    18
100
AcDbLine
 10
89.442833437
 20
186.1363578205
 30
0.0
 11
87.675066484
 21
185.1158476807
 31
0.0
  0
ARC
  5
1F1
330
1F
100
AcDbEntity
  8
0
  6
SLD-Durchgehend
 62
     8
370
    18
100
AcDbCircle
 10
102.1167176387
 20
175.8613148
 30
0.0
 40
0.123469643573452
100
AcDbArc
 50
173.7630305028
 51
234.9247891039
  0
ARC
  5
1F2
330
1F
100
AcDbEntity
  8
0
  6
SLD-Durchgehend
 62
     8
370
    18
100
AcDbCircle
 10
98.2276303421
 20
174.0956604129
 30
0.0
 40
0.1234696435719328
100
AcDbArc
 50
173.7630305024
 51
234.9247891043
  0
ARC
  5
1F3
330
1F
100
AcDbEntity
  8
0
  6
SLD-Durchgehend
 62
     8
370
    18
100
AcDbCircle
 10
98.3325036021
 20
174.0975035631
 30
0.0
 40
0.126471699116722
100
AcDbArc
 50
304.0634824367
 51
5.2492381069
  0
ARC
  5
1F4
330
1F
100
AcDbEntity
  8
0
  6
SLD-Durchgehend
 62
     8
370
    18
100
AcDbCircle
 10
101.5144841174
 20
175.8702843367
 30
0.0
 40
0.1264716991159387
100
AcDbArc
 50
304.0634824365
 51
5.2492381071
  0
ARC
  5
1F5
330
1F
100
AcDbEntity
  8
0
  6
SLD-Durchgehend
 62
     8
370
    18
100
AcDbCircle
 10
83.8337946628
 20
182.4050448803
 30
0.0
 40
0.1234696435737639
100
AcDbArc
 50
173.7630305029
 51
234.9247891038
  0
ARC
  5
1F6
330
1F
100
AcDbEntity
  8
0
  6
SLD-Durchgehend
 62
     8
370
    18
100
AcDbCircle
 10
87.444013569
 20
166.3207261974
 30
0.0
 40
0.1232444824326574
100
AcDbArc
 50
173.7011524629
 51
234.9866671437
  0
LINE
  5
1F7
330
1F
100
AcDbEntity
  8
0
  6
SLD-Durchgehend
 62
     8
370
    18
100
AcDbLine
 10
89.442833437
 20
184.9115466026
 30
0.0
 11
87.675066484
 21
183.8910364629
 31
0.0
  0
LINE
  5
1F8
330
1F
100
AcDbEntity
  8
0
  6
SLD-Durchgehend
 62
     8
370
    18
100
AcDbLine
 10
92.1665589044
 20
185.8718128123
 30
0.0
 11
91.0338236947
 21
185.2178986947
 31
0.0
  0
LINE
  5
1F9
330
1F
100
AcDbEntity
  8
0
  6
SLD-Durchgehend
 62
     8
370
    18
100
AcDbLine
 10
92.8265259539
 20
185.0279924625
 30
0.0
 11
91.0338236947
 21
183.9930874768
 31
0.0
  0
ELLIPSE
  5
1FA
330
1F
100
AcDbEntity
  8
0
  6
SLD-Durchgehend
 62
     8
370
    18
100
AcDbEllipse
 10
79.115157958
 20
191.7766028186
 30
0.0
 11
-1.506799710193348
 21
2.595026569992541
 31
0.0
210
0.0
220
0.0
230
1.0
 40
0.5772327004
 41
5.496567512406553
 42
6.29918156383755
  0
ARC
  5
1FB
330
1F
100
AcDbEntity
  8
0
  6
SLD-Durchgehend
 62
     8
370
    18
100
AcDbCircle
 10
77.0432854891
 20
192.9109604396
 30
0.0
 40
0.1234575394929963
100
AcDbArc
 50
185.1073334578
 51
246.2388611208
  0
ELLIPSE
  5
1FC
330
1F
100
AcDbEntity
  8
0
  6
SLD-Durchgehend
 62
     8
370
    18
100
AcDbEllipse
 10
84.6732714493
 20
195.2132592754
 30
0.0
 11
-1.493868034235234
 21
2.602843566403124
 31
0.0
210
0.0
220
0.0
230
1.0
 40
0.5771738437
 41
5.499473347152875
 42
6.302087398583883
  0
ARC
  5
1FD
330
1F
100
AcDbEntity
  8
0
  6
SLD-Durchgehend
 62
     8
370
    18
100
AcDbCircle
 10
83.4836943323
 20
185.0600759527
 30
0.0
 40
0.1267147995616319
100
AcDbArc
 50
174.5313105238
 51
233.2034798136
  0
ARC
  5
1FE
330
1F
100
AcDbEntity
  8
0
  6
SLD-Durchgehend
 62
     8
370
    18
100
AcDbCircle
 10
83.7635792138
 20
184.5750478147
 30
0.0
 40
0.1265857798974017
100
AcDbArc
 50
186.6573191767
 51
245.4855150405
  0
ARC
  5
1FF
330
1F
100
AcDbEntity
  8
0
  6
SLD-Durchgehend
 62
     8
370
    18
100
AcDbCircle
 10
83.7607875535
 20
182.5314370424
 30
0.0
 40
0.1234396439438725
100
AcDbArc
 50
185.0786699092
 51
246.2414710484
  0
ARC
  5
200
330
1F
100
AcDbEntity
  8
0
  6
SLD-Durchgehend
 62
     8
370
    18
100
AcDbCircle
 10
77.1162802415
 20
188.7326058472
 30
0.0
 40
0.1234696435740598
100
AcDbArc
 50
173.763030503
 51
234.9247891037
  0
ARC
  5
201
330
1F
100
AcDbEntity
  8
0
  6
SLD-Durchgehend
 62
     8
370
    18
100
AcDbCircle
 10
77.0432731322
 20
188.8589980092
 30
0.0
 40
0.1234396439431959
100
AcDbArc
 50
185.078669909
 51
246.2414710486
  0
ARC
  5
202
330
1F
100
AcDbEntity
  8
0
  6
SLD-Durchgehend
 62
     8
370
    18
100
AcDbCircle
 10
80.8498771271
 20
196.8516271462
 30
0.0
 40
5.098504036967692
100
AcDbArc
 50
57.2344343396
 51
92.687847131
  0
ARC
  5
203
330
1F
100
AcDbEntity
  8
0
  6
SLD-Durchgehend
 62
     8
370
    18
100
AcDbCircle
 10
84.0146468437
 20
172.266313612
 30
0.0
 40
0.1257348196233534
100
AcDbArc
 50
185.6947992512
 51
245.6253417064
  0
ENDSEC
  0
SECTION
  2
OBJECTS
  0
DICTIONARY
  5
C
330
0
100
AcDbDictionary
281
     1
  3
ACAD_DETAILVIEWSTYLE
350
20B
  3
ACAD_GROUP
350
D
  3
ACAD_LAYOUT
350
1A
  3
ACAD_MATERIAL
350
43
  3
ACAD_MLEADERSTYLE
350
6B
  3
ACAD_MLINESTYLE
350
17
  3
ACAD_PLOTSETTINGS
350
19
  3
ACAD_PLOTSTYLENAME
350
E
  3
ACAD_SCALELIST
350
47
  3
ACAD_SECTIONVIEWSTYLE
350
20C
  3
ACAD_TABLESTYLE
350
69
  3
ACAD_VISUALSTYLE
350
2A
  3
ACDB_RECOMPOSE_DATA
350
208
  3
AcDbVariableDictionary
350
204
  0
SUN
  5
6D
330
29
100
AcDbSun
 90
        1
290
     0
 63
     7
421
 16777215
 40
1.0
291
     1
 91
  2455826
 92
 54000000
292
     0
 70
     2
 71
   256
280
     1
  0
DICTIONARY
  5
20B
102
{ACAD_REACTORS
330
C
102
}
330
C
100
AcDbDictionary
281
     1
  0
DICTIONARY
  5
D
102
{ACAD_REACTORS
330
C
102
}
330
C
100
AcDbDictionary
281
     1
  0
DICTIONARY
  5
1A
102
{ACAD_REACTORS
330
C
102
}
330
C
100
AcDbDictionary
281
     1
  3
Layout1
350
1E
  3
Layout2
350
26
  3
Model
350
22
  0
DICTIONARY
  5
43
102
{ACAD_REACTORS
330
C
102
}
330
C
100
AcDbDictionary
281
     1
  3
ByBlock
350
45
  3
ByLayer
350
44
  3
Global
350
46
  0
DICTIONARY
  5
6B
102
{ACAD_REACTORS
330
C
102
}
330
C
100
AcDbDictionary
281
     1
  3
Standard
350
6C
  0
DICTIONARY
  5
17
102
{ACAD_REACTORS
330
C
102
}
330
C
100
AcDbDictionary
281
     1
  3
Standard
350
18
  0
DICTIONARY
  5
19
102
{ACAD_REACTORS
330
C
102
}
330
C
100
AcDbDictionary
281
     1
  0
ACDBDICTIONARYWDFLT
  5
E
102
{ACAD_REACTORS
330
C
102
}
330
C
100
AcDbDictionary
281
     1
  3
Normal
350
F
100
AcDbDictionaryWithDefault
340
F
  0
DICTIONARY
  5
47
102
{ACAD_REACTORS
330
C
102
}
330
C
100
AcDbDictionary
281
     1
  3
A0
350
48
  3
A1
350
49
  3
A2
350
4A
  3
A3
350
4B
  3
A4
350
4C
  3
A5
350
4D
  3
A6
350
4E
  3
A7
350
4F
  3
A8
350
50
  3
A9
350
51
  3
B0
350
52
  3
B1
350
53
  3
B2
350
54
  3
B3
350
55
  3
B4
350
56
  3
B5
350
57
  3
B6
350
58
  3
B7
350
59
  3
B8
350
5A
  3
B9
350
5B
  3
C0
350
5C
  3
C1
350
5D
  3
C2
350
5E
  3
C3
350
5F
  3
C4
350
60
  3
C5
350
61
  3
C6
350
62
  3
C7
350
63
  3
C8
350
64
  3
C9
350
65
  3
D0
350
66
  3
D1
350
67
  3
D2
350
68
  0
DICTIONARY
  5
20C
102
{ACAD_REACTORS
330
C
102
}
330
C
100
AcDbDictionary
281
     1
  0
DICTIONARY
  5
69
102
{ACAD_REACTORS
330
C
102
}
330
C
100
AcDbDictionary
281
     1
  3
Standard
350
6A
  0
DICTIONARY
  5
2A
102
{ACAD_REACTORS
330
C
102
}
330
C
100
AcDbDictionary
281
     1
  3
2dWireframe
350
2F
  3
Basic
350
32
  3
Brighten
350
36
  3
ColorChange
350
3A
  3
Conceptual
350
34
  3
Dim
350
35
  3
EdgeColorOff
350
3D
  3
Facepattern
350
39
  3
Flat
350
2B
  3
FlatWithEdges
350
2C
  3
Gouraud
350
2D
  3
GouraudWithEdges
350
2E
  3
Hidden
350
31
  3
JitterOff
350
3B
  3
Linepattern
350
38
  3
OverhangOff
350
3C
  3
Realistic
350
33
  3
Shaded
350
42
  3
Shaded with edges
350
41
  3
Shades of Gray
350
3E
  3
Sketchy
350
3F
  3
Thicken
350
37
  3
Wireframe
350
30
  3
X-Ray
350
40
  0
XRECORD
  5
208
102
{ACAD_REACTORS
330
C
102
}
330
C
100
AcDbXrecord
280
     1
 90
        1
330
6A
  0
DICTIONARY
  5
204
102
{ACAD_REACTORS
330
C
102
}
330
C
100
AcDbDictionary
281
     1
  3
CANNOSCALE
350
205
  3
CENTEREXE
350
20D
  3
CENTERLTYPEFILE
350
20E
  3
CMLEADERSTYLE
350
20A
  3
CTABLESTYLE
350
209
  0
LAYOUT
  5
1E
102
{ACAD_REACTORS
330
1A
102
}
330
1A
100
AcDbPlotSettings
  1

  2
none_device
  4

  6

 40
0.0
 41
0.0
 42
0.0
 43
0.0
 44
0.0
 45
0.0
 46
0.0
 47
0.0
 48
0.0
 49
0.0
140
0.0
141
0.0
142
1.0
143
1.0
 70
   688
 72
     1
 73
     0
 74
     5
  7

 75
    16
 76
     0
 77
     2
 78
   300
147
1.0
148
0.0
149
0.0
100
AcDbLayout
  1
Layout1
 70
     1
 71
     1
 10
0.0
 20
0.0
 11
420.0
 21
297.0
 12
0.0
 22
0.0
 32
0.0
 14
1.0000000000E+20
 24
1.0000000000E+20
 34
1.0000000000E+20
 15
-1.0000000000E+20
 25
-1.0000000000E+20
 35
-1.0000000000E+20
146
0.0
 13
0.0
 23
0.0
 33
0.0
 16
1.0
 26
0.0
 36
0.0
 17
0.0
 27
1.0
 37
0.0
 76
     0
330
1B
  0
LAYOUT
  5
26
102
{ACAD_REACTORS
330
1A
102
}
330
1A
100
AcDbPlotSettings
  1

  2
none_device
  4

  6

 40
0.0
 41
0.0
 42
0.0
 43
0.0
 44
0.0
 45
0.0
 46
0.0
 47
0.0
 48
0.0
 49
0.0
140
0.0
141
0.0
142
1.0
143
1.0
 70
   688
 72
     1
 73
     0
 74
     5
  7

 75
    16
 76
     0
 77
     2
 78
   300
147
1.0
148
0.0
149
0.0
100
AcDbLayout
  1
Layout2
 70
     1
 71
     2
 10
0.0
 20
0.0
 11
0.0
 21
0.0
 12
0.0
 22
0.0
 32
0.0
 14
0.0
 24
0.0
 34
0.0
 15
0.0
 25
0.0
 35
0.0
146
0.0
 13
0.0
 23
0.0
 33
0.0
 16
1.0
 26
0.0
 36
0.0
 17
0.0
 27
1.0
 37
0.0
 76
     0
330
23
  0
LAYOUT
  5
22
102
{ACAD_REACTORS
330
1A
102
}
330
1A
100
AcDbPlotSettings
  1

  2
none_device
  4
Letter_(8.50_x_11.00_Inches)
  6

 40
6.35
 41
6.35
 42
6.35000508
 43
6.35000508
 44
215.9
 45
279.4
 46
0.0
 47
0.0
 48
0.0
 49
0.0
140
0.0
141
0.0
142
1.0
143
1.0
 70
  1712
 72
     1
 73
     0
 74
     0
  7

 75
     0
 76
     0
 77
     2
 78
   300
147
1.0
148
0.0
149
0.0
100
AcDbLayout
  1
Model
 70
     1
 71
     0
 10
0.0
 20
0.0
 11
210.0
 21
297.0
 12
0.0
 22
0.0
 32
0.0
 14
0.0
 24
0.0
 34
0.0
 15
210.0
 25
297.0
 35
0.0
146
0.0
 13
0.0
 23
0.0
 33
0.0
 16
1.0
 26
0.0
 36
0.0
 17
0.0
 27
1.0
 37
0.0
 76
     0
330
1F
331
29
  0
MATERIAL
  5
45
102
{ACAD_REACTORS
330
43
102
}
330
43
100
AcDbMaterial
  1
ByBlock
 72
     1
 94
      127
  0
MATERIAL
  5
44
102
{ACAD_REACTORS
330
43
102
}
330
43
100
AcDbMaterial
  1
ByLayer
 72
     1
 94
      127
  0
MATERIAL
  5
46
102
{ACAD_REACTORS
330
43
102
}
330
43
100
AcDbMaterial
  1
Global
 72
     1
 94
      127
  0
MLEADERSTYLE
  5
6C
102
{ACAD_REACTORS
330
6B
102
}
330
6B
100
AcDbMLeaderStyle
179
     2
170
     2
171
     1
172
     0
 90
        2
 40
0.0
 41
0.0
173
     1
 91
-1056964608
340
14
 92
       -2
290
     1
 42
2.0
291
     1
 43
8.0
  3
Standard
341
0
 44
4.0
300

342
11
174
     1
178
     6
175
     1
176
     0
 93
-1056964608
 45
4.0
292
     0
297
     0
 46
4.0
343
0
 94
-1056964608
 47
1.0
 49
1.0
140
1.0
293
     1
141
0.0
294
     1
177
     0
142
1.0
295
     0
296
     0
143
3.75
271
     0
272
     9
273
     9
  0
MLINESTYLE
  5
18
102
{ACAD_REACTORS
330
17
102
}
330
17
100
AcDbMlineStyle
  2
Standard
 70
     0
  3

 62
   256
 51
90.0
 52
90.0
 71
     2
 49
0.5
 62
   256
  6
BYLAYER
 49
-0.5
 62
   256
  6
BYLAYER
  0
ACDBPLACEHOLDER
  5
F
102
{ACAD_REACTORS
330
E
102
}
330
E
  0
SCALE
  5
48
102
{ACAD_REACTORS
330
47
102
}
330
47
100
AcDbScale
 70
     0
300
1:1
140
1.0
141
1.0
290
     1
  0
SCALE
  5
49
102
{ACAD_REACTORS
330
47
102
}
330
47
100
AcDbScale
 70
     0
300
1:2
140
1.0
141
2.0
290
     0
  0
SCALE
  5
4A
102
{ACAD_REACTORS
330
47
102
}
330
47
100
AcDbScale
 70
     0
300
1:4
140
1.0
141
4.0
290
     0
  0
SCALE
  5
4B
102
{ACAD_REACTORS
330
47
102
}
330
47
100
AcDbScale
 70
     0
300
1:5
140
1.0
141
5.0
290
     0
  0
SCALE
  5
4C
102
{ACAD_REACTORS
330
47
102
}
330
47
100
AcDbScale
 70
     0
300
1:8
140
1.0
141
8.0
290
     0
  0
SCALE
  5
4D
102
{ACAD_REACTORS
330
47
102
}
330
47
100
AcDbScale
 70
     0
300
1:10
140
1.0
141
10.0
290
     0
  0
SCALE
  5
4E
102
{ACAD_REACTORS
330
47
102
}
330
47
100
AcDbScale
 70
     0
300
1:16
140
1.0
141
16.0
290
     0
  0
SCALE
  5
4F
102
{ACAD_REACTORS
330
47
102
}
330
47
100
AcDbScale
 70
     0
300
1:20
140
1.0
141
20.0
290
     0
  0
SCALE
  5
50
102
{ACAD_REACTORS
330
47
102
}
330
47
100
AcDbScale
 70
     0
300
1:30
140
1.0
141
30.0
290
     0
  0
SCALE
  5
51
102
{ACAD_REACTORS
330
47
102
}
330
47
100
AcDbScale
 70
     0
300
1:40
140
1.0
141
40.0
290
     0
  0
SCALE
  5
52
102
{ACAD_REACTORS
330
47
102
}
330
47
100
AcDbScale
 70
     0
300
1:50
140
1.0
141
50.0
290
     0
  0
SCALE
  5
53
102
{ACAD_REACTORS
330
47
102
}
330
47
100
AcDbScale
 70
     0
300
1:100
140
1.0
141
100.0
290
     0
  0
SCALE
  5
54
102
{ACAD_REACTORS
330
47
102
}
330
47
100
AcDbScale
 70
     0
300
2:1
140
2.0
141
1.0
290
     0
  0
SCALE
  5
55
102
{ACAD_REACTORS
330
47
102
}
330
47
100
AcDbScale
 70
     0
300
4:1
140
4.0
141
1.0
290
     0
  0
SCALE
  5
56
102
{ACAD_REACTORS
330
47
102
}
330
47
100
AcDbScale
 70
     0
300
8:1
140
8.0
141
1.0
290
     0
  0
SCALE
  5
57
102
{ACAD_REACTORS
330
47
102
}
330
47
100
AcDbScale
 70
     0
300
10:1
140
10.0
141
1.0
290
     0
  0
SCALE
  5
58
102
{ACAD_REACTORS
330
47
102
}
330
47
100
AcDbScale
 70
     0
300
100:1
140
100.0
141
1.0
290
     0
  0
SCALE
  5
59
102
{ACAD_REACTORS
330
47
102
}
330
47
100
AcDbScale
 70
     0
300
1/128" = 1'-0"
140
0.0078125
141
12.0
290
     0
  0
SCALE
  5
5A
102
{ACAD_REACTORS
330
47
102
}
330
47
100
AcDbScale
 70
     0
300
1/64" = 1'-0"
140
0.015625
141
12.0
290
     0
  0
SCALE
  5
5B
102
{ACAD_REACTORS
330
47
102
}
330
47
100
AcDbScale
 70
     0
300
1/32" = 1'-0"
140
0.03125
141
12.0
290
     0
  0
SCALE
  5
5C
102
{ACAD_REACTORS
330
47
102
}
330
47
100
AcDbScale
 70
     0
300
1/16" = 1'-0"
140
0.0625
141
12.0
290
     0
  0
SCALE
  5
5D
102
{ACAD_REACTORS
330
47
102
}
330
47
100
AcDbScale
 70
     0
300
3/32" = 1'-0"
140
0.09375
141
12.0
290
     0
  0
SCALE
  5
5E
102
{ACAD_REACTORS
330
47
102
}
330
47
100
AcDbScale
 70
     0
300
1/8" = 1'-0"
140
0.125
141
12.0
290
     0
  0
SCALE
  5
5F
102
{ACAD_REACTORS
330
47
102
}
330
47
100
AcDbScale
 70
     0
300
3/16" = 1'-0"
140
0.1875
141
12.0
290
     0
  0
SCALE
  5
60
102
{ACAD_REACTORS
330
47
102
}
330
47
100
AcDbScale
 70
     0
300
1/4" = 1'-0"
140
0.25
141
12.0
290
     0
  0
SCALE
  5
61
102
{ACAD_REACTORS
330
47
102
}
330
47
100
AcDbScale
 70
     0
300
3/8" = 1'-0"
140
0.375
141
12.0
290
     0
  0
SCALE
  5
62
102
{ACAD_REACTORS
330
47
102
}
330
47
100
AcDbScale
 70
     0
300
1/2" = 1'-0"
140
0.5
141
12.0
290
     0
  0
SCALE
  5
63
102
{ACAD_REACTORS
330
47
102
}
330
47
100
AcDbScale
 70
     0
300
3/4" = 1'-0"
140
0.75
141
12.0
290
     0
  0
SCALE
  5
64
102
{ACAD_REACTORS
330
47
102
}
330
47
100
AcDbScale
 70
     0
300
1" = 1'-0"
140
1.0
141
12.0
290
     0
  0
SCALE
  5
65
102
{ACAD_REACTORS
330
47
102
}
330
47
100
AcDbScale
 70
     0
300
1-1/2" = 1'-0"
140
1.5
141
12.0
290
     0
  0
SCALE
  5
66
102
{ACAD_REACTORS
330
47
102
}
330
47
100
AcDbScale
 70
     0
300
3" = 1'-0"
140
3.0
141
12.0
290
     0
  0
SCALE
  5
67
102
{ACAD_REACTORS
330
47
102
}
330
47
100
AcDbScale
 70
     0
300
6" = 1'-0"
140
6.0
141
12.0
290
     0
  0
SCALE
  5
68
102
{ACAD_REACTORS
330
47
102
}
330
47
100
AcDbScale
 70
     0
300
1'-0" = 1'-0"
140
12.0
141
12.0
290
     0
  0
TABLESTYLE
  5
6A
102
{ACAD_REACTORS
330
69
102
}
102
{ACAD_XDICTIONARY
360
206
102
}
330
69
100
AcDbTableStyle
  3
Standard
 70
     0
 71
     0
 40
0.06
 41
0.06
280
     0
281
     0
  7
STANDARD
140
4.5
170
     2
 62
     0
 63
   257
283
     0
 90
        4
 91
        0
  1

274
    -2
284
     1
 64
     0
275
    -2
285
     1
 65
     0
276
    -2
286
     1
 66
     0
277
    -2
287
     1
 67
     0
278
    -2
288
     1
 68
     0
279
    -2
289
     1
 69
     0
  7
STANDARD
140
6.0
170
     5
 62
     0
 63
   257
283
     0
 90
        4
 91
        0
  1

274
    -2
284
     1
 64
     0
275
    -2
285
     1
 65
     0
276
    -2
286
     1
 66
     0
277
    -2
287
     1
 67
     0
278
    -2
288
     1
 68
     0
279
    -2
289
     1
 69
     0
  7
STANDARD
140
4.5
170
     5
 62
     0
 63
   257
283
     0
 90
        4
 91
        0
  1

274
    -2
284
     1
 64
     0
275
    -2
285
     1
 65
     0
276
    -2
286
     1
 66
     0
277
    -2
287
     1
 67
     0
278
    -2
288
     1
 68
     0
279
    -2
289
     1
 69
     0
  0
VISUALSTYLE
  5
2F
102
{ACAD_REACTORS
330
2A
102
}
330
2A
100
AcDbVisualStyle
  2
2dWireframe
 70
     4
177
     2
291
     0
 71
     0
176
     1
 72
     2
176
     1
 73
     0
176
     1
 90
        0
176
     1
 40
0.6
176
     1
 41
30.0
176
     1
 62
     5
 63
     7
421
 16777215
176
     1
 74
     1
176
     1
 91
        4
176
     1
 64
     7
176
     1
 65
   257
176
     1
 75
     1
176
     1
175
     1
176
     1
 42
1.0
176
     1
 92
        0
176
     1
 66
   257
176
     1
 43
1.0
176
     1
 76
     1
176
     1
 77
     6
176
     1
 78
     2
176
     1
 67
     7
176
     1
 79
     5
176
     1
170
     0
176
     1
171
     0
176
     1
290
     0
176
     1
 93
        1
176
     1
 44
0.0
176
     1
173
     0
176
     1
  0
VISUALSTYLE
  5
32
102
{ACAD_REACTORS
330
2A
102
}
330
2A
100
AcDbVisualStyle
  2
Basic
 70
     7
177
     2
291
     1
 71
     1
176
     1
 72
     0
176
     1
 73
     1
176
     1
 90
        0
176
     1
 40
0.6
176
     1
 41
30.0
176
     1
 62
     5
 63
     7
421
 16777215
176
     1
 74
     0
176
     1
 91
        4
176
     1
 64
     7
176
     1
 65
   257
176
     1
 75
     1
176
     1
175
     1
176
     1
 42
1.0
176
     1
 92
        8
176
     1
 66
     7
176
     1
 43
1.0
176
     1
 76
     1
176
     1
 77
     6
176
     1
 78
     2
176
     1
 67
     7
176
     1
 79
     5
176
     1
170
     0
176
     1
171
     0
176
     1
290
     0
176
     1
 93
        1
176
     1
 44
0.0
176
     1
173
     0
176
     1
  0
VISUALSTYLE
  5
36
102
{ACAD_REACTORS
330
2A
102
}
330
2A
100
AcDbVisualStyle
  2
Brighten
 70
    12
177
     2
291
     1
 71
     2
176
     1
 72
     2
176
     1
 73
     0
176
     1
 90
        0
176
     1
 40
0.6
176
     1
 41
30.0
176
     1
 62
     5
 63
     7
421
 16777215
176
     1
 74
     1
176
     1
 91
        4
176
     1
 64
     7
176
     1
 65
   257
176
     1
 75
     1
176
     1
175
     1
176
     1
 42
1.0
176
     1
 92
        8
176
     1
 66
     7
176
     1
 43
1.0
176
     1
 76
     1
176
     1
 77
     6
176
     1
 78
     2
176
     1
 67
     7
176
     1
 79
     5
176
     1
170
     0
176
     1
171
     0
176
     1
290
     0
176
     1
 93
        1
176
     1
 44
50.0
176
     1
173
     0
176
     1
  0
VISUALSTYLE
  5
3A
102
{ACAD_REACTORS
330
2A
102
}
330
2A
100
AcDbVisualStyle
  2
ColorChange
 70
    16
177
     2
291
     1
 71
     2
176
     1
 72
     2
176
     1
 73
     3
176
     1
 90
        0
176
     1
 40
0.6
176
     1
 41
30.0
176
     1
 62
     5
 63
     8
421
  8421504
176
     1
 74
     1
176
     1
 91
        4
176
     1
 64
     7
176
     1
 65
   257
176
     1
 75
     1
176
     1
175
     1
176
     1
 42
1.0
176
     1
 92
        8
176
     1
 66
     8
424
  8421504
176
     1
 43
1.0
176
     1
 76
     1
176
     1
 77
     6
176
     1
 78
     2
176
     1
 67
     7
176
     1
 79
     5
176
     1
170
     0
176
     1
171
     0
176
     1
290
     0
176
     1
 93
        1
176
     1
 44
0.0
176
     1
173
     0
176
     1
  0
VISUALSTYLE
  5
34
102
{ACAD_REACTORS
330
2A
102
}
330
2A
100
AcDbVisualStyle
  2
Conceptual
 70
     9
177
     2
291
     0
 71
     3
176
     1
 72
     2
176
     1
 73
     0
176
     1
 90
        0
176
     1
 40
0.6
176
     1
 41
30.0
176
     1
 62
     5
 63
     7
421
 16777215
176
     1
 74
     2
176
     1
 91
        2
176
     1
 64
     7
176
     1
 65
   257
176
     1
 75
     1
176
     1
175
     1
176
     1
 42
179.0
176
     1
 92
        8
176
     1
 66
     7
176
     1
 43
1.0
176
     1
 76
     1
176
     1
 77
     6
176
     1
 78
     2
176
     1
 67
     7
176
     1
 79
     3
176
     1
170
     0
176
     1
171
     0
176
     1
290
     0
176
     1
 93
        1
176
     1
 44
0.0
176
     1
173
     0
176
     1
  0
VISUALSTYLE
  5
35
102
{ACAD_REACTORS
330
2A
102
}
330
2A
100
AcDbVisualStyle
  2
Dim
 70
    11
177
     2
291
     1
 71
     2
176
     1
 72
     2
176
     1
 73
     0
176
     1
 90
        0
176
     1
 40
0.6
176
     1
 41
30.0
176
     1
 62
     5
 63
     7
421
 16777215
176
     1
 74
     1
176
     1
 91
        4
176
     1
 64
     7
176
     1
 65
   257
176
     1
 75
     1
176
     1
175
     1
176
     1
 42
1.0
176
     1
 92
        8
176
     1
 66
     7
176
     1
 43
1.0
176
     1
 76
     1
176
     1
 77
     6
176
     1
 78
     2
176
     1
 67
     7
176
     1
 79
     5
176
     1
170
     0
176
     1
171
     0
176
     1
290
     0
176
     1
 93
        1
176
     1
 44
-50.0
176
     1
173
     0
176
     1
  0
VISUALSTYLE
  5
3D
102
{ACAD_REACTORS
330
2A
102
}
330
2A
100
AcDbVisualStyle
  2
EdgeColorOff
 70
    22
177
     2
291
     1
 71
     2
176
     0
 72
     2
176
     0
 73
     0
176
     0
 90
        0
176
     0
 40
0.6
176
     0
 41
30.0
176
     0
 62
     5
 63
     7
421
 16777215
176
     0
 74
     1
176
     0
 91
        4
176
     0
 64
     7
176
     0
 65
   257
176
     0
 75
     1
176
     0
175
     1
176
     0
 42
1.0
176
     0
 92
        8
176
     2
 66
     7
176
     0
 43
1.0
176
     0
 76
     1
176
     0
 77
     6
176
     0
 78
     2
176
     0
 67
     7
176
     0
 79
     5
176
     0
170
     0
176
     0
171
     0
176
     0
290
     0
176
     0
 93
        1
176
     0
 44
0.0
176
     0
173
     0
176
     0
  0
VISUALSTYLE
  5
39
102
{ACAD_REACTORS
330
2A
102
}
330
2A
100
AcDbVisualStyle
  2
Facepattern
 70
    15
177
     2
291
     1
 71
     2
176
     1
 72
     2
176
     1
 73
     0
176
     1
 90
        0
176
     1
 40
0.6
176
     1
 41
30.0
176
     1
 62
     5
 63
     7
421
 16777215
176
     1
 74
     1
176
     1
 91
        4
176
     1
 64
     7
176
     1
 65
   257
176
     1
 75
     1
176
     1
175
     1
176
     1
 42
1.0
176
     1
 92
        8
176
     1
 66
     7
176
     1
 43
1.0
176
     1
 76
     1
176
     1
 77
     6
176
     1
 78
     2
176
     1
 67
     7
176
     1
 79
     5
176
     1
170
     0
176
     1
171
     0
176
     1
290
     0
176
     1
 93
        1
176
     1
 44
0.0
176
     1
173
     0
176
     1
  0
VISUALSTYLE
  5
2B
102
{ACAD_REACTORS
330
2A
102
}
330
2A
100
AcDbVisualStyle
  2
Flat
 70
     0
177
     2
291
     1
 71
     2
176
     1
 72
     1
176
     1
 73
     1
176
     1
 90
        2
176
     1
 40
0.6
176
     1
 41
30.0
176
     1
 62
     5
 63
     7
421
 16777215
176
     1
 74
     0
176
     1
 91
        0
176
     1
 64
     7
176
     1
 65
   257
176
     1
 75
     1
176
     1
175
     1
176
     1
 42
1.0
176
     1
 92
        8
176
     1
 66
     7
176
     1
 43
1.0
176
     1
 76
     1
176
     1
 77
     6
176
     1
 78
     2
176
     1
 67
     7
176
     1
 79
     5
176
     1
170
     0
176
     1
171
     0
176
     1
290
     0
176
     1
 93
       13
176
     1
 44
0.0
176
     1
173
     0
176
     1
  0
VISUALSTYLE
  5
2C
102
{ACAD_REACTORS
330
2A
102
}
330
2A
100
AcDbVisualStyle
  2
FlatWithEdges
 70
     1
177
     2
291
     1
 71
     2
176
     1
 72
     1
176
     1
 73
     1
176
     1
 90
        2
176
     1
 40
0.6
176
     1
 41
30.0
176
     1
 62
     5
 63
     7
421
 16777215
176
     1
 74
     1
176
     1
 91
        0
176
     1
 64
     7
176
     1
 65
   257
176
     1
 75
     1
176
     1
175
     1
176
     1
 42
1.0
176
     1
 92
        0
176
     1
 66
   257
176
     1
 43
1.0
176
     1
 76
     1
176
     1
 77
     6
176
     1
 78
     2
176
     1
 67
     7
176
     1
 79
     5
176
     1
170
     0
176
     1
171
     0
176
     1
290
     0
176
     1
 93
       13
176
     1
 44
0.0
176
     1
173
     0
176
     1
  0
VISUALSTYLE
  5
2D
102
{ACAD_REACTORS
330
2A
102
}
330
2A
100
AcDbVisualStyle
  2
Gouraud
 70
     2
177
     2
291
     1
 71
     2
176
     1
 72
     2
176
     1
 73
     1
176
     1
 90
        2
176
     1
 40
0.6
176
     1
 41
30.0
176
     1
 62
     5
 63
     7
421
 16777215
176
     1
 74
     0
176
     1
 91
        0
176
     1
 64
     7
176
     1
 65
   257
176
     1
 75
     1
176
     1
175
     1
176
     1
 42
1.0
176
     1
 92
        0
176
     1
 66
     7
176
     1
 43
1.0
176
     1
 76
     1
176
     1
 77
     6
176
     1
 78
     2
176
     1
 67
     7
176
     1
 79
     5
176
     1
170
     0
176
     1
171
     0
176
     1
290
     0
176
     1
 93
       13
176
     1
 44
0.0
176
     1
173
     0
176
     1
  0
VISUALSTYLE
  5
2E
102
{ACAD_REACTORS
330
2A
102
}
330
2A
100
AcDbVisualStyle
  2
GouraudWithEdges
 70
     3
177
     2
291
     1
 71
     2
176
     1
 72
     2
176
     1
 73
     1
176
     1
 90
        2
176
     1
 40
0.6
176
     1
 41
30.0
176
     1
 62
     5
 63
     7
421
 16777215
176
     1
 74
     1
176
     1
 91
        0
176
     1
 64
     7
176
     1
 65
   257
176
     1
 75
     1
176
     1
175
     1
176
     1
 42
1.0
176
     1
 92
        0
176
     1
 66
   257
176
     1
 43
1.0
176
     1
 76
     1
176
     1
 77
     6
176
     1
 78
     2
176
     1
 67
     7
176
     1
 79
     5
176
     1
170
     0
176
     1
171
     0
176
     1
290
     0
176
     1
 93
       13
176
     1
 44
0.0
176
     1
173
     0
176
     1
  0
VISUALSTYLE
  5
31
102
{ACAD_REACTORS
330
2A
102
}
330
2A
100
AcDbVisualStyle
  2
Hidden
 70
     6
177
     2
291
     0
 71
     1
176
     1
 72
     2
176
     1
 73
     2
176
     1
 90
        0
176
     1
 40
0.6
176
     1
 41
30.0
176
     1
 62
     5
 63
     7
421
 16777215
176
     1
 74
     2
176
     1
 91
        2
176
     1
 64
     7
176
     1
 65
   257
176
     1
 75
     2
176
     1
175
     1
176
     1
 42
40.0
176
     1
 92
        0
176
     1
 66
   257
176
     1
 43
1.0
176
     1
 76
     1
176
     1
 77
     6
176
     1
 78
     2
176
     1
 67
     7
176
     1
 79
     3
176
     1
170
     0
176
     1
171
     0
176
     1
290
     0
176
     1
 93
        1
176
     1
 44
0.0
176
     1
173
     0
176
     1
  0
VISUALSTYLE
  5
3B
102
{ACAD_REACTORS
330
2A
102
}
330
2A
100
AcDbVisualStyle
  2
JitterOff
 70
    20
177
     2
291
     1
 71
     2
176
     0
 72
     2
176
     0
 73
     0
176
     0
 90
        0
176
     0
 40
0.6
176
     0
 41
30.0
176
     0
 62
     5
 63
     7
421
 16777215
176
     0
 74
     1
176
     0
 91
        4
176
     0
 64
     7
176
     0
 65
   257
176
     0
 75
     1
176
     0
175
     1
176
     0
 42
1.0
176
     0
 92
       10
176
     2
 66
     7
176
     0
 43
1.0
176
     0
 76
     1
176
     0
 77
     6
176
     0
 78
     2
176
     0
 67
     7
176
     0
 79
     5
176
     0
170
     0
176
     0
171
     0
176
     0
290
     0
176
     0
 93
        1
176
     0
 44
0.0
176
     0
173
     0
176
     0
  0
VISUALSTYLE
  5
38
102
{ACAD_REACTORS
330
2A
102
}
330
2A
100
AcDbVisualStyle
  2
Linepattern
 70
    14
177
     2
291
     1
 71
     2
176
     1
 72
     2
176
     1
 73
     0
176
     1
 90
        0
176
     1
 40
0.6
176
     1
 41
30.0
176
     1
 62
     5
 63
     7
421
 16777215
176
     1
 74
     1
176
     1
 91
        4
176
     1
 64
     7
176
     1
 65
   257
176
     1
 75
     7
176
     1
175
     7
176
     1
 42
1.0
176
     1
 92
        8
176
     1
 66
     7
176
     1
 43
1.0
176
     1
 76
     1
176
     1
 77
     6
176
     1
 78
     2
176
     1
 67
     7
176
     1
 79
     5
176
     1
170
     0
176
     1
171
     0
176
     1
290
     0
176
     1
 93
        1
176
     1
 44
0.0
176
     1
173
     0
176
     1
  0
VISUALSTYLE
  5
3C
102
{ACAD_REACTORS
330
2A
102
}
330
2A
100
AcDbVisualStyle
  2
OverhangOff
 70
    21
177
     2
291
     1
 71
     2
176
     0
 72
     2
176
     0
 73
     0
176
     0
 90
        0
176
     0
 40
0.6
176
     0
 41
30.0
176
     0
 62
     5
 63
     7
421
 16777215
176
     0
 74
     1
176
     0
 91
        4
176
     0
 64
     7
176
     0
 65
   257
176
     0
 75
     1
176
     0
175
     1
176
     0
 42
1.0
176
     0
 92
        9
176
     2
 66
     7
176
     0
 43
1.0
176
     0
 76
     1
176
     0
 77
     6
176
     0
 78
     2
176
     0
 67
     7
176
     0
 79
     5
176
     0
170
     0
176
     0
171
     0
176
     0
290
     0
176
     0
 93
        1
176
     0
 44
0.0
176
     0
173
     0
176
     0
  0
VISUALSTYLE
  5
33
102
{ACAD_REACTORS
330
2A
102
}
330
2A
100
AcDbVisualStyle
  2
Realistic
 70
     8
177
     2
291
     0
 71
     2
176
     1
 72
     3
176
     1
 73
     0
176
     1
 90
        2
176
     1
 40
0.6
176
     1
 41
30.0
176
     1
 62
     5
 63
     7
421
 16777215
176
     1
 74
     0
176
     1
 91
        0
176
     1
 64
     7
176
     1
 65
   257
176
     1
 75
     1
176
     1
175
     1
176
     1
 42
1.0
176
     1
 92
        8
176
     1
 66
   257
176
     1
 43
1.0
176
     1
 76
     1
176
     1
 77
     6
176
     1
 78
     2
176
     1
 67
     7
176
     1
 79
     3
176
     1
170
     0
176
     1
171
     0
176
     1
290
     0
176
     1
 93
       13
176
     1
 44
0.0
176
     1
173
     0
176
     1
  0
VISUALSTYLE
  5
42
102
{ACAD_REACTORS
330
2A
102
}
330
2A
100
AcDbVisualStyle
  2
Shaded
 70
    27
177
     2
291
     0
 71
     2
176
     1
 72
     2
176
     1
 73
     1
176
     1
 90
        2
176
     1
 40
0.6
176
     1
 41
30.0
176
     1
 62
     5
 63
     7
421
 16777215
176
     1
 74
     0
176
     1
 91
        4
176
     1
 64
     7
176
     1
 65
   257
176
     1
 75
     1
176
     1
175
     1
176
     1
 42
1.0
176
     1
 92
        8
176
     1
 66
   257
176
     1
 43
1.0
176
     1
 76
     1
176
     1
 77
     6
176
     1
 78
     2
176
     1
 67
     8
425
  7895160
176
     1
 79
     3
176
     1
170
     0
176
     1
171
     0
176
     1
290
     0
176
     1
 93
        5
176
     1
 44
0.0
176
     1
173
     0
176
     1
  0
VISUALSTYLE
  5
41
102
{ACAD_REACTORS
330
2A
102
}
330
2A
100
AcDbVisualStyle
  2
Shaded with edges
 70
    26
177
     2
291
     0
 71
     2
176
     1
 72
     2
176
     1
 73
     1
176
     1
 90
        2
176
     1
 40
0.6
176
     1
 41
30.0
176
     1
 62
     5
 63
     7
421
 16777215
176
     1
 74
     1
176
     1
 91
       10
176
     1
 64
     7
176
     1
 65
   257
176
     1
 75
     2
176
     1
175
     1
176
     1
 42
1.0
176
     1
 92
        8
176
     1
 66
   257
176
     1
 43
1.0
176
     1
 76
     1
176
     1
 77
     6
176
     1
 78
     2
176
     1
 67
     7
176
     1
 79
     3
176
     1
170
     0
176
     1
171
     0
176
     1
290
     0
176
     1
 93
        5
176
     1
 44
0.0
176
     1
173
     0
176
     1
  0
VISUALSTYLE
  5
3E
102
{ACAD_REACTORS
330
2A
102
}
330
2A
100
AcDbVisualStyle
  2
Shades of Gray
 70
    23
177
     2
291
     0
 71
     2
176
     1
 72
     2
176
     1
 73
     3
176
     1
 90
        0
176
     1
 40
0.6
176
     1
 41
30.0
176
     1
 62
     5
 63
     7
421
 16777215
176
     1
 74
     2
176
     1
 91
        2
176
     1
 64
     7
176
     1
 65
     7
176
     1
 75
     1
176
     1
175
     1
176
     1
 42
40.0
176
     1
 92
        8
176
     1
 66
     7
176
     1
 43
1.0
176
     1
 76
     1
176
     1
 77
     6
176
     1
 78
     2
176
     1
 67
     7
176
     1
 79
     3
176
     1
170
     0
176
     1
171
     0
176
     1
290
     0
176
     1
 93
        1
176
     1
 44
0.0
176
     1
173
     0
176
     1
  0
VISUALSTYLE
  5
3F
102
{ACAD_REACTORS
330
2A
102
}
330
2A
100
AcDbVisualStyle
  2
Sketchy
 70
    24
177
     2
291
     0
 71
     1
176
     1
 72
     2
176
     1
 73
     2
176
     1
 90
        0
176
     1
 40
0.6
176
     1
 41
30.0
176
     1
 62
     5
 63
     7
421
 16777215
176
     1
 74
     2
176
     1
 91
        2
176
     1
 64
     7
176
     1
 65
     7
176
     1
 75
     1
176
     1
175
     1
176
     1
 42
40.0
176
     1
 92
       11
176
     1
 66
     7
176
     1
 43
1.0
176
     1
 76
     1
176
     1
 77
     6
176
     1
 78
     2
176
     1
 67
     7
176
     1
 79
     6
176
     1
170
     0
176
     1
171
     0
176
     1
290
     0
176
     1
 93
        1
176
     1
 44
0.0
176
     1
173
     0
176
     1
  0
VISUALSTYLE
  5
37
102
{ACAD_REACTORS
330
2A
102
}
330
2A
100
AcDbVisualStyle
  2
Thicken
 70
    13
177
     2
291
     1
 71
     2
176
     1
 72
     2
176
     1
 73
     0
176
     1
 90
        0
176
     1
 40
0.6
176
     1
 41
30.0
176
     1
 62
     5
 63
     7
421
 16777215
176
     1
 74
     1
176
     1
 91
        4
176
     1
 64
     7
176
     1
 65
   257
176
     1
 75
     1
176
     1
175
     1
176
     1
 42
1.0
176
     1
 92
       12
176
     1
 66
     7
176
     1
 43
1.0
176
     1
 76
     1
176
     1
 77
     6
176
     1
 78
     2
176
     1
 67
     7
176
     1
 79
     5
176
     1
170
     0
176
     1
171
     0
176
     1
290
     0
176
     1
 93
        1
176
     1
 44
0.0
176
     1
173
     0
176
     1
  0
VISUALSTYLE
  5
30
102
{ACAD_REACTORS
330
2A
102
}
330
2A
100
AcDbVisualStyle
  2
Wireframe
 70
     5
177
     2
291
     0
 71
     0
176
     1
 72
     2
176
     1
 73
     0
176
     1
 90
        0
176
     1
 40
0.6
176
     1
 41
30.0
176
     1
 62
     5
 63
     7
421
 16777215
176
     1
 74
     1
176
     1
 91
        4
176
     1
 64
     7
176
     1
 65
   257
176
     1
 75
     1
176
     1
175
     1
176
     1
 42
1.0
176
     1
 92
        0
176
     1
 66
   257
176
     1
 43
1.0
176
     1
 76
     1
176
     1
 77
     6
176
     1
 78
     2
176
     1
 67
     7
176
     1
 79
     3
176
     1
170
     0
176
     1
171
     0
176
     1
290
     0
176
     1
 93
        1
176
     1
 44
0.0
176
     1
173
     0
176
     1
  0
VISUALSTYLE
  5
40
102
{ACAD_REACTORS
330
2A
102
}
330
2A
100
AcDbVisualStyle
  2
X-Ray
 70
    25
177
     2
291
     0
 71
     2
176
     1
 72
     2
176
     1
 73
     1
176
     1
 90
        1
176
     1
 40
0.5
176
     1
 41
30.0
176
     1
 62
     5
 63
     7
421
 16777215
176
     1
 74
     1
176
     1
 91
        0
176
     1
 64
     7
176
     1
 65
   257
176
     1
 75
     1
176
     1
175
     1
176
     1
 42
1.0
176
     1
 92
        8
176
     1
 66
     7
176
     1
 43
1.0
176
     1
 76
     1
176
     1
 77
     6
176
     1
 78
     2
176
     1
 67
     7
176
     1
 79
     3
176
     1
170
     0
176
     1
171
     0
176
     1
290
     0
176
     1
 93
       13
176
     1
 44
0.0
176
     1
173
     0
176
     1
  0
DICTIONARYVAR
  5
205
102
{ACAD_REACTORS
330
204
102
}
330
204
100
DictionaryVariables
280
     0
  1
1:1
  0
DICTIONARYVAR
  5
20D
102
{ACAD_REACTORS
330
204
102
}
330
204
100
DictionaryVariables
280
     0
  1
3.500000
  0
DICTIONARYVAR
  5
20E
102
{ACAD_REACTORS
330
204
102
}
330
204
100
DictionaryVariables
280
     0
  1
acadiso.lin
  0
DICTIONARYVAR
  5
20A
102
{ACAD_REACTORS
330
204
102
}
330
204
100
DictionaryVariables
280
     0
  1
Standard
  0
DICTIONARYVAR
  5
209
102
{ACAD_REACTORS
330
204
102
}
330
204
100
DictionaryVariables
280
     0
  1
Standard
  0
DICTIONARY
  5
206
330
6A
100
AcDbDictionary
280
     1
281
     1
  3
ACAD_ROUNDTRIP_2008_TABLESTYLE_CELLSTYLEMAP
360
207
  0
CELLSTYLEMAP
  5
207
102
{ACAD_REACTORS
330
206
102
}
330
206
100
AcDbCellStyleMap
 90
        3
300
CELLSTYLE
  1
TABLEFORMAT_BEGIN
 90
        5
170
     1
 91
        0
 92
    32768
 62
   257
 93
        1
300
CONTENTFORMAT
  1
CONTENTFORMAT_BEGIN
 90
        0
 91
        0
 92
        4
 93
        0
300

 40
0.0
140
1.0
 94
        5
 62
     0
340
11
144
6.0
309
CONTENTFORMAT_END
171
     1
301
MARGIN
  1
CELLMARGIN_BEGIN
 40
1.5
 40
1.5
 40
1.5
 40
1.5
 40
1.5
 40
1.5
309
CELLMARGIN_END
 94
        6
 95
        1
302
GRIDFORMAT
  1
GRIDFORMAT_BEGIN
 90
        0
 91
        1
 62
     0
 92
       -2
340
14
 93
        0
 40
0.045
309
GRIDFORMAT_END
 95
        2
302
GRIDFORMAT
  1
GRIDFORMAT_BEGIN
 90
        0
 91
        1
 62
     0
 92
       -2
340
14
 93
        0
 40
0.045
309
GRIDFORMAT_END
 95
        4
302
GRIDFORMAT
  1
GRIDFORMAT_BEGIN
 90
        0
 91
        1
 62
     0
 92
       -2
340
14
 93
        0
 40
0.045
309
GRIDFORMAT_END
 95
        8
302
GRIDFORMAT
  1
GRIDFORMAT_BEGIN
 90
        0
 91
        1
 62
     0
 92
       -2
340
14
 93
        0
 40
0.045
309
GRIDFORMAT_END
 95
       16
302
GRIDFORMAT
  1
GRIDFORMAT_BEGIN
 90
        0
 91
        1
 62
     0
 92
       -2
340
14
 93
        0
 40
0.045
309
GRIDFORMAT_END
 95
       32
302
GRIDFORMAT
  1
GRIDFORMAT_BEGIN
 90
        0
 91
        1
 62
     0
 92
       -2
340
14
 93
        0
 40
0.045
309
GRIDFORMAT_END
309
TABLEFORMAT_END
  1
CELLSTYLE_BEGIN
 90
        1
 91
        1
300
_TITLE
309
CELLSTYLE_END
300
CELLSTYLE
  1
TABLEFORMAT_BEGIN
 90
        5
170
     1
 91
        0
 92
        0
 62
   257
 93
        1
300
CONTENTFORMAT
  1
CONTENTFORMAT_BEGIN
 90
        0
 91
        0
 92
        4
 93
        0
300

 40
0.0
140
1.0
 94
        5
 62
     0
340
11
144
4.5
309
CONTENTFORMAT_END
171
     1
301
MARGIN
  1
CELLMARGIN_BEGIN
 40
1.5
 40
1.5
 40
1.5
 40
1.5
 40
1.5
 40
1.5
309
CELLMARGIN_END
 94
        6
 95
        1
302
GRIDFORMAT
  1
GRIDFORMAT_BEGIN
 90
        0
 91
        1
 62
     0
 92
       -2
340
14
 93
        0
 40
0.045
309
GRIDFORMAT_END
 95
        2
302
GRIDFORMAT
  1
GRIDFORMAT_BEGIN
 90
        0
 91
        1
 62
     0
 92
       -2
340
14
 93
        0
 40
0.045
309
GRIDFORMAT_END
 95
        4
302
GRIDFORMAT
  1
GRIDFORMAT_BEGIN
 90
        0
 91
        1
 62
     0
 92
       -2
340
14
 93
        0
 40
0.045
309
GRIDFORMAT_END
 95
        8
302
GRIDFORMAT
  1
GRIDFORMAT_BEGIN
 90
        0
 91
        1
 62
     0
 92
       -2
340
14
 93
        0
 40
0.045
309
GRIDFORMAT_END
 95
       16
302
GRIDFORMAT
  1
GRIDFORMAT_BEGIN
 90
        0
 91
        1
 62
     0
 92
       -2
340
14
 93
        0
 40
0.045
309
GRIDFORMAT_END
 95
       32
302
GRIDFORMAT
  1
GRIDFORMAT_BEGIN
 90
        0
 91
        1
 62
     0
 92
       -2
340
14
 93
        0
 40
0.045
309
GRIDFORMAT_END
309
TABLEFORMAT_END
  1
CELLSTYLE_BEGIN
 90
        2
 91
        1
300
_HEADER
309
CELLSTYLE_END
300
CELLSTYLE
  1
TABLEFORMAT_BEGIN
 90
        5
170
     1
 91
        0
 92
        0
 62
   257
 93
        1
300
CONTENTFORMAT
  1
CONTENTFORMAT_BEGIN
 90
        0
 91
        0
 92
        4
 93
        0
300

 40
0.0
140
1.0
 94
        2
 62
     0
340
11
144
4.5
309
CONTENTFORMAT_END
171
     1
301
MARGIN
  1
CELLMARGIN_BEGIN
 40
1.5
 40
1.5
 40
1.5
 40
1.5
 40
1.5
 40
1.5
309
CELLMARGIN_END
 94
        6
 95
        1
302
GRIDFORMAT
  1
GRIDFORMAT_BEGIN
 90
        0
 91
        1
 62
     0
 92
       -2
340
14
 93
        0
 40
0.045
309
GRIDFORMAT_END
 95
        2
302
GRIDFORMAT
  1
GRIDFORMAT_BEGIN
 90
        0
 91
        1
 62
     0
 92
       -2
340
14
 93
        0
 40
0.045
309
GRIDFORMAT_END
 95
        4
302
GRIDFORMAT
  1
GRIDFORMAT_BEGIN
 90
        0
 91
        1
 62
     0
 92
       -2
340
14
 93
        0
 40
0.045
309
GRIDFORMAT_END
 95
        8
302
GRIDFORMAT
  1
GRIDFORMAT_BEGIN
 90
        0
 91
        1
 62
     0
 92
       -2
340
14
 93
        0
 40
0.045
309
GRIDFORMAT_END
 95
       16
302
GRIDFORMAT
  1
GRIDFORMAT_BEGIN
 90
        0
 91
        1
 62
     0
 92
       -2
340
14
 93
        0
 40
0.045
309
GRIDFORMAT_END
 95
       32
302
GRIDFORMAT
  1
GRIDFORMAT_BEGIN
 90
        0
 91
        1
 62
     0
 92
       -2
340
14
 93
        0
 40
0.045
309
GRIDFORMAT_END
309
TABLEFORMAT_END
  1
CELLSTYLE_BEGIN
 90
        3
 91
        2
300
_DATA
309
CELLSTYLE_END
  0
ENDSEC
  0
EOF
