  0
SECTION
  2
HEADER
  9
$ACADVER
  1
AC1021
  9
$ACADMAINTVER
 70
    25
  9
$DWGCODEPAGE
  3
ANSI_1252
  9
$INSBASE
 10
0.0
 20
0.0
 30
0.0
  9
$EXTMIN
 10
-7.41013
 20
-5.15916
 30
0.0
  9
$EXTMAX
 10
7.84946
 20
10.50874
 30
0.0
  9
$LIMMIN
 10
0.0
 20
0.0
  9
$LIMMAX
 10
12.0
 20
9.0
  9
$ORTHOMODE
 70
     0
  9
$REGENMODE
 70
     1
  9
$FILLMODE
 70
     1
  9
$QTEXTMODE
 70
     0
  9
$MIRRTEXT
 70
     1
  9
$LTSCALE
 40
1.0
  9
$ATTMODE
 70
     1
  9
$TEXTSIZE
 40
0.2
  9
$TRACEWID
 40
0.05
  9
$TEXTSTYLE
  7
Standard
  9
$CLAYER
  8
0
  9
$CELTYPE
  6
ByLayer
  9
$CECOLOR
 62
   256
  9
$CELTSCALE
 40
1.0
  9
$DISPSILH
 70
     0
  9
$DIMSCALE
 40
1.0
  9
$DIMASZ
 40
0.18
  9
$DIMEXO
 40
0.0625
  9
$DIMDLI
 40
0.38
  9
$DIMRND
 40
0.0
  9
$DIMDLE
 40
0.0
  9
$DIMEXE
 40
0.18
  9
$DIMTP
 40
0.0
  9
$DIMTM
 40
0.0
  9
$DIMTXT
 40
0.18
  9
$DIMCEN
 40
0.09
  9
$DIMTSZ
 40
0.0
  9
$DIMTOL
 70
     0
  9
$DIMLIM
 70
     0
  9
$DIMTIH
 70
     1
  9
$DIMTOH
 70
     1
  9
$DIMSE1
 70
     0
  9
$DIMSE2
 70
     0
  9
$DIMTAD
 70
     0
  9
$DIMZIN
 70
     0
  9
$DIMBLK
  1

  9
$DIMASO
 70
     1
  9
$DIMSHO
 70
     1
  9
$DIMPOST
  1

  9
$DIMAPOST
  1

  9
$DIMALT
 70
     0
  9
$DIMALTD
 70
     2
  9
$DIMALTF
 40
25.4
  9
$DIMLFAC
 40
1.0
  9
$DIMTOFL
 70
     0
  9
$DIMTVP
 40
0.0
  9
$DIMTIX
 70
     0
  9
$DIMSOXD
 70
     0
  9
$DIMSAH
 70
     0
  9
$DIMBLK1
  1

  9
$DIMBLK2
  1

  9
$DIMSTYLE
  2
Standard
  9
$DIMCLRD
 70
     0
  9
$DIMCLRE
 70
     0
  9
$DIMCLRT
 70
     0
  9
$DIMTFAC
 40
1.0
  9
$DIMGAP
 40
0.09
  9
$DIMJUST
 70
     0
  9
$DIMSD1
 70
     0
  9
$DIMSD2
 70
     0
  9
$DIMTOLJ
 70
     1
  9
$DIMTZIN
 70
     0
  9
$DIMALTZ
 70
     0
  9
$DIMALTTZ
 70
     0
  9
$DIMUPT
 70
     0
  9
$DIMDEC
 70
     4
  9
$DIMTDEC
 70
     4
  9
$DIMALTU
 70
     2
  9
$DIMALTTD
 70
     2
  9
$DIMTXSTY
  7
Standard
  9
$DIMAUNIT
 70
     0
  9
$DIMADEC
 70
     0
  9
$DIMALTRND
 40
0.0
  9
$DIMAZIN
 70
     0
  9
$DIMDSEP
 70
    46
  9
$DIMATFIT
 70
     3
  9
$DIMFRAC
 70
     0
  9
$DIMLDRBLK
  1

  9
$DIMLUNIT
 70
     2
  9
$DIMLWD
 70
    -2
  9
$DIMLWE
 70
    -2
  9
$DIMTMOVE
 70
     0
  9
$DIMFXL
 40
1.0
  9
$DIMFXLON
 70
     0
  9
$DIMJOGANG
 40
0.7853981633974483
  9
$DIMTFILL
 70
     0
  9
$DIMTFILLCLR
 70
     0
  9
$DIMARCSYM
 70
     0
  9
$DIMLTYPE
  6

  9
$DIMLTEX1
  6

  9
$DIMLTEX2
  6

  9
$LUNITS
 70
     2
  9
$LUPREC
 70
     4
  9
$SKETCHINC
 40
0.1
  9
$FILLETRAD
 40
0.5
  9
$AUNITS
 70
     0
  9
$AUPREC
 70
     0
  9
$MENU
  1
.
  9
$ELEVATION
 40
0.0
  9
$PELEVATION
 40
0.0
  9
$THICKNESS
 40
0.0
  9
$LIMCHECK
 70
     0
  9
$CHAMFERA
 40
0.5
  9
$CHAMFERB
 40
0.5
  9
$CHAMFERC
 40
1.0
  9
$CHAMFERD
 40
0.0
  9
$SKPOLY
 70
     0
  9
$TDCREATE
 40
2456615.342125567
  9
$TDUCREATE
 40
2456615.300458901
  9
$TDUPDATE
 40
2456615.342125579
  9
$TDUUPDATE
 40
2456615.300458912
  9
$TDINDWG
 40
0.0000000116
  9
$TDUSRTIMER
 40
0.0000000116
  9
$USRTIMER
 70
     1
  9
$ANGBASE
 50
0.0
  9
$ANGDIR
 70
     0
  9
$PDMODE
 70
     0
  9
$PDSIZE
 40
0.0
  9
$PLINEWID
 40
0.0
  9
$SPLFRAME
 70
     0
  9
$SPLINETYPE
 70
     6
  9
$SPLINESEGS
 70
     8
  9
$HANDSEED
  5
180
  9
$SURFTAB1
 70
     6
  9
$SURFTAB2
 70
     6
  9
$SURFTYPE
 70
     6
  9
$SURFU
 70
     6
  9
$SURFV
 70
     6
  9
$UCSBASE
  2

  9
$UCSNAME
  2

  9
$UCSORG
 10
0.0
 20
0.0
 30
0.0
  9
$UCSXDIR
 10
1.0
 20
0.0
 30
0.0
  9
$UCSYDIR
 10
0.0
 20
1.0
 30
0.0
  9
$UCSORTHOREF
  2

  9
$UCSORTHOVIEW
 70
     0
  9
$UCSORGTOP
 10
0.0
 20
0.0
 30
0.0
  9
$UCSORGBOTTOM
 10
0.0
 20
0.0
 30
0.0
  9
$UCSORGLEFT
 10
0.0
 20
0.0
 30
0.0
  9
$UCSORGRIGHT
 10
0.0
 20
0.0
 30
0.0
  9
$UCSORGFRONT
 10
0.0
 20
0.0
 30
0.0
  9
$UCSORGBACK
 10
0.0
 20
0.0
 30
0.0
  9
$PUCSBASE
  2

  9
$PUCSNAME
  2

  9
$PUCSORG
 10
0.0
 20
0.0
 30
0.0
  9
$PUCSXDIR
 10
1.0
 20
0.0
 30
0.0
  9
$PUCSYDIR
 10
0.0
 20
1.0
 30
0.0
  9
$PUCSORTHOREF
  2

  9
$PUCSORTHOVIEW
 70
     0
  9
$PUCSORGTOP
 10
0.0
 20
0.0
 30
0.0
  9
$PUCSORGBOTTOM
 10
0.0
 20
0.0
 30
0.0
  9
$PUCSORGLEFT
 10
0.0
 20
0.0
 30
0.0
  9
$PUCSORGRIGHT
 10
0.0
 20
0.0
 30
0.0
  9
$PUCSORGFRONT
 10
0.0
 20
0.0
 30
0.0
  9
$PUCSORGBACK
 10
0.0
 20
0.0
 30
0.0
  9
$USERI1
 70
     0
  9
$USERI2
 70
     0
  9
$USERI3
 70
     0
  9
$USERI4
 70
     0
  9
$USERI5
 70
     0
  9
$USERR1
 40
0.0
  9
$USERR2
 40
0.0
  9
$USERR3
 40
0.0
  9
$USERR4
 40
0.0
  9
$USERR5
 40
0.0
  9
$WORLDVIEW
 70
     1
  9
$SHADEDGE
 70
     3
  9
$SHADEDIF
 70
    70
  9
$TILEMODE
 70
     1
  9
$MAXACTVP
 70
    64
  9
$PINSBASE
 10
0.0
 20
0.0
 30
0.0
  9
$PLIMCHECK
 70
     0
  9
$PEXTMIN
 10
1.000000000000000E+20
 20
1.000000000000000E+20
 30
1.000000000000000E+20
  9
$PEXTMAX
 10
-1.000000000000000E+20
 20
-1.000000000000000E+20
 30
-1.000000000000000E+20
  9
$PLIMMIN
 10
0.0
 20
0.0
  9
$PLIMMAX
 10
12.0
 20
9.0
  9
$UNITMODE
 70
     0
  9
$VISRETAIN
 70
     1
  9
$PLINEGEN
 70
     0
  9
$PSLTSCALE
 70
     1
  9
$TREEDEPTH
 70
  3020
  9
$CMLSTYLE
  2
Standard
  9
$CMLJUST
 70
     0
  9
$CMLSCALE
 40
1.0
  9
$PROXYGRAPHICS
 70
     1
  9
$MEASUREMENT
 70
     0
  9
$CELWEIGHT
370
    -1
  9
$ENDCAPS
280
     0
  9
$JOINSTYLE
280
     0
  9
$LWDISPLAY
290
     0
  9
$INSUNITS
 70
     5
  9
$HYPERLINKBASE
  1

  9
$STYLESHEET
  1

  9
$XEDIT
290
     1
  9
$CEPSNTYPE
380
     0
  9
$PSTYLEMODE
290
     1
  9
$FINGERPRINTGUID
  2
{4A17DFBF-30B3-4451-A010-38FED7672239}
  9
$VERSIONGUID
  2
{FAEB1C32-E019-11D5-929B-00C0DF256EC4}
  9
$EXTNAMES
290
     1
  9
$PSVPSCALE
 40
0.0
  9
$OLESTARTUP
290
     0
  9
$SORTENTS
280
   127
  9
$INDEXCTL
280
     0
  9
$HIDETEXT
280
     1
  9
$XCLIPFRAME
290
     0
  9
$HALOGAP
280
     0
  9
$OBSCOLOR
 70
   257
  9
$OBSLTYPE
280
     0
  9
$INTERSECTIONDISPLAY
280
     0
  9
$INTERSECTIONCOLOR
 70
   257
  9
$DIMASSOC
280
     2
  9
$PROJECTNAME
  1

  9
$CAMERADISPLAY
290
     0
  9
$LENSLENGTH
 40
50.0
  9
$CAMERAHEIGHT
 40
0.0
  9
$STEPSPERSEC
 40
2.0
  9
$STEPSIZE
 40
6.0
  9
$3DDWFPREC
 40
2.0
  9
$PSOLWIDTH
 40
0.25
  9
$PSOLHEIGHT
 40
4.0
  9
$LOFTANG1
 40
1.570796326794897
  9
$LOFTANG2
 40
1.570796326794897
  9
$LOFTMAG1
 40
0.0
  9
$LOFTMAG2
 40
0.0
  9
$LOFTPARAM
 70
     7
  9
$LOFTNORMALS
280
     1
  9
$LATITUDE
 40
37.795
  9
$LONGITUDE
 40
-122.394
  9
$NORTHDIRECTION
 40
0.0
  9
$TIMEZONE
 70
 -8000
  9
$LIGHTGLYPHDISPLAY
280
     1
  9
$TILEMODELIGHTSYNCH
280
     1
  9
$SOLIDHIST
280
     1
  9
$SHOWHIST
280
     1
  9
$DWFFRAME
280
     2
  9
$DGNFRAME
280
     2
  9
$REALWORLDSCALE
290
     1
  9
$INTERFERECOLOR
 62
   256
  9
$CSHADOW
280
     0
  9
$SHADOWPLANELOCATION
 40
0.0
  0
ENDSEC
  0
SECTION
  2
CLASSES
  0
CLASS
  1
ACDBDICTIONARYWDFLT
  2
AcDbDictionaryWithDefault
  3
ObjectDBX Classes
 90
        0
 91
        4
280
     0
281
     0
  0
CLASS
  1
VISUALSTYLE
  2
AcDbVisualStyle
  3
ObjectDBX Classes
 90
     4095
 91
        4
280
     0
281
     0
  0
CLASS
  1
MATERIAL
  2
AcDbMaterial
  3
ObjectDBX Classes
 90
     1153
 91
        4
280
     0
281
     0
  0
ENDSEC
  0
SECTION
  2
TABLES
  0
TABLE
  2
VPORT
  5
8
330
0
100
AcDbSymbolTable
 70
     1
  0
VPORT
  5
29
330
8
100
AcDbSymbolTableRecord
100
AcDbViewportTableRecord
  2
*Active
 70
     0
 10
0.0
 20
0.0
 11
1.0
 21
1.0
 12
10.42990654205607
 22
4.5
 13
0.0
 23
0.0
 14
0.5
 24
0.5
 15
0.5
 25
0.5
 16
0.0
 26
0.0
 36
1.0
 17
0.0
 27
0.0
 37
0.0
 40
9.0
 41
1.972972972850329
 42
50.0
 43
0.0
 44
0.0
 50
0.0
 51
0.0
 71
     0
 72
   100
 73
     1
 74
     3
 75
     0
 76
     0
 77
     0
 78
     0
281
     0
 65
     1
110
0.0
120
0.0
130
0.0
111
1.0
121
0.0
131
0.0
112
0.0
122
1.0
132
0.0
 79
     0
146
0.0
 60
     3
 61
     5
292
     1
282
     1
141
0.0
142
0.0
 63
   250
  0
ENDTAB
  0
TABLE
  2
LTYPE
  5
5
330
0
100
AcDbSymbolTable
 70
     1
  0
LTYPE
  5
14
330
5
100
AcDbSymbolTableRecord
100
AcDbLinetypeTableRecord
  2
ByBlock
 70
     0
  3

 72
    65
 73
     0
 40
0.0
  0
LTYPE
  5
15
330
5
100
AcDbSymbolTableRecord
100
AcDbLinetypeTableRecord
  2
ByLayer
 70
     0
  3

 72
    65
 73
     0
 40
0.0
  0
LTYPE
  5
16
330
5
100
AcDbSymbolTableRecord
100
AcDbLinetypeTableRecord
  2
Continuous
 70
     0
  3
Solid line
 72
    65
 73
     0
 40
0.0
  0
ENDTAB
  0
TABLE
  2
LAYER
  5
2
330
0
100
AcDbSymbolTable
 70
     1
  0
LAYER
  5
10
330
2
100
AcDbSymbolTableRecord
100
AcDbLayerTableRecord
  2
0
 70
     0
 62
     7
  6
Continuous
370
    -3
390
F
347
3E
  0
ENDTAB
  0
TABLE
  2
STYLE
  5
3
330
0
100
AcDbSymbolTable
 70
     1
  0
STYLE
  5
11
330
3
100
AcDbSymbolTableRecord
100
AcDbTextStyleTableRecord
  2
Standard
 70
     0
 40
0.0
 41
1.0
 50
0.0
 71
     0
 42
0.2
  3
txt
  4

  0
ENDTAB
  0
TABLE
  2
VIEW
  5
6
330
0
100
AcDbSymbolTable
 70
     0
  0
ENDTAB
  0
TABLE
  2
UCS
  5
7
330
0
100
AcDbSymbolTable
 70
     0
  0
ENDTAB
  0
TABLE
  2
APPID
  5
9
330
0
100
AcDbSymbolTable
 70
     2
  0
APPID
  5
12
330
9
100
AcDbSymbolTableRecord
100
AcDbRegAppTableRecord
  2
ACAD
 70
     0
  0
APPID
  5
3F
330
9
100
AcDbSymbolTableRecord
100
AcDbRegAppTableRecord
  2
ODA
 70
     0
  0
ENDTAB
  0
TABLE
  2
DIMSTYLE
  5
A
330
0
100
AcDbSymbolTable
 70
     1
100
AcDbDimStyleTable
  0
DIMSTYLE
105
27
330
A
100
AcDbSymbolTableRecord
100
AcDbDimStyleTableRecord
  2
Standard
 70
     0
178
     0
340
11
  0
ENDTAB
  0
TABLE
  2
BLOCK_RECORD
  5
1
330
0
100
AcDbSymbolTable
 70
     1
  0
BLOCK_RECORD
  5
1F
330
1
100
AcDbSymbolTableRecord
100
AcDbBlockTableRecord
  2
*Model_Space
340
22
 70
     0
280
     1
281
     0
  0
BLOCK_RECORD
  5
1B
330
1
100
AcDbSymbolTableRecord
100
AcDbBlockTableRecord
  2
*Paper_Space
340
1E
 70
     0
280
     1
281
     0
  0
BLOCK_RECORD
  5
23
330
1
100
AcDbSymbolTableRecord
100
AcDbBlockTableRecord
  2
*Paper_Space0
340
26
 70
     0
280
     1
281
     0
  0
ENDTAB
  0
ENDSEC
  0
SECTION
  2
BLOCKS
  0
BLOCK
  5
20
330
1F
100
AcDbEntity
  8
0
100
AcDbBlockBegin
  2
*Model_Space
 70
     0
 10
0.0
 20
0.0
 30
0.0
  3
*Model_Space
  1

  0
ENDBLK
  5
21
330
1F
100
AcDbEntity
  8
0
100
AcDbBlockEnd
  0
BLOCK
  5
1C
330
1B
100
AcDbEntity
 67
     1
  8
0
100
AcDbBlockBegin
  2
*Paper_Space
 70
     0
 10
0.0
 20
0.0
 30
0.0
  3
*Paper_Space
  1

  0
ENDBLK
  5
1D
330
1B
100
AcDbEntity
 67
     1
  8
0
100
AcDbBlockEnd
  0
BLOCK
  5
24
330
23
100
AcDbEntity
  8
0
100
AcDbBlockBegin
  2
*Paper_Space0
 70
     0
 10
0.0
 20
0.0
 30
0.0
  3
*Paper_Space0
  1

  0
ENDBLK
  5
25
330
23
100
AcDbEntity
  8
0
100
AcDbBlockEnd
  0
ENDSEC
  0
SECTION
  2
ENTITIES
  0
SPLINE
  5
40
330
1F
100
AcDbEntity
  8
0
370
    15
100
AcDbSpline
210
0.0
220
0.0
230
1.0
 70
     8
 71
     3
 72
     8
 73
     4
 74
     0
 42
0.0000000001
 43
0.0000000001
 40
0.0
 40
0.0
 40
0.0
 40
0.0
 40
1.0
 40
1.0
 40
1.0
 40
1.0
 10
-7.38326
 20
8.37509
 30
0.0
 10
-7.38337
 20
8.35922
 30
0.0
 10
-7.38197
 20
8.34338
 30
0.0
 10
-7.37908
 20
8.32778
 30
0.0
  0
SPLINE
  5
41
330
1F
100
AcDbEntity
  8
0
370
    15
100
AcDbSpline
210
0.0
220
0.0
230
1.0
 70
     8
 71
     3
 72
     8
 73
     4
 74
     0
 42
0.0000000001
 43
0.0000000001
 40
0.0
 40
0.0
 40
0.0
 40
0.0
 40
1.0
 40
1.0
 40
1.0
 40
1.0
 10
-3.65754
 20
8.32778
 30
0.0
 10
-3.65465
 20
8.34338
 30
0.0
 10
-3.65325
 20
8.35922
 30
0.0
 10
-3.65336
 20
8.37509
 30
0.0
  0
SPLINE
  5
42
330
1F
100
AcDbEntity
  8
0
370
    15
100
AcDbSpline
210
0.0
220
0.0
230
1.0
 70
    24
 71
     3
 72
     8
 73
     4
 74
     0
 42
0.0000000001
 43
0.0000000001
 40
0.0
 40
0.0
 40
0.0
 40
0.0
 40
1.0
 40
1.0
 40
1.0
 40
1.0
 10
-3.65336
 20
8.37509
 30
0.0
 10
-3.65336
 20
8.37509
 30
0.0
 10
-3.66796
 20
10.45159
 30
0.0
 10
-3.66796
 20
10.45159
 30
0.0
  0
SPLINE
  5
43
330
1F
100
AcDbEntity
  8
0
370
    15
100
AcDbSpline
210
0.0
220
0.0
230
1.0
 70
    24
 71
     3
 72
     8
 73
     4
 74
     0
 42
0.0000000001
 43
0.0000000001
 40
0.0
 40
0.0
 40
0.0
 40
0.0
 40
1.0
 40
1.0
 40
1.0
 40
1.0
 10
-7.36866
 20
10.45159
 30
0.0
 10
-7.36866
 20
10.45159
 30
0.0
 10
-7.38326
 20
8.37509
 30
0.0
 10
-7.38326
 20
8.37509
 30
0.0
  0
SPLINE
  5
44
330
1F
100
AcDbEntity
  8
0
370
    15
100
AcDbSpline
210
0.0
220
0.0
230
1.0
 70
    24
 71
     3
 72
     8
 73
     4
 74
     0
 42
0.0000000001
 43
0.0000000001
 40
0.0
 40
0.0
 40
0.0
 40
0.0
 40
1.0
 40
1.0
 40
1.0
 40
1.0
 10
-7.37908
 20
8.32778
 30
0.0
 10
-7.37908
 20
8.32778
 30
0.0
 10
-7.21831
 20
7.46034
 30
0.0
 10
-7.21831
 20
7.46034
 30
0.0
  0
SPLINE
  5
45
330
1F
100
AcDbEntity
  8
0
370
    15
100
AcDbSpline
210
0.0
220
0.0
230
1.0
 70
    24
 71
     3
 72
     8
 73
     4
 74
     0
 42
0.0000000001
 43
0.0000000001
 40
0.0
 40
0.0
 40
0.0
 40
0.0
 40
1.0
 40
1.0
 40
1.0
 40
1.0
 10
-3.81831
 20
7.46034
 30
0.0
 10
-3.81831
 20
7.46034
 30
0.0
 10
-3.65754
 20
8.32778
 30
0.0
 10
-3.65754
 20
8.32778
 30
0.0
  0
SPLINE
  5
46
330
1F
100
AcDbEntity
  8
0
370
    15
100
AcDbSpline
210
0.0
220
0.0
230
1.0
 70
     8
 71
     3
 72
     8
 73
     4
 74
     0
 42
0.0000000001
 43
0.0000000001
 40
0.0
 40
0.0
 40
0.0
 40
0.0
 40
1.0
 40
1.0
 40
1.0
 40
1.0
 10
-7.31866
 20
10.50124
 30
0.0
 10
-7.34613
 20
10.50124
 30
0.0
 10
-7.36846
 20
10.47906
 30
0.0
 10
-7.36866
 20
10.45159
 30
0.0
  0
SPLINE
  5
47
330
1F
100
AcDbEntity
  8
0
370
    15
100
AcDbSpline
210
0.0
220
0.0
230
1.0
 70
     8
 71
     3
 72
     8
 73
     4
 74
     0
 42
0.0000000001
 43
0.0000000001
 40
0.0
 40
0.0
 40
0.0
 40
0.0
 40
1.0
 40
1.0
 40
1.0
 40
1.0
 10
-3.66796
 20
10.45159
 30
0.0
 10
-3.66815
 20
10.47906
 30
0.0
 10
-3.69048
 20
10.50124
 30
0.0
 10
-3.71796
 20
10.50124
 30
0.0
  0
SPLINE
  5
48
330
1F
100
AcDbEntity
  8
0
370
    15
100
AcDbSpline
210
0.0
220
0.0
230
1.0
 70
     8
 71
     3
 72
     8
 73
     4
 74
     0
 42
0.0000000001
 43
0.0000000001
 40
0.0
 40
0.0
 40
0.0
 40
0.0
 40
1.0
 40
1.0
 40
1.0
 40
1.0
 10
-7.21831
 20
7.46034
 30
0.0
 10
-7.20875
 20
7.40879
 30
0.0
 10
-7.18323
 20
7.36155
 30
0.0
 10
-7.14536
 20
7.3253
 30
0.0
  0
SPLINE
  5
49
330
1F
100
AcDbEntity
  8
0
370
    15
100
AcDbSpline
210
0.0
220
0.0
230
1.0
 70
     8
 71
     3
 72
     8
 73
     4
 74
     0
 42
0.0000000001
 43
0.0000000001
 40
0.0
 40
0.0
 40
0.0
 40
0.0
 40
1.0
 40
1.0
 40
1.0
 40
1.0
 10
-3.89126
 20
7.3253
 30
0.0
 10
-3.85338
 20
7.36155
 30
0.0
 10
-3.82786
 20
7.40879
 30
0.0
 10
-3.81831
 20
7.46034
 30
0.0
  0
SPLINE
  5
4A
330
1F
100
AcDbEntity
  8
0
370
    15
100
AcDbSpline
210
0.0
220
0.0
230
1.0
 70
     8
 71
     3
 72
     8
 73
     4
 74
     0
 42
0.0000000001
 43
0.0000000001
 40
0.0
 40
0.0
 40
0.0
 40
0.0
 40
1.0
 40
1.0
 40
1.0
 40
1.0
 10
-7.10563
 20
7.27624
 30
0.0
 10
-7.11674
 20
7.2942
 30
0.0
 10
-7.13009
 20
7.31069
 30
0.0
 10
-7.14536
 20
7.3253
 30
0.0
  0
SPLINE
  5
4B
330
1F
100
AcDbEntity
  8
0
370
    15
100
AcDbSpline
210
0.0
220
0.0
230
1.0
 70
     8
 71
     3
 72
     8
 73
     4
 74
     0
 42
0.0000000001
 43
0.0000000001
 40
0.0
 40
0.0
 40
0.0
 40
0.0
 40
1.0
 40
1.0
 40
1.0
 40
1.0
 10
-3.89126
 20
7.3253
 30
0.0
 10
-3.90652
 20
7.31069
 30
0.0
 10
-3.91987
 20
7.2942
 30
0.0
 10
-3.93099
 20
7.27624
 30
0.0
  0
SPLINE
  5
4C
330
1F
100
AcDbEntity
  8
0
370
    15
100
AcDbSpline
210
0.0
220
0.0
230
1.0
 70
    24
 71
     3
 72
     8
 73
     4
 74
     0
 42
0.0000000001
 43
0.0000000001
 40
0.0
 40
0.0
 40
0.0
 40
0.0
 40
1.0
 40
1.0
 40
1.0
 40
1.0
 10
-7.05718
 20
6.72624
 30
0.0
 10
-7.05718
 20
6.72624
 30
0.0
 10
-7.03802
 20
5.99469
 30
0.0
 10
-7.03802
 20
5.99469
 30
0.0
  0
SPLINE
  5
4D
330
1F
100
AcDbEntity
  8
0
370
    15
100
AcDbSpline
210
0.0
220
0.0
230
1.0
 70
    24
 71
     3
 72
     8
 73
     4
 74
     0
 42
0.0000000001
 43
0.0000000001
 40
0.0
 40
0.0
 40
0.0
 40
0.0
 40
1.0
 40
1.0
 40
1.0
 40
1.0
 10
-3.99859
 20
5.99469
 30
0.0
 10
-3.99859
 20
5.99469
 30
0.0
 10
-3.97944
 20
6.72624
 30
0.0
 10
-3.97944
 20
6.72624
 30
0.0
  0
SPLINE
  5
4E
330
1F
100
AcDbEntity
  8
0
370
    15
100
AcDbSpline
210
0.0
220
0.0
230
1.0
 70
     8
 71
     3
 72
     8
 73
     4
 74
     0
 42
0.0000000001
 43
0.0000000001
 40
0.0
 40
0.0
 40
0.0
 40
0.0
 40
1.0
 40
1.0
 40
1.0
 40
1.0
 10
-7.03802
 20
5.99469
 30
0.0
 10
-7.03447
 20
5.85922
 30
0.0
 10
-6.92363
 20
5.75124
 30
0.0
 10
-6.78811
 20
5.75124
 30
0.0
  0
SPLINE
  5
4F
330
1F
100
AcDbEntity
  8
0
370
    15
100
AcDbSpline
210
0.0
220
0.0
230
1.0
 70
     8
 71
     3
 72
     8
 73
     4
 74
     0
 42
0.0000000001
 43
0.0000000001
 40
0.0
 40
0.0
 40
0.0
 40
0.0
 40
1.0
 40
1.0
 40
1.0
 40
1.0
 10
-4.24851
 20
5.75124
 30
0.0
 10
-4.11298
 20
5.75124
 30
0.0
 10
-4.00214
 20
5.85922
 30
0.0
 10
-3.99859
 20
5.99469
 30
0.0
  0
SPLINE
  5
50
330
1F
100
AcDbEntity
  8
0
370
    15
100
AcDbSpline
210
0.0
220
0.0
230
1.0
 70
    24
 71
     3
 72
     8
 73
     4
 74
     0
 42
0.0000000001
 43
0.0000000001
 40
0.0
 40
0.0
 40
0.0
 40
0.0
 40
1.0
 40
1.0
 40
1.0
 40
1.0
 10
-7.171
 20
6.87624
 30
0.0
 10
-7.171
 20
6.87624
 30
0.0
 10
-7.13081
 20
6.72624
 30
0.0
 10
-7.13081
 20
6.72624
 30
0.0
  0
SPLINE
  5
51
330
1F
100
AcDbEntity
  8
0
370
    15
100
AcDbSpline
210
0.0
220
0.0
230
1.0
 70
    24
 71
     3
 72
     8
 73
     4
 74
     0
 42
0.0000000001
 43
0.0000000001
 40
0.0
 40
0.0
 40
0.0
 40
0.0
 40
1.0
 40
1.0
 40
1.0
 40
1.0
 10
-3.90581
 20
6.72624
 30
0.0
 10
-3.90581
 20
6.72624
 30
0.0
 10
-3.86561
 20
6.87624
 30
0.0
 10
-3.86561
 20
6.87624
 30
0.0
  0
SPLINE
  5
52
330
1F
100
AcDbEntity
  8
0
370
    15
100
AcDbSpline
210
0.0
220
0.0
230
1.0
 70
     8
 71
     3
 72
     8
 73
     4
 74
     0
 42
0.0000000001
 43
0.0000000001
 40
0.0
 40
0.0
 40
0.0
 40
0.0
 40
1.0
 40
1.0
 40
1.0
 40
1.0
 10
-3.66246
 20
6.89363
 30
0.0
 10
-3.6245
 20
7.01241
 30
0.0
 10
-3.6245
 20
7.14006
 30
0.0
 10
-3.66245
 20
7.25884
 30
0.0
  0
SPLINE
  5
53
330
1F
100
AcDbEntity
  8
0
370
    15
100
AcDbSpline
210
0.0
220
0.0
230
1.0
 70
     8
 71
     3
 72
     8
 73
     4
 74
     0
 42
0.0000000001
 43
0.0000000001
 40
0.0
 40
0.0
 40
0.0
 40
0.0
 40
1.0
 40
1.0
 40
1.0
 40
1.0
 10
-7.37416
 20
7.25884
 30
0.0
 10
-7.41211
 20
7.14006
 30
0.0
 10
-7.41211
 20
7.01241
 30
0.0
 10
-7.37416
 20
6.89363
 30
0.0
  0
SPLINE
  5
54
330
1F
100
AcDbEntity
  8
0
370
    15
100
AcDbSpline
210
0.0
220
0.0
230
1.0
 70
     8
 71
     3
 72
     8
 73
     4
 74
     0
 42
0.0000000001
 43
0.0000000001
 40
0.0
 40
0.0
 40
0.0
 40
0.0
 40
1.0
 40
1.0
 40
1.0
 40
1.0
 10
-7.37416
 20
6.89363
 30
0.0
 10
-7.37085
 20
6.88327
 30
0.0
 10
-7.36122
 20
6.87624
 30
0.0
 10
-7.35034
 20
6.87624
 30
0.0
  0
SPLINE
  5
55
330
1F
100
AcDbEntity
  8
0
370
    15
100
AcDbSpline
210
0.0
220
0.0
230
1.0
 70
     8
 71
     3
 72
     8
 73
     4
 74
     0
 42
0.0000000001
 43
0.0000000001
 40
0.0
 40
0.0
 40
0.0
 40
0.0
 40
1.0
 40
1.0
 40
1.0
 40
1.0
 10
-3.68627
 20
6.87624
 30
0.0
 10
-3.67539
 20
6.87624
 30
0.0
 10
-3.66577
 20
6.88327
 30
0.0
 10
-3.66246
 20
6.89363
 30
0.0
  0
SPLINE
  5
56
330
1F
100
AcDbEntity
  8
0
370
    15
100
AcDbSpline
210
0.0
220
0.0
230
1.0
 70
     8
 71
     3
 72
     8
 73
     4
 74
     0
 42
0.0000000001
 43
0.0000000001
 40
0.0
 40
0.0
 40
0.0
 40
0.0
 40
1.0
 40
1.0
 40
1.0
 40
1.0
 10
-3.66246
 20
7.25884
 30
0.0
 10
-3.66577
 20
7.2692
 30
0.0
 10
-3.67539
 20
7.27624
 30
0.0
 10
-3.68627
 20
7.27624
 30
0.0
  0
SPLINE
  5
57
330
1F
100
AcDbEntity
  8
0
370
    15
100
AcDbSpline
210
0.0
220
0.0
230
1.0
 70
     8
 71
     3
 72
     8
 73
     4
 74
     0
 42
0.0000000001
 43
0.0000000001
 40
0.0
 40
0.0
 40
0.0
 40
0.0
 40
1.0
 40
1.0
 40
1.0
 40
1.0
 10
-7.35034
 20
7.27624
 30
0.0
 10
-7.36122
 20
7.27624
 30
0.0
 10
-7.37085
 20
7.2692
 30
0.0
 10
-7.37416
 20
7.25884
 30
0.0
  0
SPLINE
  5
58
330
1F
100
AcDbEntity
  8
0
370
    15
100
AcDbSpline
210
0.0
220
0.0
230
1.0
 70
    24
 71
     3
 72
     8
 73
     4
 74
     0
 42
0.0000000001
 43
0.0000000001
 40
0.0
 40
0.0
 40
0.0
 40
0.0
 40
1.0
 40
1.0
 40
1.0
 40
1.0
 10
-3.83399
 20
6.72624
 30
0.0
 10
-3.83399
 20
6.72624
 30
0.0
 10
-3.83399
 20
6.87624
 30
0.0
 10
-3.83399
 20
6.87624
 30
0.0
  0
SPLINE
  5
59
330
1F
100
AcDbEntity
  8
0
370
    15
100
AcDbSpline
210
0.0
220
0.0
230
1.0
 70
    24
 71
     3
 72
     8
 73
     4
 74
     0
 42
0.0000000001
 43
0.0000000001
 40
0.0
 40
0.0
 40
0.0
 40
0.0
 40
1.0
 40
1.0
 40
1.0
 40
1.0
 10
-7.20262
 20
6.87624
 30
0.0
 10
-7.20262
 20
6.87624
 30
0.0
 10
-7.20262
 20
6.72624
 30
0.0
 10
-7.20262
 20
6.72624
 30
0.0
  0
SPLINE
  5
5A
330
1F
100
AcDbEntity
  8
0
370
    15
100
AcDbSpline
210
0.0
220
0.0
230
1.0
 70
    24
 71
     3
 72
     8
 73
     4
 74
     0
 42
0.0000000001
 43
0.0000000001
 40
0.0
 40
0.0
 40
0.0
 40
0.0
 40
1.0
 40
1.0
 40
1.0
 40
1.0
 10
-7.20262
 20
6.72624
 30
0.0
 10
-7.20262
 20
6.72624
 30
0.0
 10
-7.20262
 20
5.22624
 30
0.0
 10
-7.20262
 20
5.22624
 30
0.0
  0
SPLINE
  5
5B
330
1F
100
AcDbEntity
  8
0
370
    15
100
AcDbSpline
210
0.0
220
0.0
230
1.0
 70
    24
 71
     3
 72
     8
 73
     4
 74
     0
 42
0.0000000001
 43
0.0000000001
 40
0.0
 40
0.0
 40
0.0
 40
0.0
 40
1.0
 40
1.0
 40
1.0
 40
1.0
 10
-3.83399
 20
5.22624
 30
0.0
 10
-3.83399
 20
5.22624
 30
0.0
 10
-3.83399
 20
6.72624
 30
0.0
 10
-3.83399
 20
6.72624
 30
0.0
  0
SPLINE
  5
5C
330
1F
100
AcDbEntity
  8
0
370
    15
100
AcDbSpline
210
0.0
220
0.0
230
1.0
 70
    24
 71
     3
 72
     8
 73
     4
 74
     0
 42
0.0000000001
 43
0.0000000001
 40
0.0
 40
0.0
 40
0.0
 40
0.0
 40
1.0
 40
1.0
 40
1.0
 40
1.0
 10
-4.9542
 20
10.50124
 30
0.0
 10
-4.9542
 20
10.50124
 30
0.0
 10
-3.71796
 20
10.50124
 30
0.0
 10
-3.71796
 20
10.50124
 30
0.0
  0
SPLINE
  5
5D
330
1F
100
AcDbEntity
  8
0
370
    15
100
AcDbSpline
210
0.0
220
0.0
230
1.0
 70
    24
 71
     3
 72
     8
 73
     4
 74
     0
 42
0.0000000001
 43
0.0000000001
 40
0.0
 40
0.0
 40
0.0
 40
0.0
 40
1.0
 40
1.0
 40
1.0
 40
1.0
 10
-7.31866
 20
10.50124
 30
0.0
 10
-7.31866
 20
10.50124
 30
0.0
 10
-4.9542
 20
10.50124
 30
0.0
 10
-4.9542
 20
10.50124
 30
0.0
  0
SPLINE
  5
5E
330
1F
100
AcDbEntity
  8
0
370
    15
100
AcDbSpline
210
0.0
220
0.0
230
1.0
 70
    24
 71
     3
 72
     8
 73
     4
 74
     0
 42
0.0000000001
 43
0.0000000001
 40
0.0
 40
0.0
 40
0.0
 40
0.0
 40
1.0
 40
1.0
 40
1.0
 40
1.0
 10
-5.12044
 20
5.75124
 30
0.0
 10
-5.12044
 20
5.75124
 30
0.0
 10
-4.24851
 20
5.75124
 30
0.0
 10
-4.24851
 20
5.75124
 30
0.0
  0
SPLINE
  5
5F
330
1F
100
AcDbEntity
  8
0
370
    15
100
AcDbSpline
210
0.0
220
0.0
230
1.0
 70
    24
 71
     3
 72
     8
 73
     4
 74
     0
 42
0.0000000001
 43
0.0000000001
 40
0.0
 40
0.0
 40
0.0
 40
0.0
 40
1.0
 40
1.0
 40
1.0
 40
1.0
 10
-6.78811
 20
5.75124
 30
0.0
 10
-6.78811
 20
5.75124
 30
0.0
 10
-5.12044
 20
5.75124
 30
0.0
 10
-5.12044
 20
5.75124
 30
0.0
  0
SPLINE
  5
60
330
1F
100
AcDbEntity
  8
0
370
    15
100
AcDbSpline
210
0.0
220
0.0
230
1.0
 70
    24
 71
     3
 72
     8
 73
     4
 74
     0
 42
0.0000000001
 43
0.0000000001
 40
0.0
 40
0.0
 40
0.0
 40
0.0
 40
1.0
 40
1.0
 40
1.0
 40
1.0
 10
-3.90581
 20
6.72624
 30
0.0
 10
-3.90581
 20
6.72624
 30
0.0
 10
-7.13081
 20
6.72624
 30
0.0
 10
-7.13081
 20
6.72624
 30
0.0
  0
SPLINE
  5
61
330
1F
100
AcDbEntity
  8
0
370
    15
100
AcDbSpline
210
0.0
220
0.0
230
1.0
 70
    24
 71
     3
 72
     8
 73
     4
 74
     0
 42
0.0000000001
 43
0.0000000001
 40
0.0
 40
0.0
 40
0.0
 40
0.0
 40
1.0
 40
1.0
 40
1.0
 40
1.0
 10
-3.68627
 20
6.87624
 30
0.0
 10
-3.68627
 20
6.87624
 30
0.0
 10
-7.35034
 20
6.87624
 30
0.0
 10
-7.35034
 20
6.87624
 30
0.0
  0
SPLINE
  5
62
330
1F
100
AcDbEntity
  8
0
370
    15
100
AcDbSpline
210
0.0
220
0.0
230
1.0
 70
    24
 71
     3
 72
     8
 73
     4
 74
     0
 42
0.0000000001
 43
0.0000000001
 40
0.0
 40
0.0
 40
0.0
 40
0.0
 40
1.0
 40
1.0
 40
1.0
 40
1.0
 10
-7.35034
 20
7.27624
 30
0.0
 10
-7.35034
 20
7.27624
 30
0.0
 10
-3.68627
 20
7.27624
 30
0.0
 10
-3.68627
 20
7.27624
 30
0.0
  0
SPLINE
  5
63
330
1F
100
AcDbEntity
  8
0
370
    15
100
AcDbSpline
210
0.0
220
0.0
230
1.0
 70
     8
 71
     3
 72
    28
 73
    24
 74
     0
 42
0.0000000001
 43
0.0000000001
 40
0.0
 40
0.0
 40
0.0
 40
0.0
 40
0.1428571428571428
 40
0.1428571428571428
 40
0.1428571428571428
 40
0.1428571428571428
 40
0.2857142857142857
 40
0.2857142857142857
 40
0.2857142857142857
 40
0.2857142857142857
 40
0.4285714285714285
 40
0.4285714285714285
 40
0.4285714285714285
 40
0.4285714285714285
 40
0.5714285714285714
 40
0.5714285714285714
 40
0.5714285714285714
 40
0.5714285714285714
 40
0.7142857142857143
 40
0.7142857142857143
 40
0.7142857142857143
 40
0.7142857142857143
 40
1.0
 40
1.0
 40
1.0
 40
1.0
 10
-3.88548
 20
6.74089
 30
0.0
 10
-3.88245
 20
6.74062
 30
0.0
 10
-3.87941
 20
6.74035
 30
0.0
 10
-3.87662
 20
6.74003
 30
0.0
 10
-3.87662
 20
6.74003
 30
0.0
 10
-3.87442
 20
6.73978
 30
0.0
 10
-3.87236
 20
6.73951
 30
0.0
 10
-3.87054
 20
6.73913
 30
0.0
 10
-3.87054
 20
6.73913
 30
0.0
 10
-3.86881
 20
6.73878
 30
0.0
 10
-3.86728
 20
6.73833
 30
0.0
 10
-3.86605
 20
6.73757
 30
0.0
 10
-3.86605
 20
6.73757
 30
0.0
 10
-3.8653
 20
6.7371
 30
0.0
 10
-3.86465
 20
6.73651
 30
0.0
 10
-3.86415
 20
6.73568
 30
0.0
 10
-3.86415
 20
6.73568
 30
0.0
 10
-3.86371
 20
6.73497
 30
0.0
 10
-3.86337
 20
6.73407
 30
0.0
 10
-3.86315
 20
6.73304
 30
0.0
 10
-3.86315
 20
6.73304
 30
0.0
 10
-3.86293
 20
6.73202
 30
0.0
 10
-3.86281
 20
6.73087
 30
0.0
 10
-3.8627
 20
6.72972
 30
0.0
  0
SPLINE
  5
64
330
1F
100
AcDbEntity
  8
0
370
    15
100
AcDbSpline
210
0.0
220
0.0
230
1.0
 70
    24
 71
     3
 72
     8
 73
     4
 74
     0
 42
0.0000000001
 43
0.0000000001
 40
0.0
 40
0.0
 40
0.0
 40
0.0
 40
1.0
 40
1.0
 40
1.0
 40
1.0
 10
-3.88548
 20
6.74089
 30
0.0
 10
-3.88548
 20
6.74089
 30
0.0
 10
-3.88627
 20
6.74109
 30
0.0
 10
-3.88627
 20
6.74109
 30
0.0
  0
SPLINE
  5
65
330
1F
100
AcDbEntity
  8
0
370
    15
100
AcDbSpline
210
0.0
220
0.0
230
1.0
 70
     8
 71
     3
 72
    12
 73
     8
 74
     0
 42
0.0000000001
 43
0.0000000001
 40
0.0
 40
0.0
 40
0.0
 40
0.0
 40
0.3333333333333333
 40
0.3333333333333333
 40
0.3333333333333333
 40
0.3333333333333333
 40
1.0
 40
1.0
 40
1.0
 40
1.0
 10
-3.86246
 20
6.72624
 30
0.0
 10
-3.86247
 20
6.72648
 30
0.0
 10
-3.86249
 20
6.72673
 30
0.0
 10
-3.8625
 20
6.72697
 30
0.0
 10
-3.8625
 20
6.72697
 30
0.0
 10
-3.86257
 20
6.72789
 30
0.0
 10
-3.86263
 20
6.7288
 30
0.0
 10
-3.8627
 20
6.72972
 30
0.0
  0
SPLINE
  5
66
330
1F
100
AcDbEntity
  8
0
370
    15
100
AcDbSpline
210
0.0
220
0.0
230
1.0
 70
    24
 71
     3
 72
     8
 73
     4
 74
     0
 42
0.0000000001
 43
0.0000000001
 40
0.0
 40
0.0
 40
0.0
 40
0.0
 40
1.0
 40
1.0
 40
1.0
 40
1.0
 10
-7.15034
 20
6.74109
 30
0.0
 10
-7.15034
 20
6.74109
 30
0.0
 10
-7.15133
 20
6.74088
 30
0.0
 10
-7.15133
 20
6.74088
 30
0.0
  0
SPLINE
  5
67
330
1F
100
AcDbEntity
  8
0
370
    15
100
AcDbSpline
210
0.0
220
0.0
230
1.0
 70
     8
 71
     3
 72
    24
 73
    20
 74
     0
 42
0.0000000001
 43
0.0000000001
 40
0.0
 40
0.0
 40
0.0
 40
0.0
 40
0.1666666666666667
 40
0.1666666666666667
 40
0.1666666666666667
 40
0.1666666666666667
 40
0.3333333333333333
 40
0.3333333333333333
 40
0.3333333333333333
 40
0.3333333333333333
 40
0.5
 40
0.5
 40
0.5
 40
0.5
 40
0.6666666666666666
 40
0.6666666666666666
 40
0.6666666666666666
 40
0.6666666666666666
 40
1.0
 40
1.0
 40
1.0
 40
1.0
 10
-7.15133
 20
6.74088
 30
0.0
 10
-7.15413
 20
6.74086
 30
0.0
 10
-7.15693
 20
6.74084
 30
0.0
 10
-7.15954
 20
6.74085
 30
0.0
 10
-7.15954
 20
6.74085
 30
0.0
 10
-7.16216
 20
6.74086
 30
0.0
 10
-7.16459
 20
6.7409
 30
0.0
 10
-7.16671
 20
6.74096
 30
0.0
 10
-7.16671
 20
6.74096
 30
0.0
 10
-7.16884
 20
6.74102
 30
0.0
 10
-7.17065
 20
6.74109
 30
0.0
 10
-7.17204
 20
6.74118
 30
0.0
 10
-7.17204
 20
6.74118
 30
0.0
 10
-7.1728
 20
6.74123
 30
0.0
 10
-7.17344
 20
6.74129
 30
0.0
 10
-7.17393
 20
6.74134
 30
0.0
 10
-7.17393
 20
6.74134
 30
0.0
 10
-7.17401
 20
6.74135
 30
0.0
 10
-7.17408
 20
6.74136
 30
0.0
 10
-7.17416
 20
6.74137
 30
0.0
  0
SPLINE
  5
68
330
1F
100
AcDbEntity
  8
0
370
    15
100
AcDbSpline
210
0.0
220
0.0
230
1.0
 70
     8
 71
     3
 72
    12
 73
     8
 74
     0
 42
0.0000000001
 43
0.0000000001
 40
0.0
 40
0.0
 40
0.0
 40
0.0
 40
0.3333333333333333
 40
0.3333333333333333
 40
0.3333333333333333
 40
0.3333333333333333
 40
1.0
 40
1.0
 40
1.0
 40
1.0
 10
-3.88627
 20
6.74109
 30
0.0
 10
-3.88995
 20
6.7426
 30
0.0
 10
-3.89364
 20
6.74411
 30
0.0
 10
-3.89747
 20
6.74512
 30
0.0
 10
-3.89747
 20
6.74512
 30
0.0
 10
-3.89849
 20
6.74539
 30
0.0
 10
-3.89952
 20
6.74562
 30
0.0
 10
-3.90055
 20
6.74586
 30
0.0
  0
SPLINE
  5
69
330
1F
100
AcDbEntity
  8
0
370
    15
100
AcDbSpline
210
0.0
220
0.0
230
1.0
 70
     8
 71
     3
 72
    20
 73
    16
 74
     0
 42
0.0000000001
 43
0.0000000001
 40
0.0
 40
0.0
 40
0.0
 40
0.0
 40
0.2
 40
0.2
 40
0.2
 40
0.2
 40
0.4
 40
0.4
 40
0.4
 40
0.4
 40
0.6
 40
0.6
 40
0.6
 40
0.6
 40
1.0
 40
1.0
 40
1.0
 40
1.0
 10
-7.1361
 20
6.74597
 30
0.0
 10
-7.1361
 20
6.74597
 30
0.0
 10
-7.13946
 20
6.74502
 30
0.0
 10
-7.13946
 20
6.74502
 30
0.0
 10
-7.13946
 20
6.74502
 30
0.0
 10
-7.13946
 20
6.74502
 30
0.0
 10
-7.15032
 20
6.7411
 30
0.0
 10
-7.15032
 20
6.7411
 30
0.0
 10
-7.15032
 20
6.7411
 30
0.0
 10
-7.15032
 20
6.7411
 30
0.0
 10
-7.15034
 20
6.74109
 30
0.0
 10
-7.15034
 20
6.74109
 30
0.0
 10
-7.15034
 20
6.74109
 30
0.0
 10
-7.15034
 20
6.74109
 30
0.0
 10
-7.15034
 20
6.74109
 30
0.0
 10
-7.15034
 20
6.74109
 30
0.0
  0
SPLINE
  5
6A
330
1F
100
AcDbEntity
  8
0
370
    15
100
AcDbSpline
210
0.0
220
0.0
230
1.0
 70
    24
 71
     3
 72
     8
 73
     4
 74
     0
 42
0.0000000001
 43
0.0000000001
 40
0.0
 40
0.0
 40
0.0
 40
0.0
 40
1.0
 40
1.0
 40
1.0
 40
1.0
 10
-7.17392
 20
6.72624
 30
0.0
 10
-7.17392
 20
6.72624
 30
0.0
 10
-7.17416
 20
6.74137
 30
0.0
 10
-7.17416
 20
6.74137
 30
0.0
  0
SPLINE
  5
6B
330
1F
100
AcDbEntity
  8
0
370
    15
100
AcDbSpline
210
0.0
220
0.0
230
1.0
 70
    24
 71
     3
 72
     8
 73
     4
 74
     0
 42
0.0000000001
 43
0.0000000001
 40
0.0
 40
0.0
 40
0.0
 40
0.0
 40
1.0
 40
1.0
 40
1.0
 40
1.0
 10
-3.88548
 20
5.22624
 30
0.0
 10
-3.88548
 20
5.22624
 30
0.0
 10
-3.88548
 20
6.74089
 30
0.0
 10
-3.88548
 20
6.74089
 30
0.0
  0
SPLINE
  5
6C
330
1F
100
AcDbEntity
  8
0
370
    15
100
AcDbSpline
210
0.0
220
0.0
230
1.0
 70
    24
 71
     3
 72
     8
 73
     4
 74
     0
 42
0.0000000001
 43
0.0000000001
 40
0.0
 40
0.0
 40
0.0
 40
0.0
 40
1.0
 40
1.0
 40
1.0
 40
1.0
 10
-3.88548
 20
5.22624
 30
0.0
 10
-3.88548
 20
5.22624
 30
0.0
 10
-7.15113
 20
5.22624
 30
0.0
 10
-7.15113
 20
5.22624
 30
0.0
  0
SPLINE
  5
6D
330
1F
100
AcDbEntity
  8
0
370
    15
100
AcDbSpline
210
0.0
220
0.0
230
1.0
 70
    24
 71
     3
 72
     8
 73
     4
 74
     0
 42
0.0000000001
 43
0.0000000001
 40
0.0
 40
0.0
 40
0.0
 40
0.0
 40
1.0
 40
1.0
 40
1.0
 40
1.0
 10
-7.15113
 20
6.72624
 30
0.0
 10
-7.15113
 20
6.72624
 30
0.0
 10
-7.15113
 20
5.22624
 30
0.0
 10
-7.15113
 20
5.22624
 30
0.0
  0
SPLINE
  5
6E
330
1F
100
AcDbEntity
  8
0
370
    15
100
AcDbSpline
210
0.0
220
0.0
230
1.0
 70
     8
 71
     3
 72
    12
 73
     8
 74
     0
 42
0.0000000001
 43
0.0000000001
 40
0.0
 40
0.0
 40
0.0
 40
0.0
 40
0.3333333333333333
 40
0.3333333333333333
 40
0.3333333333333333
 40
0.3333333333333333
 40
1.0
 40
1.0
 40
1.0
 40
1.0
 10
-7.15133
 20
6.74088
 30
0.0
 10
-7.15133
 20
6.74082
 30
0.0
 10
-7.15133
 20
6.74075
 30
0.0
 10
-7.15133
 20
6.74068
 30
0.0
 10
-7.15133
 20
6.74068
 30
0.0
 10
-7.1512
 20
6.73587
 30
0.0
 10
-7.15116
 20
6.73105
 30
0.0
 10
-7.15113
 20
6.72624
 30
0.0
  0
SPLINE
  5
6F
330
1F
100
AcDbEntity
  8
0
370
    15
100
AcDbSpline
210
0.0
220
0.0
230
1.0
 70
    24
 71
     3
 72
    20
 73
    16
 74
     0
 42
0.0000000001
 43
0.0000000001
 40
0.0
 40
0.0
 40
0.0
 40
0.0
 40
0.2
 40
0.2
 40
0.2
 40
0.2
 40
0.4
 40
0.4
 40
0.4
 40
0.4
 40
0.6
 40
0.6
 40
0.6
 40
0.6
 40
1.0
 40
1.0
 40
1.0
 40
1.0
 10
-7.17392
 20
6.72624
 30
0.0
 10
-7.17292
 20
6.72624
 30
0.0
 10
-7.17193
 20
6.72624
 30
0.0
 10
-7.17052
 20
6.72624
 30
0.0
 10
-7.17052
 20
6.72624
 30
0.0
 10
-7.16912
 20
6.72624
 30
0.0
 10
-7.16729
 20
6.72624
 30
0.0
 10
-7.16525
 20
6.72624
 30
0.0
 10
-7.16525
 20
6.72624
 30
0.0
 10
-7.16321
 20
6.72624
 30
0.0
 10
-7.16097
 20
6.72624
 30
0.0
 10
-7.15858
 20
6.72624
 30
0.0
 10
-7.15858
 20
6.72624
 30
0.0
 10
-7.15619
 20
6.72624
 30
0.0
 10
-7.15366
 20
6.72624
 30
0.0
 10
-7.15113
 20
6.72624
 30
0.0
  0
SPLINE
  5
70
330
1F
100
AcDbEntity
  8
0
370
    15
100
AcDbSpline
210
0.0
220
0.0
230
1.0
 70
    24
 71
     3
 72
     8
 73
     4
 74
     0
 42
0.0000000001
 43
0.0000000001
 40
0.0
 40
0.0
 40
0.0
 40
0.0
 40
1.0
 40
1.0
 40
1.0
 40
1.0
 10
-7.17392
 20
5.22624
 30
0.0
 10
-7.17392
 20
5.22624
 30
0.0
 10
-7.17392
 20
6.72624
 30
0.0
 10
-7.17392
 20
6.72624
 30
0.0
  0
SPLINE
  5
71
330
1F
100
AcDbEntity
  8
0
370
    15
100
AcDbSpline
210
0.0
220
0.0
230
1.0
 70
    24
 71
     3
 72
     8
 73
     4
 74
     0
 42
0.0000000001
 43
0.0000000001
 40
0.0
 40
0.0
 40
0.0
 40
0.0
 40
1.0
 40
1.0
 40
1.0
 40
1.0
 10
-7.15113
 20
5.22624
 30
0.0
 10
-7.15113
 20
5.22624
 30
0.0
 10
-7.17392
 20
5.22624
 30
0.0
 10
-7.17392
 20
5.22624
 30
0.0
  0
SPLINE
  5
72
330
1F
100
AcDbEntity
  8
0
370
    15
100
AcDbSpline
210
0.0
220
0.0
230
1.0
 70
    24
 71
     3
 72
     8
 73
     4
 74
     0
 42
0.0000000001
 43
0.0000000001
 40
0.0
 40
0.0
 40
0.0
 40
0.0
 40
1.0
 40
1.0
 40
1.0
 40
1.0
 10
-3.8627
 20
6.72972
 30
0.0
 10
-3.8627
 20
6.72972
 30
0.0
 10
-3.8627
 20
5.22624
 30
0.0
 10
-3.8627
 20
5.22624
 30
0.0
  0
SPLINE
  5
73
330
1F
100
AcDbEntity
  8
0
370
    15
100
AcDbSpline
210
0.0
220
0.0
230
1.0
 70
    24
 71
     3
 72
     8
 73
     4
 74
     0
 42
0.0000000001
 43
0.0000000001
 40
0.0
 40
0.0
 40
0.0
 40
0.0
 40
1.0
 40
1.0
 40
1.0
 40
1.0
 10
-3.8627
 20
5.22624
 30
0.0
 10
-3.8627
 20
5.22624
 30
0.0
 10
-3.88548
 20
5.22624
 30
0.0
 10
-3.88548
 20
5.22624
 30
0.0
  0
SPLINE
  5
74
330
1F
100
AcDbEntity
  8
0
370
    15
100
AcDbSpline
210
0.0
220
0.0
230
1.0
 70
    24
 71
     3
 72
     8
 73
     4
 74
     0
 42
0.0000000001
 43
0.0000000001
 40
0.0
 40
0.0
 40
0.0
 40
0.0
 40
1.0
 40
1.0
 40
1.0
 40
1.0
 10
-7.20262
 20
5.22624
 30
0.0
 10
-7.20262
 20
5.22624
 30
0.0
 10
-7.17392
 20
5.22624
 30
0.0
 10
-7.17392
 20
5.22624
 30
0.0
  0
SPLINE
  5
75
330
1F
100
AcDbEntity
  8
0
370
    15
100
AcDbSpline
210
0.0
220
0.0
230
1.0
 70
    24
 71
     3
 72
     8
 73
     4
 74
     0
 42
0.0000000001
 43
0.0000000001
 40
0.0
 40
0.0
 40
0.0
 40
0.0
 40
1.0
 40
1.0
 40
1.0
 40
1.0
 10
-3.83399
 20
5.22624
 30
0.0
 10
-3.83399
 20
5.22624
 30
0.0
 10
-3.8627
 20
5.22624
 30
0.0
 10
-3.8627
 20
5.22624
 30
0.0
  0
SPLINE
  5
76
330
1F
100
AcDbEntity
  8
0
 62
     8
370
    15
100
AcDbSpline
210
0.0
220
0.0
230
1.0
 70
    24
 71
     3
 72
     8
 73
     4
 74
     0
 42
0.0000000001
 43
0.0000000001
 40
0.0
 40
0.0
 40
0.0
 40
0.0
 40
1.0
 40
1.0
 40
1.0
 40
1.0
 10
-4.93396
 20
8.37509
 30
0.0
 10
-4.93396
 20
8.37509
 30
0.0
 10
-3.65336
 20
8.37509
 30
0.0
 10
-3.65336
 20
8.37509
 30
0.0
  0
SPLINE
  5
77
330
1F
100
AcDbEntity
  8
0
 62
     8
370
    15
100
AcDbSpline
210
0.0
220
0.0
230
1.0
 70
    24
 71
     3
 72
     8
 73
     4
 74
     0
 42
0.0000000001
 43
0.0000000001
 40
0.0
 40
0.0
 40
0.0
 40
0.0
 40
1.0
 40
1.0
 40
1.0
 40
1.0
 10
-7.38326
 20
8.37509
 30
0.0
 10
-7.38326
 20
8.37509
 30
0.0
 10
-4.93396
 20
8.37509
 30
0.0
 10
-4.93396
 20
8.37509
 30
0.0
  0
SPLINE
  5
78
330
1F
100
AcDbEntity
  8
0
 62
     8
370
    15
100
AcDbSpline
210
0.0
220
0.0
230
1.0
 70
    24
 71
     3
 72
     8
 73
     4
 74
     0
 42
0.0000000001
 43
0.0000000001
 40
0.0
 40
0.0
 40
0.0
 40
0.0
 40
1.0
 40
1.0
 40
1.0
 40
1.0
 10
-4.93527
 20
8.32778
 30
0.0
 10
-4.93527
 20
8.32778
 30
0.0
 10
-3.65754
 20
8.32778
 30
0.0
 10
-3.65754
 20
8.32778
 30
0.0
  0
SPLINE
  5
79
330
1F
100
AcDbEntity
  8
0
 62
     8
370
    15
100
AcDbSpline
210
0.0
220
0.0
230
1.0
 70
    24
 71
     3
 72
     8
 73
     4
 74
     0
 42
0.0000000001
 43
0.0000000001
 40
0.0
 40
0.0
 40
0.0
 40
0.0
 40
1.0
 40
1.0
 40
1.0
 40
1.0
 10
-7.37908
 20
8.32778
 30
0.0
 10
-7.37908
 20
8.32778
 30
0.0
 10
-4.93527
 20
8.32778
 30
0.0
 10
-4.93527
 20
8.32778
 30
0.0
  0
SPLINE
  5
7A
330
1F
100
AcDbEntity
  8
0
 62
     8
370
    15
100
AcDbSpline
210
0.0
220
0.0
230
1.0
 70
    24
 71
     3
 72
     8
 73
     4
 74
     0
 42
0.0000000001
 43
0.0000000001
 40
0.0
 40
0.0
 40
0.0
 40
0.0
 40
1.0
 40
1.0
 40
1.0
 40
1.0
 10
-4.93854
 20
10.45159
 30
0.0
 10
-4.93854
 20
10.45159
 30
0.0
 10
-7.36866
 20
10.45159
 30
0.0
 10
-7.36866
 20
10.45159
 30
0.0
  0
SPLINE
  5
7B
330
1F
100
AcDbEntity
  8
0
 62
     8
370
    15
100
AcDbSpline
210
0.0
220
0.0
230
1.0
 70
    24
 71
     3
 72
     8
 73
     4
 74
     0
 42
0.0000000001
 43
0.0000000001
 40
0.0
 40
0.0
 40
0.0
 40
0.0
 40
1.0
 40
1.0
 40
1.0
 40
1.0
 10
-3.66796
 20
10.45159
 30
0.0
 10
-3.66796
 20
10.45159
 30
0.0
 10
-4.93854
 20
10.45159
 30
0.0
 10
-4.93854
 20
10.45159
 30
0.0
  0
SPLINE
  5
7C
330
1F
100
AcDbEntity
  8
0
 62
     8
370
    15
100
AcDbSpline
210
0.0
220
0.0
230
1.0
 70
    24
 71
     3
 72
     8
 73
     4
 74
     0
 42
0.0000000001
 43
0.0000000001
 40
0.0
 40
0.0
 40
0.0
 40
0.0
 40
1.0
 40
1.0
 40
1.0
 40
1.0
 10
-4.98564
 20
7.46034
 30
0.0
 10
-4.98564
 20
7.46034
 30
0.0
 10
-3.81831
 20
7.46034
 30
0.0
 10
-3.81831
 20
7.46034
 30
0.0
  0
SPLINE
  5
7D
330
1F
100
AcDbEntity
  8
0
 62
     8
370
    15
100
AcDbSpline
210
0.0
220
0.0
230
1.0
 70
    24
 71
     3
 72
     8
 73
     4
 74
     0
 42
0.0000000001
 43
0.0000000001
 40
0.0
 40
0.0
 40
0.0
 40
0.0
 40
1.0
 40
1.0
 40
1.0
 40
1.0
 10
-7.21831
 20
7.46034
 30
0.0
 10
-7.21831
 20
7.46034
 30
0.0
 10
-4.98564
 20
7.46034
 30
0.0
 10
-4.98564
 20
7.46034
 30
0.0
  0
SPLINE
  5
7E
330
1F
100
AcDbEntity
  8
0
 62
     8
370
    15
100
AcDbSpline
210
0.0
220
0.0
230
1.0
 70
    24
 71
     3
 72
     8
 73
     4
 74
     0
 42
0.0000000001
 43
0.0000000001
 40
0.0
 40
0.0
 40
0.0
 40
0.0
 40
1.0
 40
1.0
 40
1.0
 40
1.0
 10
-5.0085
 20
7.3253
 30
0.0
 10
-5.0085
 20
7.3253
 30
0.0
 10
-3.89126
 20
7.3253
 30
0.0
 10
-3.89126
 20
7.3253
 30
0.0
  0
SPLINE
  5
7F
330
1F
100
AcDbEntity
  8
0
 62
     8
370
    15
100
AcDbSpline
210
0.0
220
0.0
230
1.0
 70
    24
 71
     3
 72
     8
 73
     4
 74
     0
 42
0.0000000001
 43
0.0000000001
 40
0.0
 40
0.0
 40
0.0
 40
0.0
 40
1.0
 40
1.0
 40
1.0
 40
1.0
 10
-7.14536
 20
7.3253
 30
0.0
 10
-7.14536
 20
7.3253
 30
0.0
 10
-5.0085
 20
7.3253
 30
0.0
 10
-5.0085
 20
7.3253
 30
0.0
  0
SPLINE
  5
80
330
1F
100
AcDbEntity
  8
0
 62
     8
370
    15
100
AcDbSpline
210
0.0
220
0.0
230
1.0
 70
    24
 71
     3
 72
     8
 73
     4
 74
     0
 42
0.0000000001
 43
0.0000000001
 40
0.0
 40
0.0
 40
0.0
 40
0.0
 40
1.0
 40
1.0
 40
1.0
 40
1.0
 10
-5.04213
 20
5.99469
 30
0.0
 10
-5.04213
 20
5.99469
 30
0.0
 10
-3.99859
 20
5.99469
 30
0.0
 10
-3.99859
 20
5.99469
 30
0.0
  0
SPLINE
  5
81
330
1F
100
AcDbEntity
  8
0
 62
     8
370
    15
100
AcDbSpline
210
0.0
220
0.0
230
1.0
 70
    24
 71
     3
 72
     8
 73
     4
 74
     0
 42
0.0000000001
 43
0.0000000001
 40
0.0
 40
0.0
 40
0.0
 40
0.0
 40
1.0
 40
1.0
 40
1.0
 40
1.0
 10
-7.03802
 20
5.99469
 30
0.0
 10
-7.03802
 20
5.99469
 30
0.0
 10
-5.04213
 20
5.99469
 30
0.0
 10
-5.04213
 20
5.99469
 30
0.0
  0
SPLINE
  5
82
330
1F
100
AcDbEntity
  8
0
 62
     8
370
    15
100
AcDbSpline
210
0.0
220
0.0
230
1.0
 70
    24
 71
     3
 72
     8
 73
     4
 74
     0
 42
0.0000000001
 43
0.0000000001
 40
0.0
 40
0.0
 40
0.0
 40
0.0
 40
1.0
 40
1.0
 40
1.0
 40
1.0
 10
-7.37416
 20
6.89363
 30
0.0
 10
-7.37416
 20
6.89363
 30
0.0
 10
-3.66246
 20
6.89363
 30
0.0
 10
-3.66246
 20
6.89363
 30
0.0
  0
SPLINE
  5
83
330
1F
100
AcDbEntity
  8
0
 62
     8
370
    15
100
AcDbSpline
210
0.0
220
0.0
230
1.0
 70
    24
 71
     3
 72
     8
 73
     4
 74
     0
 42
0.0000000001
 43
0.0000000001
 40
0.0
 40
0.0
 40
0.0
 40
0.0
 40
1.0
 40
1.0
 40
1.0
 40
1.0
 10
-3.66246
 20
7.25884
 30
0.0
 10
-3.66246
 20
7.25884
 30
0.0
 10
-7.37416
 20
7.25884
 30
0.0
 10
-7.37416
 20
7.25884
 30
0.0
  0
SPLINE
  5
84
330
1F
100
AcDbEntity
  8
0
 62
     8
370
    15
100
AcDbSpline
210
0.0
220
0.0
230
1.0
 70
    24
 71
     3
 72
     8
 73
     4
 74
     0
 42
0.0000000001
 43
0.0000000001
 40
0.0
 40
0.0
 40
0.0
 40
0.0
 40
1.0
 40
1.0
 40
1.0
 40
1.0
 10
-3.86246
 20
6.87624
 30
0.0
 10
-3.86246
 20
6.87624
 30
0.0
 10
-3.86246
 20
6.72624
 30
0.0
 10
-3.86246
 20
6.72624
 30
0.0
  0
SPLINE
  5
85
330
1F
100
AcDbEntity
  8
0
 62
     8
370
    15
100
AcDbSpline
210
0.0
220
0.0
230
1.0
 70
    24
 71
     3
 72
     8
 73
     4
 74
     0
 42
0.0000000001
 43
0.0000000001
 40
0.0
 40
0.0
 40
0.0
 40
0.0
 40
1.0
 40
1.0
 40
1.0
 40
1.0
 10
-3.83399
 20
6.72624
 30
0.0
 10
-3.83399
 20
6.72624
 30
0.0
 10
-3.86246
 20
6.72624
 30
0.0
 10
-3.86246
 20
6.72624
 30
0.0
  0
SPLINE
  5
86
330
1F
100
AcDbEntity
  8
0
 62
     8
370
    15
100
AcDbSpline
210
0.0
220
0.0
230
1.0
 70
    24
 71
     3
 72
     8
 73
     4
 74
     0
 42
0.0000000001
 43
0.0000000001
 40
0.0
 40
0.0
 40
0.0
 40
0.0
 40
1.0
 40
1.0
 40
1.0
 40
1.0
 10
-3.88627
 20
6.74109
 30
0.0
 10
-3.88627
 20
6.74109
 30
0.0
 10
-3.88627
 20
6.79915
 30
0.0
 10
-3.88627
 20
6.79915
 30
0.0
  0
SPLINE
  5
87
330
1F
100
AcDbEntity
  8
0
 62
     8
370
    15
100
AcDbSpline
210
0.0
220
0.0
230
1.0
 70
    24
 71
     3
 72
     8
 73
     4
 74
     0
 42
0.0000000001
 43
0.0000000001
 40
0.0
 40
0.0
 40
0.0
 40
0.0
 40
1.0
 40
1.0
 40
1.0
 40
1.0
 10
-7.15034
 20
6.79915
 30
0.0
 10
-7.15034
 20
6.79915
 30
0.0
 10
-7.15034
 20
6.74109
 30
0.0
 10
-7.15034
 20
6.74109
 30
0.0
  0
SPLINE
  5
88
330
1F
100
AcDbEntity
  8
0
 62
     8
370
    15
100
AcDbSpline
210
0.0
220
0.0
230
1.0
 70
    24
 71
     3
 72
     8
 73
     4
 74
     0
 42
0.0000000001
 43
0.0000000001
 40
0.0
 40
0.0
 40
0.0
 40
0.0
 40
1.0
 40
1.0
 40
1.0
 40
1.0
 10
-7.17416
 20
6.74137
 30
0.0
 10
-7.17416
 20
6.74137
 30
0.0
 10
-7.17416
 20
6.87624
 30
0.0
 10
-7.17416
 20
6.87624
 30
0.0
  0
SPLINE
  5
89
330
1F
100
AcDbEntity
  8
0
 62
     8
370
    15
100
AcDbSpline
210
0.0
220
0.0
230
1.0
 70
    24
 71
     3
 72
     8
 73
     4
 74
     0
 42
0.0000000001
 43
0.0000000001
 40
0.0
 40
0.0
 40
0.0
 40
0.0
 40
1.0
 40
1.0
 40
1.0
 40
1.0
 10
-7.20262
 20
6.72624
 30
0.0
 10
-7.20262
 20
6.72624
 30
0.0
 10
-7.17392
 20
6.72624
 30
0.0
 10
-7.17392
 20
6.72624
 30
0.0
  0
SPLINE
  5
8A
330
1F
100
AcDbEntity
  8
0
100
AcDbSpline
210
0.0
220
0.0
230
1.0
 70
    27
 71
     3
 72
    12
 73
     8
 74
     0
 42
0.0000000001
 43
0.0000000001
 40
0.0
 40
0.0
 40
0.0
 40
0.0
 40
0.3333333333333333
 40
0.3333333333333333
 40
0.3333333333333333
 40
0.3333333333333333
 40
1.0
 40
1.0
 40
1.0
 40
1.0
 10
-7.40262
 20
3.62624
 30
0.0
 10
-7.40262
 20
3.62624
 30
0.0
 10
-7.07242
 20
3.67704
 30
0.0
 10
-7.07242
 20
3.67704
 30
0.0
 10
-7.07242
 20
3.67704
 30
0.0
 10
-7.07242
 20
3.67704
 30
0.0
 10
-7.40262
 20
3.62624
 30
0.0
 10
-7.40262
 20
3.62624
 30
0.0
  0
SPLINE
  5
8B
330
1F
100
AcDbEntity
  8
0
100
AcDbSpline
210
0.0
220
0.0
230
1.0
 70
     8
 71
     3
 72
    12
 73
     8
 74
     0
 42
0.0000000001
 43
0.0000000001
 40
0.0
 40
0.0
 40
0.0
 40
0.0
 40
0.3333333333333333
 40
0.3333333333333333
 40
0.3333333333333333
 40
0.3333333333333333
 40
1.0
 40
1.0
 40
1.0
 40
1.0
 10
-7.07242
 20
3.67704
 30
0.0
 10
-7.07242
 20
3.67704
 30
0.0
 10
-7.07242
 20
3.57544
 30
0.0
 10
-7.07242
 20
3.57544
 30
0.0
 10
-7.07242
 20
3.57544
 30
0.0
 10
-7.07242
 20
3.57544
 30
0.0
 10
-7.40262
 20
3.62624
 30
0.0
 10
-7.40262
 20
3.62624
 30
0.0
  0
SPLINE
  5
8C
330
1F
100
AcDbEntity
  8
0
370
     9
100
AcDbSpline
210
0.0
220
0.0
230
1.0
 70
    24
 71
     3
 72
     8
 73
     4
 74
     0
 42
0.0000000001
 43
0.0000000001
 40
0.0
 40
0.0
 40
0.0
 40
0.0
 40
1.0
 40
1.0
 40
1.0
 40
1.0
 10
-7.40262
 20
3.62624
 30
0.0
 10
-7.40262
 20
3.62624
 30
0.0
 10
-7.07242
 20
3.67704
 30
0.0
 10
-7.07242
 20
3.67704
 30
0.0
  0
SPLINE
  5
8D
330
1F
100
AcDbEntity
  8
0
370
     9
100
AcDbSpline
210
0.0
220
0.0
230
1.0
 70
     8
 71
     3
 72
    12
 73
     8
 74
     0
 42
0.0000000001
 43
0.0000000001
 40
0.0
 40
0.0
 40
0.0
 40
0.0
 40
0.3333333333333333
 40
0.3333333333333333
 40
0.3333333333333333
 40
0.3333333333333333
 40
1.0
 40
1.0
 40
1.0
 40
1.0
 10
-7.07242
 20
3.67704
 30
0.0
 10
-7.07242
 20
3.67704
 30
0.0
 10
-7.07242
 20
3.57544
 30
0.0
 10
-7.07242
 20
3.57544
 30
0.0
 10
-7.07242
 20
3.57544
 30
0.0
 10
-7.07242
 20
3.57544
 30
0.0
 10
-7.40262
 20
3.62624
 30
0.0
 10
-7.40262
 20
3.62624
 30
0.0
  0
SPLINE
  5
8E
330
1F
100
AcDbEntity
  8
0
100
AcDbSpline
210
0.0
220
0.0
230
1.0
 70
    27
 71
     3
 72
    12
 73
     8
 74
     0
 42
0.0000000001
 43
0.0000000001
 40
0.0
 40
0.0
 40
0.0
 40
0.0
 40
0.3333333333333333
 40
0.3333333333333333
 40
0.3333333333333333
 40
0.3333333333333333
 40
1.0
 40
1.0
 40
1.0
 40
1.0
 10
-3.63399
 20
3.62624
 30
0.0
 10
-3.63399
 20
3.62624
 30
0.0
 10
-3.96419
 20
3.57544
 30
0.0
 10
-3.96419
 20
3.57544
 30
0.0
 10
-3.96419
 20
3.57544
 30
0.0
 10
-3.96419
 20
3.57544
 30
0.0
 10
-3.63399
 20
3.62624
 30
0.0
 10
-3.63399
 20
3.62624
 30
0.0
  0
SPLINE
  5
8F
330
1F
100
AcDbEntity
  8
0
100
AcDbSpline
210
0.0
220
0.0
230
1.0
 70
     8
 71
     3
 72
    12
 73
     8
 74
     0
 42
0.0000000001
 43
0.0000000001
 40
0.0
 40
0.0
 40
0.0
 40
0.0
 40
0.3333333333333333
 40
0.3333333333333333
 40
0.3333333333333333
 40
0.3333333333333333
 40
1.0
 40
1.0
 40
1.0
 40
1.0
 10
-3.96419
 20
3.57544
 30
0.0
 10
-3.96419
 20
3.57544
 30
0.0
 10
-3.96419
 20
3.67704
 30
0.0
 10
-3.96419
 20
3.67704
 30
0.0
 10
-3.96419
 20
3.67704
 30
0.0
 10
-3.96419
 20
3.67704
 30
0.0
 10
-3.63399
 20
3.62624
 30
0.0
 10
-3.63399
 20
3.62624
 30
0.0
  0
SPLINE
  5
90
330
1F
100
AcDbEntity
  8
0
370
     9
100
AcDbSpline
210
0.0
220
0.0
230
1.0
 70
    24
 71
     3
 72
     8
 73
     4
 74
     0
 42
0.0000000001
 43
0.0000000001
 40
0.0
 40
0.0
 40
0.0
 40
0.0
 40
1.0
 40
1.0
 40
1.0
 40
1.0
 10
-3.63399
 20
3.62624
 30
0.0
 10
-3.63399
 20
3.62624
 30
0.0
 10
-3.96419
 20
3.57544
 30
0.0
 10
-3.96419
 20
3.57544
 30
0.0
  0
SPLINE
  5
91
330
1F
100
AcDbEntity
  8
0
370
     9
100
AcDbSpline
210
0.0
220
0.0
230
1.0
 70
     8
 71
     3
 72
    12
 73
     8
 74
     0
 42
0.0000000001
 43
0.0000000001
 40
0.0
 40
0.0
 40
0.0
 40
0.0
 40
0.3333333333333333
 40
0.3333333333333333
 40
0.3333333333333333
 40
0.3333333333333333
 40
1.0
 40
1.0
 40
1.0
 40
1.0
 10
-3.96419
 20
3.57544
 30
0.0
 10
-3.96419
 20
3.57544
 30
0.0
 10
-3.96419
 20
3.67704
 30
0.0
 10
-3.96419
 20
3.67704
 30
0.0
 10
-3.96419
 20
3.67704
 30
0.0
 10
-3.96419
 20
3.67704
 30
0.0
 10
-3.63399
 20
3.62624
 30
0.0
 10
-3.63399
 20
3.62624
 30
0.0
  0
SPLINE
  5
92
330
1F
100
AcDbEntity
  8
0
370
     9
100
AcDbSpline
210
0.0
220
0.0
230
1.0
 70
    24
 71
     3
 72
     8
 73
     4
 74
     0
 42
0.0000000001
 43
0.0000000001
 40
0.0
 40
0.0
 40
0.0
 40
0.0
 40
1.0
 40
1.0
 40
1.0
 40
1.0
 10
-7.40262
 20
6.97624
 30
0.0
 10
-7.40262
 20
6.97624
 30
0.0
 10
-7.40262
 20
3.52624
 30
0.0
 10
-7.40262
 20
3.52624
 30
0.0
  0
SPLINE
  5
93
330
1F
100
AcDbEntity
  8
0
370
     9
100
AcDbSpline
210
0.0
220
0.0
230
1.0
 70
    24
 71
     3
 72
     8
 73
     4
 74
     0
 42
0.0000000001
 43
0.0000000001
 40
0.0
 40
0.0
 40
0.0
 40
0.0
 40
1.0
 40
1.0
 40
1.0
 40
1.0
 10
-3.63399
 20
6.97624
 30
0.0
 10
-3.63399
 20
6.97624
 30
0.0
 10
-3.63399
 20
3.52624
 30
0.0
 10
-3.63399
 20
3.52624
 30
0.0
  0
SPLINE
  5
94
330
1F
100
AcDbEntity
  8
0
370
     9
100
AcDbSpline
210
0.0
220
0.0
230
1.0
 70
    24
 71
     3
 72
     8
 73
     4
 74
     0
 42
0.0000000001
 43
0.0000000001
 40
0.0
 40
0.0
 40
0.0
 40
0.0
 40
1.0
 40
1.0
 40
1.0
 40
1.0
 10
-7.40262
 20
3.62624
 30
0.0
 10
-7.40262
 20
3.62624
 30
0.0
 10
-3.63399
 20
3.62624
 30
0.0
 10
-3.63399
 20
3.62624
 30
0.0
  0
SPLINE
  5
95
330
1F
100
AcDbEntity
  8
0
100
AcDbSpline
210
0.0
220
0.0
230
1.0
 70
    11
 71
     3
 72
    84
 73
    80
 74
     0
 42
0.0000000001
 43
0.0000000001
 40
0.0
 40
0.0
 40
0.0
 40
0.0
 40
0.0476190476190476
 40
0.0476190476190476
 40
0.0476190476190476
 40
0.0476190476190476
 40
0.0952380952380952
 40
0.0952380952380952
 40
0.0952380952380952
 40
0.0952380952380952
 40
0.1428571428571428
 40
0.1428571428571428
 40
0.1428571428571428
 40
0.1428571428571428
 40
0.1904761904761905
 40
0.1904761904761905
 40
0.1904761904761905
 40
0.1904761904761905
 40
0.2380952380952381
 40
0.2380952380952381
 40
0.2380952380952381
 40
0.2380952380952381
 40
0.2857142857142857
 40
0.2857142857142857
 40
0.2857142857142857
 40
0.2857142857142857
 40
0.3333333333333333
 40
0.3333333333333333
 40
0.3333333333333333
 40
0.3333333333333333
 40
0.3809523809523809
 40
0.3809523809523809
 40
0.3809523809523809
 40
0.3809523809523809
 40
0.4285714285714285
 40
0.4285714285714285
 40
0.4285714285714285
 40
0.4285714285714285
 40
0.4761904761904762
 40
0.4761904761904762
 40
0.4761904761904762
 40
0.4761904761904762
 40
0.5238095238095238
 40
0.5238095238095238
 40
0.5238095238095238
 40
0.5238095238095238
 40
0.5714285714285714
 40
0.5714285714285714
 40
0.5714285714285714
 40
0.5714285714285714
 40
0.6190476190476191
 40
0.6190476190476191
 40
0.6190476190476191
 40
0.6190476190476191
 40
0.6666666666666666
 40
0.6666666666666666
 40
0.6666666666666666
 40
0.6666666666666666
 40
0.7142857142857143
 40
0.7142857142857143
 40
0.7142857142857143
 40
0.7142857142857143
 40
0.7619047619047619
 40
0.7619047619047619
 40
0.7619047619047619
 40
0.7619047619047619
 40
0.8095238095238095
 40
0.8095238095238095
 40
0.8095238095238095
 40
0.8095238095238095
 40
0.8571428571428571
 40
0.8571428571428571
 40
0.8571428571428571
 40
0.8571428571428571
 40
0.9047619047619048
 40
0.9047619047619048
 40
0.9047619047619048
 40
0.9047619047619048
 40
1.0
 40
1.0
 40
1.0
 40
1.0
 10
-5.95656
 20
3.98816
 30
0.0
 10
-5.95656
 20
3.98816
 30
0.0
 10
-5.92786
 20
4.0203
 30
0.0
 10
-5.92786
 20
4.0203
 30
0.0
 10
-5.92786
 20
4.0203
 30
0.0
 10
-5.92786
 20
4.0203
 30
0.0
 10
-5.91095
 20
4.00595
 30
0.0
 10
-5.91095
 20
4.00595
 30
0.0
 10
-5.91095
 20
4.00595
 30
0.0
 10
-5.91095
 20
4.00595
 30
0.0
 10
-5.94099
 20
3.97211
 30
0.0
 10
-5.94099
 20
3.97211
 30
0.0
 10
-5.94099
 20
3.97211
 30
0.0
 10
-5.93119
 20
3.95753
 30
0.0
 10
-5.9246
 20
3.94476
 30
0.0
 10
-5.92116
 20
3.93385
 30
0.0
 10
-5.92116
 20
3.93385
 30
0.0
 10
-5.91661
 20
3.9195
 30
0.0
 10
-5.91433
 20
3.9034
 30
0.0
 10
-5.91433
 20
3.88566
 30
0.0
 10
-5.91433
 20
3.88566
 30
0.0
 10
-5.91433
 20
3.86
 30
0.0
 10
-5.91952
 20
3.83713
 30
0.0
 10
-5.92991
 20
3.81712
 30
0.0
 10
-5.92991
 20
3.81712
 30
0.0
 10
-5.94029
 20
3.79706
 30
0.0
 10
-5.95481
 20
3.78189
 30
0.0
 10
-5.97354
 20
3.77162
 30
0.0
 10
-5.97354
 20
3.77162
 30
0.0
 10
-5.99232
 20
3.76141
 30
0.0
 10
-6.01221
 20
3.75628
 30
0.0
 10
-6.03327
 20
3.75628
 30
0.0
 10
-6.03327
 20
3.75628
 30
0.0
 10
-6.04902
 20
3.75628
 30
0.0
 10
-6.06326
 20
3.7585
 30
0.0
 10
-6.07603
 20
3.76293
 30
0.0
 10
-6.07603
 20
3.76293
 30
0.0
 10
-6.08583
 20
3.76637
 30
0.0
 10
-6.09726
 20
3.77291
 30
0.0
 10
-6.11039
 20
3.78259
 30
0.0
 10
-6.11039
 20
3.78259
 30
0.0
 10
-6.11039
 20
3.78259
 30
0.0
 10
-6.13909
 20
3.75045
 30
0.0
 10
-6.13909
 20
3.75045
 30
0.0
 10
-6.13909
 20
3.75045
 30
0.0
 10
-6.13909
 20
3.75045
 30
0.0
 10
-6.15601
 20
3.7648
 30
0.0
 10
-6.15601
 20
3.7648
 30
0.0
 10
-6.15601
 20
3.7648
 30
0.0
 10
-6.15601
 20
3.7648
 30
0.0
 10
-6.12591
 20
3.79846
 30
0.0
 10
-6.12591
 20
3.79846
 30
0.0
 10
-6.12591
 20
3.79846
 30
0.0
 10
-6.13711
 20
3.81543
 30
0.0
 10
-6.14457
 20
3.82996
 30
0.0
 10
-6.14831
 20
3.84197
 30
0.0
 10
-6.14831
 20
3.84197
 30
0.0
 10
-6.15204
 20
3.85399
 30
0.0
 10
-6.15396
 20
3.86846
 30
0.0
 10
-6.15396
 20
3.88531
 30
0.0
 10
-6.15396
 20
3.88531
 30
0.0
 10
-6.15396
 20
3.91104
 30
0.0
 10
-6.14883
 20
3.93396
 30
0.0
 10
-6.13856
 20
3.95409
 30
0.0
 10
-6.13856
 20
3.95409
 30
0.0
 10
-6.1283
 20
3.97421
 30
0.0
 10
-6.11395
 20
3.98944
 30
0.0
 10
-6.0954
 20
3.99982
 30
0.0
 10
-6.0954
 20
3.99982
 30
0.0
 10
-6.07691
 20
4.01015
 30
0.0
 10
-6.05631
 20
4.01534
 30
0.0
 10
-6.03362
 20
4.01534
 30
0.0
 10
-6.03362
 20
4.01534
 30
0.0
 10
-6.01834
 20
4.01534
 30
0.0
 10
-6.00498
 20
4.01336
 30
0.0
 10
-5.99355
 20
4.00927
 30
0.0
 10
-5.99355
 20
4.00927
 30
0.0
 10
-5.98211
 20
4.00525
 30
0.0
 10
-5.96975
 20
3.99819
 30
0.0
 10
-5.95656
 20
3.98816
 30
0.0
  0
SPLINE
  5
96
330
1F
100
AcDbEntity
  8
0
100
AcDbSpline
210
0.0
220
0.0
230
1.0
 70
    11
 71
     3
 72
    32
 73
    28
 74
     0
 42
0.0000000001
 43
0.0000000001
 40
0.0
 40
0.0
 40
0.0
 40
0.0
 40
0.125
 40
0.125
 40
0.125
 40
0.125
 40
0.25
 40
0.25
 40
0.25
 40
0.25
 40
0.375
 40
0.375
 40
0.375
 40
0.375
 40
0.5
 40
0.5
 40
0.5
 40
0.5
 40
0.625
 40
0.625
 40
0.625
 40
0.625
 40
0.75
 40
0.75
 40
0.75
 40
0.75
 40
1.0
 40
1.0
 40
1.0
 40
1.0
 10
-5.97704
 20
3.96511
 30
0.0
 10
-5.98777
 20
3.97351
 30
0.0
 10
-5.99716
 20
3.97929
 30
0.0
 10
-6.00516
 20
3.98238
 30
0.0
 10
-6.00516
 20
3.98238
 30
0.0
 10
-6.01321
 20
3.98541
 30
0.0
 10
-6.02266
 20
3.98699
 30
0.0
 10
-6.03345
 20
3.98699
 30
0.0
 10
-6.03345
 20
3.98699
 30
0.0
 10
-6.05841
 20
3.98699
 30
0.0
 10
-6.07901
 20
3.97853
 30
0.0
 10
-6.09534
 20
3.96161
 30
0.0
 10
-6.09534
 20
3.96161
 30
0.0
 10
-6.11161
 20
3.9447
 30
0.0
 10
-6.11978
 20
3.91944
 30
0.0
 10
-6.11978
 20
3.88578
 30
0.0
 10
-6.11978
 20
3.88578
 30
0.0
 10
-6.11978
 20
3.8726
 30
0.0
 10
-6.1185
 20
3.86087
 30
0.0
 10
-6.11599
 20
3.85061
 30
0.0
 10
-6.11599
 20
3.85061
 30
0.0
 10
-6.11418
 20
3.84296
 30
0.0
 10
-6.11039
 20
3.83357
 30
0.0
 10
-6.10456
 20
3.82243
 30
0.0
 10
-6.10456
 20
3.82243
 30
0.0
 10
-6.10456
 20
3.82243
 30
0.0
 10
-5.97704
 20
3.96511
 30
0.0
 10
-5.97704
 20
3.96511
 30
0.0
  0
SPLINE
  5
97
330
1F
100
AcDbEntity
  8
0
100
AcDbSpline
210
0.0
220
0.0
230
1.0
 70
    11
 71
     3
 72
    28
 73
    24
 74
     0
 42
0.0000000001
 43
0.0000000001
 40
0.0
 40
0.0
 40
0.0
 40
0.0
 40
0.1428571428571428
 40
0.1428571428571428
 40
0.1428571428571428
 40
0.1428571428571428
 40
0.2857142857142857
 40
0.2857142857142857
 40
0.2857142857142857
 40
0.2857142857142857
 40
0.4285714285714285
 40
0.4285714285714285
 40
0.4285714285714285
 40
0.4285714285714285
 40
0.5714285714285714
 40
0.5714285714285714
 40
0.5714285714285714
 40
0.5714285714285714
 40
0.7142857142857143
 40
0.7142857142857143
 40
0.7142857142857143
 40
0.7142857142857143
 40
1.0
 40
1.0
 40
1.0
 40
1.0
 10
-5.96304
 20
3.9475
 30
0.0
 10
-5.96304
 20
3.9475
 30
0.0
 10
-6.09003
 20
3.80534
 30
0.0
 10
-6.09003
 20
3.80534
 30
0.0
 10
-6.09003
 20
3.80534
 30
0.0
 10
-6.08128
 20
3.79816
 30
0.0
 10
-6.07317
 20
3.79315
 30
0.0
 10
-6.06576
 20
3.79029
 30
0.0
 10
-6.06576
 20
3.79029
 30
0.0
 10
-6.05608
 20
3.7865
 30
0.0
 10
-6.04558
 20
3.78463
 30
0.0
 10
-6.03432
 20
3.78463
 30
0.0
 10
-6.03432
 20
3.78463
 30
0.0
 10
-6.00947
 20
3.78463
 30
0.0
 10
-5.989
 20
3.79338
 30
0.0
 10
-5.97278
 20
3.81094
 30
0.0
 10
-5.97278
 20
3.81094
 30
0.0
 10
-5.95662
 20
3.8285
 30
0.0
 10
-5.94851
 20
3.85311
 30
0.0
 10
-5.94851
 20
3.88479
 30
0.0
 10
-5.94851
 20
3.88479
 30
0.0
 10
-5.94851
 20
3.90847
 30
0.0
 10
-5.95336
 20
3.92941
 30
0.0
 10
-5.96304
 20
3.9475
 30
0.0
  0
SPLINE
  5
98
330
1F
100
AcDbEntity
  8
0
100
AcDbSpline
210
0.0
220
0.0
230
1.0
 70
    11
 71
     3
 72
    48
 73
    44
 74
     0
 42
0.0000000001
 43
0.0000000001
 40
0.0
 40
0.0
 40
0.0
 40
0.0
 40
0.0833333333333333
 40
0.0833333333333333
 40
0.0833333333333333
 40
0.0833333333333333
 40
0.1666666666666667
 40
0.1666666666666667
 40
0.1666666666666667
 40
0.1666666666666667
 40
0.25
 40
0.25
 40
0.25
 40
0.25
 40
0.3333333333333333
 40
0.3333333333333333
 40
0.3333333333333333
 40
0.3333333333333333
 40
0.4166666666666667
 40
0.4166666666666667
 40
0.4166666666666667
 40
0.4166666666666667
 40
0.5
 40
0.5
 40
0.5
 40
0.5
 40
0.5833333333333334
 40
0.5833333333333334
 40
0.5833333333333334
 40
0.5833333333333334
 40
0.6666666666666666
 40
0.6666666666666666
 40
0.6666666666666666
 40
0.6666666666666666
 40
0.75
 40
0.75
 40
0.75
 40
0.75
 40
0.8333333333333334
 40
0.8333333333333334
 40
0.8333333333333334
 40
0.8333333333333334
 40
1.0
 40
1.0
 40
1.0
 40
1.0
 10
-5.62577
 20
3.98359
 30
0.0
 10
-5.62577
 20
3.98359
 30
0.0
 10
-5.62577
 20
4.01316
 30
0.0
 10
-5.62577
 20
4.01316
 30
0.0
 10
-5.62577
 20
4.01316
 30
0.0
 10
-5.62577
 20
4.01316
 30
0.0
 10
-5.46361
 20
4.01316
 30
0.0
 10
-5.46361
 20
4.01316
 30
0.0
 10
-5.46361
 20
4.01316
 30
0.0
 10
-5.46361
 20
4.01316
 30
0.0
 10
-5.46361
 20
3.98925
 30
0.0
 10
-5.46361
 20
3.98925
 30
0.0
 10
-5.46361
 20
3.98925
 30
0.0
 10
-5.47953
 20
3.97227
 30
0.0
 10
-5.49534
 20
3.9497
 30
0.0
 10
-5.51103
 20
3.92158
 30
0.0
 10
-5.51103
 20
3.92158
 30
0.0
 10
-5.52667
 20
3.89346
 30
0.0
 10
-5.5388
 20
3.86447
 30
0.0
 10
-5.54732
 20
3.83478
 30
0.0
 10
-5.54732
 20
3.83478
 30
0.0
 10
-5.5535
 20
3.81378
 30
0.0
 10
-5.55741
 20
3.79086
 30
0.0
 10
-5.5591
 20
3.76589
 30
0.0
 10
-5.5591
 20
3.76589
 30
0.0
 10
-5.5591
 20
3.76589
 30
0.0
 10
-5.59072
 20
3.76589
 30
0.0
 10
-5.59072
 20
3.76589
 30
0.0
 10
-5.59072
 20
3.76589
 30
0.0
 10
-5.59037
 20
3.78561
 30
0.0
 10
-5.58652
 20
3.80941
 30
0.0
 10
-5.57911
 20
3.83735
 30
0.0
 10
-5.57911
 20
3.83735
 30
0.0
 10
-5.5717
 20
3.86523
 30
0.0
 10
-5.56108
 20
3.89218
 30
0.0
 10
-5.54726
 20
3.91808
 30
0.0
 10
-5.54726
 20
3.91808
 30
0.0
 10
-5.53337
 20
3.94398
 30
0.0
 10
-5.51867
 20
3.96586
 30
0.0
 10
-5.50304
 20
3.98359
 30
0.0
 10
-5.50304
 20
3.98359
 30
0.0
 10
-5.50304
 20
3.98359
 30
0.0
 10
-5.62577
 20
3.98359
 30
0.0
 10
-5.62577
 20
3.98359
 30
0.0
  0
SPLINE
  5
99
330
1F
100
AcDbEntity
  8
0
100
AcDbSpline
210
0.0
220
0.0
230
1.0
 70
    11
 71
     3
 72
    92
 73
    88
 74
     0
 42
0.0000000001
 43
0.0000000001
 40
0.0
 40
0.0
 40
0.0
 40
0.0
 40
0.0434782608695652
 40
0.0434782608695652
 40
0.0434782608695652
 40
0.0434782608695652
 40
0.0869565217391304
 40
0.0869565217391304
 40
0.0869565217391304
 40
0.0869565217391304
 40
0.1304347826086956
 40
0.1304347826086956
 40
0.1304347826086956
 40
0.1304347826086956
 40
0.1739130434782609
 40
0.1739130434782609
 40
0.1739130434782609
 40
0.1739130434782609
 40
0.2173913043478261
 40
0.2173913043478261
 40
0.2173913043478261
 40
0.2173913043478261
 40
0.2608695652173913
 40
0.2608695652173913
 40
0.2608695652173913
 40
0.2608695652173913
 40
0.3043478260869565
 40
0.3043478260869565
 40
0.3043478260869565
 40
0.3043478260869565
 40
0.3478260869565217
 40
0.3478260869565217
 40
0.3478260869565217
 40
0.3478260869565217
 40
0.391304347826087
 40
0.391304347826087
 40
0.391304347826087
 40
0.391304347826087
 40
0.4347826086956522
 40
0.4347826086956522
 40
0.4347826086956522
 40
0.4347826086956522
 40
0.4782608695652174
 40
0.4782608695652174
 40
0.4782608695652174
 40
0.4782608695652174
 40
0.5217391304347826
 40
0.5217391304347826
 40
0.5217391304347826
 40
0.5217391304347826
 40
0.5652173913043478
 40
0.5652173913043478
 40
0.5652173913043478
 40
0.5652173913043478
 40
0.6086956521739131
 40
0.6086956521739131
 40
0.6086956521739131
 40
0.6086956521739131
 40
0.6521739130434783
 40
0.6521739130434783
 40
0.6521739130434783
 40
0.6521739130434783
 40
0.6956521739130435
 40
0.6956521739130435
 40
0.6956521739130435
 40
0.6956521739130435
 40
0.7391304347826086
 40
0.7391304347826086
 40
0.7391304347826086
 40
0.7391304347826086
 40
0.782608695652174
 40
0.782608695652174
 40
0.782608695652174
 40
0.782608695652174
 40
0.8260869565217391
 40
0.8260869565217391
 40
0.8260869565217391
 40
0.8260869565217391
 40
0.8695652173913043
 40
0.8695652173913043
 40
0.8695652173913043
 40
0.8695652173913043
 40
0.9130434782608695
 40
0.9130434782608695
 40
0.9130434782608695
 40
0.9130434782608695
 40
1.0
 40
1.0
 40
1.0
 40
1.0
 10
-5.43316
 20
3.83151
 30
0.0
 10
-5.43316
 20
3.83151
 30
0.0
 10
-5.40084
 20
3.83426
 30
0.0
 10
-5.40084
 20
3.83426
 30
0.0
 10
-5.40084
 20
3.83426
 30
0.0
 10
-5.39845
 20
3.81851
 30
0.0
 10
-5.39291
 20
3.80672
 30
0.0
 10
-5.38421
 20
3.79879
 30
0.0
 10
-5.38421
 20
3.79879
 30
0.0
 10
-5.37546
 20
3.79086
 30
0.0
 10
-5.36496
 20
3.78689
 30
0.0
 10
-5.35266
 20
3.78689
 30
0.0
 10
-5.35266
 20
3.78689
 30
0.0
 10
-5.33784
 20
3.78689
 30
0.0
 10
-5.3253
 20
3.79249
 30
0.0
 10
-5.31509
 20
3.80363
 30
0.0
 10
-5.31509
 20
3.80363
 30
0.0
 10
-5.30482
 20
3.81483
 30
0.0
 10
-5.29969
 20
3.82965
 30
0.0
 10
-5.29969
 20
3.84808
 30
0.0
 10
-5.29969
 20
3.84808
 30
0.0
 10
-5.29969
 20
3.86564
 30
0.0
 10
-5.30459
 20
3.87946
 30
0.0
 10
-5.31445
 20
3.88961
 30
0.0
 10
-5.31445
 20
3.88961
 30
0.0
 10
-5.32431
 20
3.89976
 30
0.0
 10
-5.3372
 20
3.90484
 30
0.0
 10
-5.35318
 20
3.90484
 30
0.0
 10
-5.35318
 20
3.90484
 30
0.0
 10
-5.3631
 20
3.90484
 30
0.0
 10
-5.37202
 20
3.90256
 30
0.0
 10
-5.38001
 20
3.89807
 30
0.0
 10
-5.38001
 20
3.89807
 30
0.0
 10
-5.38801
 20
3.89358
 30
0.0
 10
-5.39425
 20
3.88775
 30
0.0
 10
-5.3988
 20
3.88057
 30
0.0
 10
-5.3988
 20
3.88057
 30
0.0
 10
-5.3988
 20
3.88057
 30
0.0
 10
-5.42767
 20
3.88431
 30
0.0
 10
-5.42767
 20
3.88431
 30
0.0
 10
-5.42767
 20
3.88431
 30
0.0
 10
-5.42767
 20
3.88431
 30
0.0
 10
-5.40341
 20
4.01299
 30
0.0
 10
-5.40341
 20
4.01299
 30
0.0
 10
-5.40341
 20
4.01299
 30
0.0
 10
-5.40341
 20
4.01299
 30
0.0
 10
-5.27881
 20
4.01299
 30
0.0
 10
-5.27881
 20
4.01299
 30
0.0
 10
-5.27881
 20
4.01299
 30
0.0
 10
-5.27881
 20
4.01299
 30
0.0
 10
-5.27881
 20
3.98359
 30
0.0
 10
-5.27881
 20
3.98359
 30
0.0
 10
-5.27881
 20
3.98359
 30
0.0
 10
-5.27881
 20
3.98359
 30
0.0
 10
-5.37879
 20
3.98359
 30
0.0
 10
-5.37879
 20
3.98359
 30
0.0
 10
-5.37879
 20
3.98359
 30
0.0
 10
-5.37879
 20
3.98359
 30
0.0
 10
-5.39232
 20
3.91627
 30
0.0
 10
-5.39232
 20
3.91627
 30
0.0
 10
-5.39232
 20
3.91627
 30
0.0
 10
-5.37727
 20
3.92677
 30
0.0
 10
-5.36146
 20
3.93202
 30
0.0
 10
-5.34496
 20
3.93202
 30
0.0
 10
-5.34496
 20
3.93202
 30
0.0
 10
-5.32308
 20
3.93202
 30
0.0
 10
-5.30465
 20
3.92444
 30
0.0
 10
-5.2896
 20
3.90927
 30
0.0
 10
-5.2896
 20
3.90927
 30
0.0
 10
-5.27455
 20
3.89411
 30
0.0
 10
-5.26702
 20
3.87462
 30
0.0
 10
-5.26702
 20
3.85082
 30
0.0
 10
-5.26702
 20
3.85082
 30
0.0
 10
-5.26702
 20
3.82813
 30
0.0
 10
-5.27367
 20
3.80853
 30
0.0
 10
-5.28686
 20
3.79202
 30
0.0
 10
-5.28686
 20
3.79202
 30
0.0
 10
-5.30296
 20
3.77178
 30
0.0
 10
-5.32489
 20
3.76163
 30
0.0
 10
-5.35266
 20
3.76163
 30
0.0
 10
-5.35266
 20
3.76163
 30
0.0
 10
-5.37546
 20
3.76163
 30
0.0
 10
-5.39407
 20
3.76799
 30
0.0
 10
-5.40848
 20
3.78076
 30
0.0
 10
-5.40848
 20
3.78076
 30
0.0
 10
-5.42289
 20
3.79354
 30
0.0
 10
-5.43111
 20
3.81046
 30
0.0
 10
-5.43316
 20
3.83151
 30
0.0
  0
SPLINE
  5
9A
330
1F
100
AcDbEntity
  8
0
100
AcDbSpline
210
0.0
220
0.0
230
1.0
 70
    27
 71
     3
 72
    12
 73
     8
 74
     0
 42
0.0000000001
 43
0.0000000001
 40
0.0
 40
0.0
 40
0.0
 40
0.0
 40
0.3333333333333333
 40
0.3333333333333333
 40
0.3333333333333333
 40
0.3333333333333333
 40
1.0
 40
1.0
 40
1.0
 40
1.0
 10
-2.16291
 20
10.50124
 30
0.0
 10
-2.16291
 20
10.50124
 30
0.0
 10
-2.11211
 20
10.17104
 30
0.0
 10
-2.11211
 20
10.17104
 30
0.0
 10
-2.11211
 20
10.17104
 30
0.0
 10
-2.11211
 20
10.17104
 30
0.0
 10
-2.16291
 20
10.50124
 30
0.0
 10
-2.16291
 20
10.50124
 30
0.0
  0
SPLINE
  5
9B
330
1F
100
AcDbEntity
  8
0
100
AcDbSpline
210
0.0
220
0.0
230
1.0
 70
     8
 71
     3
 72
    12
 73
     8
 74
     0
 42
0.0000000001
 43
0.0000000001
 40
0.0
 40
0.0
 40
0.0
 40
0.0
 40
0.3333333333333333
 40
0.3333333333333333
 40
0.3333333333333333
 40
0.3333333333333333
 40
1.0
 40
1.0
 40
1.0
 40
1.0
 10
-2.11211
 20
10.17104
 30
0.0
 10
-2.11211
 20
10.17104
 30
0.0
 10
-2.21371
 20
10.17104
 30
0.0
 10
-2.21371
 20
10.17104
 30
0.0
 10
-2.21371
 20
10.17104
 30
0.0
 10
-2.21371
 20
10.17104
 30
0.0
 10
-2.16291
 20
10.50124
 30
0.0
 10
-2.16291
 20
10.50124
 30
0.0
  0
SPLINE
  5
9C
330
1F
100
AcDbEntity
  8
0
370
     9
100
AcDbSpline
210
0.0
220
0.0
230
1.0
 70
    24
 71
     3
 72
     8
 73
     4
 74
     0
 42
0.0000000001
 43
0.0000000001
 40
0.0
 40
0.0
 40
0.0
 40
0.0
 40
1.0
 40
1.0
 40
1.0
 40
1.0
 10
-2.16291
 20
10.50124
 30
0.0
 10
-2.16291
 20
10.50124
 30
0.0
 10
-2.11211
 20
10.17104
 30
0.0
 10
-2.11211
 20
10.17104
 30
0.0
  0
SPLINE
  5
9D
330
1F
100
AcDbEntity
  8
0
370
     9
100
AcDbSpline
210
0.0
220
0.0
230
1.0
 70
     8
 71
     3
 72
    12
 73
     8
 74
     0
 42
0.0000000001
 43
0.0000000001
 40
0.0
 40
0.0
 40
0.0
 40
0.0
 40
0.3333333333333333
 40
0.3333333333333333
 40
0.3333333333333333
 40
0.3333333333333333
 40
1.0
 40
1.0
 40
1.0
 40
1.0
 10
-2.11211
 20
10.17104
 30
0.0
 10
-2.11211
 20
10.17104
 30
0.0
 10
-2.21371
 20
10.17104
 30
0.0
 10
-2.21371
 20
10.17104
 30
0.0
 10
-2.21371
 20
10.17104
 30
0.0
 10
-2.21371
 20
10.17104
 30
0.0
 10
-2.16291
 20
10.50124
 30
0.0
 10
-2.16291
 20
10.50124
 30
0.0
  0
SPLINE
  5
9E
330
1F
100
AcDbEntity
  8
0
100
AcDbSpline
210
0.0
220
0.0
230
1.0
 70
    27
 71
     3
 72
    12
 73
     8
 74
     0
 42
0.0000000001
 43
0.0000000001
 40
0.0
 40
0.0
 40
0.0
 40
0.0
 40
0.3333333333333333
 40
0.3333333333333333
 40
0.3333333333333333
 40
0.3333333333333333
 40
1.0
 40
1.0
 40
1.0
 40
1.0
 10
-2.16291
 20
5.22624
 30
0.0
 10
-2.16291
 20
5.22624
 30
0.0
 10
-2.21371
 20
5.55644
 30
0.0
 10
-2.21371
 20
5.55644
 30
0.0
 10
-2.21371
 20
5.55644
 30
0.0
 10
-2.21371
 20
5.55644
 30
0.0
 10
-2.16291
 20
5.22624
 30
0.0
 10
-2.16291
 20
5.22624
 30
0.0
  0
SPLINE
  5
9F
330
1F
100
AcDbEntity
  8
0
100
AcDbSpline
210
0.0
220
0.0
230
1.0
 70
     8
 71
     3
 72
    12
 73
     8
 74
     0
 42
0.0000000001
 43
0.0000000001
 40
0.0
 40
0.0
 40
0.0
 40
0.0
 40
0.3333333333333333
 40
0.3333333333333333
 40
0.3333333333333333
 40
0.3333333333333333
 40
1.0
 40
1.0
 40
1.0
 40
1.0
 10
-2.21371
 20
5.55644
 30
0.0
 10
-2.21371
 20
5.55644
 30
0.0
 10
-2.11211
 20
5.55644
 30
0.0
 10
-2.11211
 20
5.55644
 30
0.0
 10
-2.11211
 20
5.55644
 30
0.0
 10
-2.11211
 20
5.55644
 30
0.0
 10
-2.16291
 20
5.22624
 30
0.0
 10
-2.16291
 20
5.22624
 30
0.0
  0
SPLINE
  5
A0
330
1F
100
AcDbEntity
  8
0
370
     9
100
AcDbSpline
210
0.0
220
0.0
230
1.0
 70
    24
 71
     3
 72
     8
 73
     4
 74
     0
 42
0.0000000001
 43
0.0000000001
 40
0.0
 40
0.0
 40
0.0
 40
0.0
 40
1.0
 40
1.0
 40
1.0
 40
1.0
 10
-2.16291
 20
5.22624
 30
0.0
 10
-2.16291
 20
5.22624
 30
0.0
 10
-2.21371
 20
5.55644
 30
0.0
 10
-2.21371
 20
5.55644
 30
0.0
  0
SPLINE
  5
A1
330
1F
100
AcDbEntity
  8
0
370
     9
100
AcDbSpline
210
0.0
220
0.0
230
1.0
 70
     8
 71
     3
 72
    12
 73
     8
 74
     0
 42
0.0000000001
 43
0.0000000001
 40
0.0
 40
0.0
 40
0.0
 40
0.0
 40
0.3333333333333333
 40
0.3333333333333333
 40
0.3333333333333333
 40
0.3333333333333333
 40
1.0
 40
1.0
 40
1.0
 40
1.0
 10
-2.21371
 20
5.55644
 30
0.0
 10
-2.21371
 20
5.55644
 30
0.0
 10
-2.11211
 20
5.55644
 30
0.0
 10
-2.11211
 20
5.55644
 30
0.0
 10
-2.11211
 20
5.55644
 30
0.0
 10
-2.11211
 20
5.55644
 30
0.0
 10
-2.16291
 20
5.22624
 30
0.0
 10
-2.16291
 20
5.22624
 30
0.0
  0
SPLINE
  5
A2
330
1F
100
AcDbEntity
  8
0
370
     9
100
AcDbSpline
210
0.0
220
0.0
230
1.0
 70
    24
 71
     3
 72
     8
 73
     4
 74
     0
 42
0.0000000001
 43
0.0000000001
 40
0.0
 40
0.0
 40
0.0
 40
0.0
 40
1.0
 40
1.0
 40
1.0
 40
1.0
 10
-3.61847
 20
10.50124
 30
0.0
 10
-3.61847
 20
10.50124
 30
0.0
 10
-2.06291
 20
10.50124
 30
0.0
 10
-2.06291
 20
10.50124
 30
0.0
  0
SPLINE
  5
A3
330
1F
100
AcDbEntity
  8
0
370
     9
100
AcDbSpline
210
0.0
220
0.0
230
1.0
 70
    24
 71
     3
 72
     8
 73
     4
 74
     0
 42
0.0000000001
 43
0.0000000001
 40
0.0
 40
0.0
 40
0.0
 40
0.0
 40
1.0
 40
1.0
 40
1.0
 40
1.0
 10
-3.78548
 20
5.22624
 30
0.0
 10
-3.78548
 20
5.22624
 30
0.0
 10
-2.06291
 20
5.22624
 30
0.0
 10
-2.06291
 20
5.22624
 30
0.0
  0
SPLINE
  5
A4
330
1F
100
AcDbEntity
  8
0
370
     9
100
AcDbSpline
210
0.0
220
0.0
230
1.0
 70
    24
 71
     3
 72
     8
 73
     4
 74
     0
 42
0.0000000001
 43
0.0000000001
 40
0.0
 40
0.0
 40
0.0
 40
0.0
 40
1.0
 40
1.0
 40
1.0
 40
1.0
 10
-2.16291
 20
10.50124
 30
0.0
 10
-2.16291
 20
10.50124
 30
0.0
 10
-2.16291
 20
5.22624
 30
0.0
 10
-2.16291
 20
5.22624
 30
0.0
  0
SPLINE
  5
A5
330
1F
100
AcDbEntity
  8
0
100
AcDbSpline
210
0.0
220
0.0
230
1.0
 70
    11
 71
     3
 72
    40
 73
    36
 74
     0
 42
0.0000000001
 43
0.0000000001
 40
0.0
 40
0.0
 40
0.0
 40
0.0
 40
0.1
 40
0.1
 40
0.1
 40
0.1
 40
0.2
 40
0.2
 40
0.2
 40
0.2
 40
0.3
 40
0.3
 40
0.3
 40
0.3
 40
0.4
 40
0.4
 40
0.4
 40
0.4
 40
0.5
 40
0.5
 40
0.5
 40
0.5
 40
0.6
 40
0.6
 40
0.6
 40
0.6
 40
0.7
 40
0.7
 40
0.7
 40
0.7
 40
0.8
 40
0.8
 40
0.8
 40
0.8
 40
1.0
 40
1.0
 40
1.0
 40
1.0
 10
-2.29722
 20
7.50612
 30
0.0
 10
-2.29722
 20
7.50612
 30
0.0
 10
-2.29722
 20
7.47538
 30
0.0
 10
-2.29722
 20
7.47538
 30
0.0
 10
-2.29722
 20
7.47538
 30
0.0
 10
-2.29722
 20
7.47538
 30
0.0
 10
-2.49322
 20
7.47538
 30
0.0
 10
-2.49322
 20
7.47538
 30
0.0
 10
-2.49322
 20
7.47538
 30
0.0
 10
-2.48616
 20
7.46797
 30
0.0
 10
-2.4791
 20
7.45829
 30
0.0
 10
-2.47204
 20
7.44627
 30
0.0
 10
-2.47204
 20
7.44627
 30
0.0
 10
-2.46499
 20
7.4342
 30
0.0
 10
-2.45968
 20
7.42341
 30
0.0
 10
-2.45618
 20
7.41384
 30
0.0
 10
-2.45618
 20
7.41384
 30
0.0
 10
-2.45618
 20
7.41384
 30
0.0
 10
-2.48587
 20
7.41384
 30
0.0
 10
-2.48587
 20
7.41384
 30
0.0
 10
-2.48587
 20
7.41384
 30
0.0
 10
-2.49398
 20
7.43105
 30
0.0
 10
-2.50378
 20
7.4461
 30
0.0
 10
-2.51527
 20
7.45899
 30
0.0
 10
-2.51527
 20
7.45899
 30
0.0
 10
-2.52682
 20
7.47182
 30
0.0
 10
-2.53796
 20
7.48098
 30
0.0
 10
-2.54875
 20
7.48635
 30
0.0
 10
-2.54875
 20
7.48635
 30
0.0
 10
-2.54875
 20
7.48635
 30
0.0
 10
-2.54875
 20
7.50612
 30
0.0
 10
-2.54875
 20
7.50612
 30
0.0
 10
-2.54875
 20
7.50612
 30
0.0
 10
-2.54875
 20
7.50612
 30
0.0
 10
-2.29722
 20
7.50612
 30
0.0
 10
-2.29722
 20
7.50612
 30
0.0
  0
SPLINE
  5
A6
330
1F
100
AcDbEntity
  8
0
100
AcDbSpline
210
0.0
220
0.0
230
1.0
 70
    11
 71
     3
 72
    52
 73
    48
 74
     0
 42
0.0000000001
 43
0.0000000001
 40
0.0
 40
0.0
 40
0.0
 40
0.0
 40
0.0769230769230769
 40
0.0769230769230769
 40
0.0769230769230769
 40
0.0769230769230769
 40
0.1538461538461539
 40
0.1538461538461539
 40
0.1538461538461539
 40
0.1538461538461539
 40
0.2307692307692308
 40
0.2307692307692308
 40
0.2307692307692308
 40
0.2307692307692308
 40
0.3076923076923077
 40
0.3076923076923077
 40
0.3076923076923077
 40
0.3076923076923077
 40
0.3846153846153846
 40
0.3846153846153846
 40
0.3846153846153846
 40
0.3846153846153846
 40
0.4615384615384616
 40
0.4615384615384616
 40
0.4615384615384616
 40
0.4615384615384616
 40
0.5384615384615384
 40
0.5384615384615384
 40
0.5384615384615384
 40
0.5384615384615384
 40
0.6153846153846154
 40
0.6153846153846154
 40
0.6153846153846154
 40
0.6153846153846154
 40
0.6923076923076923
 40
0.6923076923076923
 40
0.6923076923076923
 40
0.6923076923076923
 40
0.7692307692307693
 40
0.7692307692307693
 40
0.7692307692307693
 40
0.7692307692307693
 40
0.8461538461538461
 40
0.8461538461538461
 40
0.8461538461538461
 40
0.8461538461538461
 40
1.0
 40
1.0
 40
1.0
 40
1.0
 10
-2.42077
 20
7.58493
 30
0.0
 10
-2.4504
 20
7.58493
 30
0.0
 10
-2.47426
 20
7.58797
 30
0.0
 10
-2.49229
 20
7.59409
 30
0.0
 10
-2.49229
 20
7.59409
 30
0.0
 10
-2.51037
 20
7.60016
 30
0.0
 10
-2.52431
 20
7.60926
 30
0.0
 10
-2.53411
 20
7.62128
 30
0.0
 10
-2.53411
 20
7.62128
 30
0.0
 10
-2.54391
 20
7.63329
 30
0.0
 10
-2.54875
 20
7.6484
 30
0.0
 10
-2.54875
 20
7.6666
 30
0.0
 10
-2.54875
 20
7.6666
 30
0.0
 10
-2.54875
 20
7.68008
 30
0.0
 10
-2.54607
 20
7.69186
 30
0.0
 10
-2.54064
 20
7.70201
 30
0.0
 10
-2.54064
 20
7.70201
 30
0.0
 10
-2.53528
 20
7.71216
 30
0.0
 10
-2.52746
 20
7.7205
 30
0.0
 10
-2.51725
 20
7.72715
 30
0.0
 10
-2.51725
 20
7.72715
 30
0.0
 10
-2.50704
 20
7.73374
 30
0.0
 10
-2.49462
 20
7.73893
 30
0.0
 10
-2.47998
 20
7.74267
 30
0.0
 10
-2.47998
 20
7.74267
 30
0.0
 10
-2.46534
 20
7.74646
 30
0.0
 10
-2.44562
 20
7.74833
 30
0.0
 10
-2.42077
 20
7.74833
 30
0.0
 10
-2.42077
 20
7.74833
 30
0.0
 10
-2.39137
 20
7.74833
 30
0.0
 10
-2.36769
 20
7.74529
 30
0.0
 10
-2.3496
 20
7.73928
 30
0.0
 10
-2.3496
 20
7.73928
 30
0.0
 10
-2.33152
 20
7.73322
 30
0.0
 10
-2.31758
 20
7.72418
 30
0.0
 10
-2.30772
 20
7.71216
 30
0.0
 10
-2.30772
 20
7.71216
 30
0.0
 10
-2.29786
 20
7.70014
 30
0.0
 10
-2.29296
 20
7.68498
 30
0.0
 10
-2.29296
 20
7.6666
 30
0.0
 10
-2.29296
 20
7.6666
 30
0.0
 10
-2.29296
 20
7.64245
 30
0.0
 10
-2.30159
 20
7.62349
 30
0.0
 10
-2.31892
 20
7.60973
 30
0.0
 10
-2.31892
 20
7.60973
 30
0.0
 10
-2.33974
 20
7.59322
 30
0.0
 10
-2.37375
 20
7.58493
 30
0.0
 10
-2.42077
 20
7.58493
 30
0.0
  0
SPLINE
  5
A7
330
1F
100
AcDbEntity
  8
0
100
AcDbSpline
210
0.0
220
0.0
230
1.0
 70
    11
 71
     3
 72
    36
 73
    32
 74
     0
 42
0.0000000001
 43
0.0000000001
 40
0.0
 40
0.0
 40
0.0
 40
0.0
 40
0.1111111111111111
 40
0.1111111111111111
 40
0.1111111111111111
 40
0.1111111111111111
 40
0.2222222222222222
 40
0.2222222222222222
 40
0.2222222222222222
 40
0.2222222222222222
 40
0.3333333333333333
 40
0.3333333333333333
 40
0.3333333333333333
 40
0.3333333333333333
 40
0.4444444444444444
 40
0.4444444444444444
 40
0.4444444444444444
 40
0.4444444444444444
 40
0.5555555555555556
 40
0.5555555555555556
 40
0.5555555555555556
 40
0.5555555555555556
 40
0.6666666666666666
 40
0.6666666666666666
 40
0.6666666666666666
 40
0.6666666666666666
 40
0.7777777777777778
 40
0.7777777777777778
 40
0.7777777777777778
 40
0.7777777777777778
 40
1.0
 40
1.0
 40
1.0
 40
1.0
 10
-2.42077
 20
7.61655
 30
0.0
 10
-2.37964
 20
7.61655
 30
0.0
 10
-2.35229
 20
7.62139
 30
0.0
 10
-2.33864
 20
7.63102
 30
0.0
 10
-2.33864
 20
7.63102
 30
0.0
 10
-2.32504
 20
7.64064
 30
0.0
 10
-2.31822
 20
7.65248
 30
0.0
 10
-2.31822
 20
7.6666
 30
0.0
 10
-2.31822
 20
7.6666
 30
0.0
 10
-2.31822
 20
7.68078
 30
0.0
 10
-2.3251
 20
7.69262
 30
0.0
 10
-2.33875
 20
7.70224
 30
0.0
 10
-2.33875
 20
7.70224
 30
0.0
 10
-2.3524
 20
7.71187
 30
0.0
 10
-2.37976
 20
7.71671
 30
0.0
 10
-2.42077
 20
7.71671
 30
0.0
 10
-2.42077
 20
7.71671
 30
0.0
 10
-2.46201
 20
7.71671
 30
0.0
 10
-2.48943
 20
7.71187
 30
0.0
 10
-2.50296
 20
7.70224
 30
0.0
 10
-2.50296
 20
7.70224
 30
0.0
 10
-2.51655
 20
7.69262
 30
0.0
 10
-2.52332
 20
7.68066
 30
0.0
 10
-2.52332
 20
7.66631
 30
0.0
 10
-2.52332
 20
7.66631
 30
0.0
 10
-2.52332
 20
7.65213
 30
0.0
 10
-2.51731
 20
7.64088
 30
0.0
 10
-2.50535
 20
7.63242
 30
0.0
 10
-2.50535
 20
7.63242
 30
0.0
 10
-2.49013
 20
7.62186
 30
0.0
 10
-2.46189
 20
7.61655
 30
0.0
 10
-2.42077
 20
7.61655
 30
0.0
  0
SPLINE
  5
A8
330
1F
100
AcDbEntity
  8
0
100
AcDbSpline
210
0.0
220
0.0
230
1.0
 70
    11
 71
     3
 72
    92
 73
    88
 74
     0
 42
0.0000000001
 43
0.0000000001
 40
0.0
 40
0.0
 40
0.0
 40
0.0
 40
0.0434782608695652
 40
0.0434782608695652
 40
0.0434782608695652
 40
0.0434782608695652
 40
0.0869565217391304
 40
0.0869565217391304
 40
0.0869565217391304
 40
0.0869565217391304
 40
0.1304347826086956
 40
0.1304347826086956
 40
0.1304347826086956
 40
0.1304347826086956
 40
0.1739130434782609
 40
0.1739130434782609
 40
0.1739130434782609
 40
0.1739130434782609
 40
0.2173913043478261
 40
0.2173913043478261
 40
0.2173913043478261
 40
0.2173913043478261
 40
0.2608695652173913
 40
0.2608695652173913
 40
0.2608695652173913
 40
0.2608695652173913
 40
0.3043478260869565
 40
0.3043478260869565
 40
0.3043478260869565
 40
0.3043478260869565
 40
0.3478260869565217
 40
0.3478260869565217
 40
0.3478260869565217
 40
0.3478260869565217
 40
0.391304347826087
 40
0.391304347826087
 40
0.391304347826087
 40
0.391304347826087
 40
0.4347826086956522
 40
0.4347826086956522
 40
0.4347826086956522
 40
0.4347826086956522
 40
0.4782608695652174
 40
0.4782608695652174
 40
0.4782608695652174
 40
0.4782608695652174
 40
0.5217391304347826
 40
0.5217391304347826
 40
0.5217391304347826
 40
0.5217391304347826
 40
0.5652173913043478
 40
0.5652173913043478
 40
0.5652173913043478
 40
0.5652173913043478
 40
0.6086956521739131
 40
0.6086956521739131
 40
0.6086956521739131
 40
0.6086956521739131
 40
0.6521739130434783
 40
0.6521739130434783
 40
0.6521739130434783
 40
0.6521739130434783
 40
0.6956521739130435
 40
0.6956521739130435
 40
0.6956521739130435
 40
0.6956521739130435
 40
0.7391304347826086
 40
0.7391304347826086
 40
0.7391304347826086
 40
0.7391304347826086
 40
0.782608695652174
 40
0.782608695652174
 40
0.782608695652174
 40
0.782608695652174
 40
0.8260869565217391
 40
0.8260869565217391
 40
0.8260869565217391
 40
0.8260869565217391
 40
0.8695652173913043
 40
0.8695652173913043
 40
0.8695652173913043
 40
0.8695652173913043
 40
0.9130434782608695
 40
0.9130434782608695
 40
0.9130434782608695
 40
0.9130434782608695
 40
1.0
 40
1.0
 40
1.0
 40
1.0
 10
-2.36284
 20
7.77959
 30
0.0
 10
-2.36284
 20
7.77959
 30
0.0
 10
-2.36559
 20
7.81191
 30
0.0
 10
-2.36559
 20
7.81191
 30
0.0
 10
-2.36559
 20
7.81191
 30
0.0
 10
-2.34984
 20
7.8143
 30
0.0
 10
-2.33805
 20
7.81984
 30
0.0
 10
-2.33012
 20
7.82854
 30
0.0
 10
-2.33012
 20
7.82854
 30
0.0
 10
-2.32219
 20
7.83729
 30
0.0
 10
-2.31822
 20
7.84779
 30
0.0
 10
-2.31822
 20
7.86009
 30
0.0
 10
-2.31822
 20
7.86009
 30
0.0
 10
-2.31822
 20
7.87491
 30
0.0
 10
-2.32382
 20
7.88745
 30
0.0
 10
-2.33496
 20
7.89766
 30
0.0
 10
-2.33496
 20
7.89766
 30
0.0
 10
-2.34616
 20
7.90793
 30
0.0
 10
-2.36098
 20
7.91306
 30
0.0
 10
-2.37941
 20
7.91306
 30
0.0
 10
-2.37941
 20
7.91306
 30
0.0
 10
-2.39697
 20
7.91306
 30
0.0
 10
-2.41079
 20
7.90816
 30
0.0
 10
-2.42094
 20
7.8983
 30
0.0
 10
-2.42094
 20
7.8983
 30
0.0
 10
-2.43109
 20
7.88844
 30
0.0
 10
-2.43617
 20
7.87555
 30
0.0
 10
-2.43617
 20
7.85957
 30
0.0
 10
-2.43617
 20
7.85957
 30
0.0
 10
-2.43617
 20
7.84965
 30
0.0
 10
-2.43389
 20
7.84073
 30
0.0
 10
-2.4294
 20
7.83274
 30
0.0
 10
-2.4294
 20
7.83274
 30
0.0
 10
-2.42491
 20
7.82474
 30
0.0
 10
-2.41908
 20
7.8185
 30
0.0
 10
-2.4119
 20
7.81395
 30
0.0
 10
-2.4119
 20
7.81395
 30
0.0
 10
-2.4119
 20
7.81395
 30
0.0
 10
-2.41564
 20
7.78508
 30
0.0
 10
-2.41564
 20
7.78508
 30
0.0
 10
-2.41564
 20
7.78508
 30
0.0
 10
-2.41564
 20
7.78508
 30
0.0
 10
-2.54432
 20
7.80934
 30
0.0
 10
-2.54432
 20
7.80934
 30
0.0
 10
-2.54432
 20
7.80934
 30
0.0
 10
-2.54432
 20
7.80934
 30
0.0
 10
-2.54432
 20
7.93394
 30
0.0
 10
-2.54432
 20
7.93394
 30
0.0
 10
-2.54432
 20
7.93394
 30
0.0
 10
-2.54432
 20
7.93394
 30
0.0
 10
-2.51492
 20
7.93394
 30
0.0
 10
-2.51492
 20
7.93394
 30
0.0
 10
-2.51492
 20
7.93394
 30
0.0
 10
-2.51492
 20
7.93394
 30
0.0
 10
-2.51492
 20
7.83396
 30
0.0
 10
-2.51492
 20
7.83396
 30
0.0
 10
-2.51492
 20
7.83396
 30
0.0
 10
-2.51492
 20
7.83396
 30
0.0
 10
-2.4476
 20
7.82043
 30
0.0
 10
-2.4476
 20
7.82043
 30
0.0
 10
-2.4476
 20
7.82043
 30
0.0
 10
-2.4581
 20
7.83548
 30
0.0
 10
-2.46335
 20
7.85129
 30
0.0
 10
-2.46335
 20
7.86779
 30
0.0
 10
-2.46335
 20
7.86779
 30
0.0
 10
-2.46335
 20
7.88967
 30
0.0
 10
-2.45577
 20
7.9081
 30
0.0
 10
-2.4406
 20
7.92315
 30
0.0
 10
-2.4406
 20
7.92315
 30
0.0
 10
-2.42544
 20
7.9382
 30
0.0
 10
-2.40595
 20
7.94573
 30
0.0
 10
-2.38215
 20
7.94573
 30
0.0
 10
-2.38215
 20
7.94573
 30
0.0
 10
-2.35946
 20
7.94573
 30
0.0
 10
-2.33986
 20
7.93908
 30
0.0
 10
-2.32335
 20
7.92589
 30
0.0
 10
-2.32335
 20
7.92589
 30
0.0
 10
-2.30311
 20
7.90979
 30
0.0
 10
-2.29296
 20
7.88786
 30
0.0
 10
-2.29296
 20
7.86009
 30
0.0
 10
-2.29296
 20
7.86009
 30
0.0
 10
-2.29296
 20
7.83729
 30
0.0
 10
-2.29932
 20
7.81868
 30
0.0
 10
-2.31209
 20
7.80427
 30
0.0
 10
-2.31209
 20
7.80427
 30
0.0
 10
-2.32487
 20
7.78986
 30
0.0
 10
-2.34179
 20
7.78164
 30
0.0
 10
-2.36284
 20
7.77959
 30
0.0
  0
SPLINE
  5
A9
330
1F
100
AcDbEntity
  8
0
100
AcDbSpline
210
0.0
220
0.0
230
1.0
 70
    11
 71
     3
 72
    20
 73
    16
 74
     0
 42
0.0000000001
 43
0.0000000001
 40
0.0
 40
0.0
 40
0.0
 40
0.0
 40
0.2
 40
0.2
 40
0.2
 40
0.2
 40
0.4
 40
0.4
 40
0.4
 40
0.4
 40
0.6
 40
0.6
 40
0.6
 40
0.6
 40
1.0
 40
1.0
 40
1.0
 40
1.0
 10
-2.29722
 20
7.99152
 30
0.0
 10
-2.29722
 20
7.99152
 30
0.0
 10
-2.33228
 20
7.99152
 30
0.0
 10
-2.33228
 20
7.99152
 30
0.0
 10
-2.33228
 20
7.99152
 30
0.0
 10
-2.33228
 20
7.99152
 30
0.0
 10
-2.33228
 20
8.02658
 30
0.0
 10
-2.33228
 20
8.02658
 30
0.0
 10
-2.33228
 20
8.02658
 30
0.0
 10
-2.33228
 20
8.02658
 30
0.0
 10
-2.29722
 20
8.02658
 30
0.0
 10
-2.29722
 20
8.02658
 30
0.0
 10
-2.29722
 20
8.02658
 30
0.0
 10
-2.29722
 20
8.02658
 30
0.0
 10
-2.29722
 20
7.99152
 30
0.0
 10
-2.29722
 20
7.99152
 30
0.0
  0
SPLINE
  5
AA
330
1F
100
AcDbEntity
  8
0
100
AcDbSpline
210
0.0
220
0.0
230
1.0
 70
    11
 71
     3
 72
    92
 73
    88
 74
     0
 42
0.0000000001
 43
0.0000000001
 40
0.0
 40
0.0
 40
0.0
 40
0.0
 40
0.0434782608695652
 40
0.0434782608695652
 40
0.0434782608695652
 40
0.0434782608695652
 40
0.0869565217391304
 40
0.0869565217391304
 40
0.0869565217391304
 40
0.0869565217391304
 40
0.1304347826086956
 40
0.1304347826086956
 40
0.1304347826086956
 40
0.1304347826086956
 40
0.1739130434782609
 40
0.1739130434782609
 40
0.1739130434782609
 40
0.1739130434782609
 40
0.2173913043478261
 40
0.2173913043478261
 40
0.2173913043478261
 40
0.2173913043478261
 40
0.2608695652173913
 40
0.2608695652173913
 40
0.2608695652173913
 40
0.2608695652173913
 40
0.3043478260869565
 40
0.3043478260869565
 40
0.3043478260869565
 40
0.3043478260869565
 40
0.3478260869565217
 40
0.3478260869565217
 40
0.3478260869565217
 40
0.3478260869565217
 40
0.391304347826087
 40
0.391304347826087
 40
0.391304347826087
 40
0.391304347826087
 40
0.4347826086956522
 40
0.4347826086956522
 40
0.4347826086956522
 40
0.4347826086956522
 40
0.4782608695652174
 40
0.4782608695652174
 40
0.4782608695652174
 40
0.4782608695652174
 40
0.5217391304347826
 40
0.5217391304347826
 40
0.5217391304347826
 40
0.5217391304347826
 40
0.5652173913043478
 40
0.5652173913043478
 40
0.5652173913043478
 40
0.5652173913043478
 40
0.6086956521739131
 40
0.6086956521739131
 40
0.6086956521739131
 40
0.6086956521739131
 40
0.6521739130434783
 40
0.6521739130434783
 40
0.6521739130434783
 40
0.6521739130434783
 40
0.6956521739130435
 40
0.6956521739130435
 40
0.6956521739130435
 40
0.6956521739130435
 40
0.7391304347826086
 40
0.7391304347826086
 40
0.7391304347826086
 40
0.7391304347826086
 40
0.782608695652174
 40
0.782608695652174
 40
0.782608695652174
 40
0.782608695652174
 40
0.8260869565217391
 40
0.8260869565217391
 40
0.8260869565217391
 40
0.8260869565217391
 40
0.8695652173913043
 40
0.8695652173913043
 40
0.8695652173913043
 40
0.8695652173913043
 40
0.9130434782608695
 40
0.9130434782608695
 40
0.9130434782608695
 40
0.9130434782608695
 40
1.0
 40
1.0
 40
1.0
 40
1.0
 10
-2.36284
 20
8.07149
 30
0.0
 10
-2.36284
 20
8.07149
 30
0.0
 10
-2.36559
 20
8.10381
 30
0.0
 10
-2.36559
 20
8.10381
 30
0.0
 10
-2.36559
 20
8.10381
 30
0.0
 10
-2.34984
 20
8.1062
 30
0.0
 10
-2.33805
 20
8.11174
 30
0.0
 10
-2.33012
 20
8.12044
 30
0.0
 10
-2.33012
 20
8.12044
 30
0.0
 10
-2.32219
 20
8.12919
 30
0.0
 10
-2.31822
 20
8.13969
 30
0.0
 10
-2.31822
 20
8.15199
 30
0.0
 10
-2.31822
 20
8.15199
 30
0.0
 10
-2.31822
 20
8.16681
 30
0.0
 10
-2.32382
 20
8.17935
 30
0.0
 10
-2.33496
 20
8.18956
 30
0.0
 10
-2.33496
 20
8.18956
 30
0.0
 10
-2.34616
 20
8.19983
 30
0.0
 10
-2.36098
 20
8.20496
 30
0.0
 10
-2.37941
 20
8.20496
 30
0.0
 10
-2.37941
 20
8.20496
 30
0.0
 10
-2.39697
 20
8.20496
 30
0.0
 10
-2.41079
 20
8.20006
 30
0.0
 10
-2.42094
 20
8.1902
 30
0.0
 10
-2.42094
 20
8.1902
 30
0.0
 10
-2.43109
 20
8.18034
 30
0.0
 10
-2.43617
 20
8.16745
 30
0.0
 10
-2.43617
 20
8.15147
 30
0.0
 10
-2.43617
 20
8.15147
 30
0.0
 10
-2.43617
 20
8.14155
 30
0.0
 10
-2.43389
 20
8.13263
 30
0.0
 10
-2.4294
 20
8.12464
 30
0.0
 10
-2.4294
 20
8.12464
 30
0.0
 10
-2.42491
 20
8.11664
 30
0.0
 10
-2.41908
 20
8.1104
 30
0.0
 10
-2.4119
 20
8.10585
 30
0.0
 10
-2.4119
 20
8.10585
 30
0.0
 10
-2.4119
 20
8.10585
 30
0.0
 10
-2.41564
 20
8.07698
 30
0.0
 10
-2.41564
 20
8.07698
 30
0.0
 10
-2.41564
 20
8.07698
 30
0.0
 10
-2.41564
 20
8.07698
 30
0.0
 10
-2.54432
 20
8.10124
 30
0.0
 10
-2.54432
 20
8.10124
 30
0.0
 10
-2.54432
 20
8.10124
 30
0.0
 10
-2.54432
 20
8.10124
 30
0.0
 10
-2.54432
 20
8.22584
 30
0.0
 10
-2.54432
 20
8.22584
 30
0.0
 10
-2.54432
 20
8.22584
 30
0.0
 10
-2.54432
 20
8.22584
 30
0.0
 10
-2.51492
 20
8.22584
 30
0.0
 10
-2.51492
 20
8.22584
 30
0.0
 10
-2.51492
 20
8.22584
 30
0.0
 10
-2.51492
 20
8.22584
 30
0.0
 10
-2.51492
 20
8.12586
 30
0.0
 10
-2.51492
 20
8.12586
 30
0.0
 10
-2.51492
 20
8.12586
 30
0.0
 10
-2.51492
 20
8.12586
 30
0.0
 10
-2.4476
 20
8.11233
 30
0.0
 10
-2.4476
 20
8.11233
 30
0.0
 10
-2.4476
 20
8.11233
 30
0.0
 10
-2.4581
 20
8.12738
 30
0.0
 10
-2.46335
 20
8.14319
 30
0.0
 10
-2.46335
 20
8.15969
 30
0.0
 10
-2.46335
 20
8.15969
 30
0.0
 10
-2.46335
 20
8.18157
 30
0.0
 10
-2.45577
 20
8.2
 30
0.0
 10
-2.4406
 20
8.21505
 30
0.0
 10
-2.4406
 20
8.21505
 30
0.0
 10
-2.42544
 20
8.2301
 30
0.0
 10
-2.40595
 20
8.23763
 30
0.0
 10
-2.38215
 20
8.23763
 30
0.0
 10
-2.38215
 20
8.23763
 30
0.0
 10
-2.35946
 20
8.23763
 30
0.0
 10
-2.33986
 20
8.23098
 30
0.0
 10
-2.32335
 20
8.21779
 30
0.0
 10
-2.32335
 20
8.21779
 30
0.0
 10
-2.30311
 20
8.20169
 30
0.0
 10
-2.29296
 20
8.17976
 30
0.0
 10
-2.29296
 20
8.15199
 30
0.0
 10
-2.29296
 20
8.15199
 30
0.0
 10
-2.29296
 20
8.12919
 30
0.0
 10
-2.29932
 20
8.11058
 30
0.0
 10
-2.31209
 20
8.09617
 30
0.0
 10
-2.31209
 20
8.09617
 30
0.0
 10
-2.32487
 20
8.08176
 30
0.0
 10
-2.34179
 20
8.07354
 30
0.0
 10
-2.36284
 20
8.07149
 30
0.0
  0
SPLINE
  5
AB
330
1F
100
AcDbEntity
  8
0
100
AcDbSpline
210
0.0
220
0.0
230
1.0
 70
    11
 71
     3
 72
    52
 73
    48
 74
     0
 42
0.0000000001
 43
0.0000000001
 40
0.0
 40
0.0
 40
0.0
 40
0.0
 40
0.0769230769230769
 40
0.0769230769230769
 40
0.0769230769230769
 40
0.0769230769230769
 40
0.1538461538461539
 40
0.1538461538461539
 40
0.1538461538461539
 40
0.1538461538461539
 40
0.2307692307692308
 40
0.2307692307692308
 40
0.2307692307692308
 40
0.2307692307692308
 40
0.3076923076923077
 40
0.3076923076923077
 40
0.3076923076923077
 40
0.3076923076923077
 40
0.3846153846153846
 40
0.3846153846153846
 40
0.3846153846153846
 40
0.3846153846153846
 40
0.4615384615384616
 40
0.4615384615384616
 40
0.4615384615384616
 40
0.4615384615384616
 40
0.5384615384615384
 40
0.5384615384615384
 40
0.5384615384615384
 40
0.5384615384615384
 40
0.6153846153846154
 40
0.6153846153846154
 40
0.6153846153846154
 40
0.6153846153846154
 40
0.6923076923076923
 40
0.6923076923076923
 40
0.6923076923076923
 40
0.6923076923076923
 40
0.7692307692307693
 40
0.7692307692307693
 40
0.7692307692307693
 40
0.7692307692307693
 40
0.8461538461538461
 40
0.8461538461538461
 40
0.8461538461538461
 40
0.8461538461538461
 40
1.0
 40
1.0
 40
1.0
 40
1.0
 10
-2.42077
 20
8.26615
 30
0.0
 10
-2.4504
 20
8.26615
 30
0.0
 10
-2.47426
 20
8.26919
 30
0.0
 10
-2.49229
 20
8.27531
 30
0.0
 10
-2.49229
 20
8.27531
 30
0.0
 10
-2.51037
 20
8.28138
 30
0.0
 10
-2.52431
 20
8.29048
 30
0.0
 10
-2.53411
 20
8.3025
 30
0.0
 10
-2.53411
 20
8.3025
 30
0.0
 10
-2.54391
 20
8.31451
 30
0.0
 10
-2.54875
 20
8.32962
 30
0.0
 10
-2.54875
 20
8.34782
 30
0.0
 10
-2.54875
 20
8.34782
 30
0.0
 10
-2.54875
 20
8.3613
 30
0.0
 10
-2.54607
 20
8.37308
 30
0.0
 10
-2.54064
 20
8.38323
 30
0.0
 10
-2.54064
 20
8.38323
 30
0.0
 10
-2.53528
 20
8.39338
 30
0.0
 10
-2.52746
 20
8.40172
 30
0.0
 10
-2.51725
 20
8.40837
 30
0.0
 10
-2.51725
 20
8.40837
 30
0.0
 10
-2.50704
 20
8.41496
 30
0.0
 10
-2.49462
 20
8.42015
 30
0.0
 10
-2.47998
 20
8.42389
 30
0.0
 10
-2.47998
 20
8.42389
 30
0.0
 10
-2.46534
 20
8.42768
 30
0.0
 10
-2.44562
 20
8.42955
 30
0.0
 10
-2.42077
 20
8.42955
 30
0.0
 10
-2.42077
 20
8.42955
 30
0.0
 10
-2.39137
 20
8.42955
 30
0.0
 10
-2.36769
 20
8.42651
 30
0.0
 10
-2.3496
 20
8.4205
 30
0.0
 10
-2.3496
 20
8.4205
 30
0.0
 10
-2.33152
 20
8.41444
 30
0.0
 10
-2.31758
 20
8.4054
 30
0.0
 10
-2.30772
 20
8.39338
 30
0.0
 10
-2.30772
 20
8.39338
 30
0.0
 10
-2.29786
 20
8.38136
 30
0.0
 10
-2.29296
 20
8.3662
 30
0.0
 10
-2.29296
 20
8.34782
 30
0.0
 10
-2.29296
 20
8.34782
 30
0.0
 10
-2.29296
 20
8.32367
 30
0.0
 10
-2.30159
 20
8.30471
 30
0.0
 10
-2.31892
 20
8.29095
 30
0.0
 10
-2.31892
 20
8.29095
 30
0.0
 10
-2.33974
 20
8.27444
 30
0.0
 10
-2.37375
 20
8.26615
 30
0.0
 10
-2.42077
 20
8.26615
 30
0.0
  0
SPLINE
  5
AC
330
1F
100
AcDbEntity
  8
0
100
AcDbSpline
210
0.0
220
0.0
230
1.0
 70
    11
 71
     3
 72
    36
 73
    32
 74
     0
 42
0.0000000001
 43
0.0000000001
 40
0.0
 40
0.0
 40
0.0
 40
0.0
 40
0.1111111111111111
 40
0.1111111111111111
 40
0.1111111111111111
 40
0.1111111111111111
 40
0.2222222222222222
 40
0.2222222222222222
 40
0.2222222222222222
 40
0.2222222222222222
 40
0.3333333333333333
 40
0.3333333333333333
 40
0.3333333333333333
 40
0.3333333333333333
 40
0.4444444444444444
 40
0.4444444444444444
 40
0.4444444444444444
 40
0.4444444444444444
 40
0.5555555555555556
 40
0.5555555555555556
 40
0.5555555555555556
 40
0.5555555555555556
 40
0.6666666666666666
 40
0.6666666666666666
 40
0.6666666666666666
 40
0.6666666666666666
 40
0.7777777777777778
 40
0.7777777777777778
 40
0.7777777777777778
 40
0.7777777777777778
 40
1.0
 40
1.0
 40
1.0
 40
1.0
 10
-2.42077
 20
8.29777
 30
0.0
 10
-2.37964
 20
8.29777
 30
0.0
 10
-2.35229
 20
8.30261
 30
0.0
 10
-2.33864
 20
8.31224
 30
0.0
 10
-2.33864
 20
8.31224
 30
0.0
 10
-2.32504
 20
8.32186
 30
0.0
 10
-2.31822
 20
8.3337
 30
0.0
 10
-2.31822
 20
8.34782
 30
0.0
 10
-2.31822
 20
8.34782
 30
0.0
 10
-2.31822
 20
8.362
 30
0.0
 10
-2.3251
 20
8.37384
 30
0.0
 10
-2.33875
 20
8.38346
 30
0.0
 10
-2.33875
 20
8.38346
 30
0.0
 10
-2.3524
 20
8.39309
 30
0.0
 10
-2.37976
 20
8.39793
 30
0.0
 10
-2.42077
 20
8.39793
 30
0.0
 10
-2.42077
 20
8.39793
 30
0.0
 10
-2.46201
 20
8.39793
 30
0.0
 10
-2.48943
 20
8.39309
 30
0.0
 10
-2.50296
 20
8.38346
 30
0.0
 10
-2.50296
 20
8.38346
 30
0.0
 10
-2.51655
 20
8.37384
 30
0.0
 10
-2.52332
 20
8.36188
 30
0.0
 10
-2.52332
 20
8.34753
 30
0.0
 10
-2.52332
 20
8.34753
 30
0.0
 10
-2.52332
 20
8.33335
 30
0.0
 10
-2.51731
 20
8.3221
 30
0.0
 10
-2.50535
 20
8.31364
 30
0.0
 10
-2.50535
 20
8.31364
 30
0.0
 10
-2.49013
 20
8.30308
 30
0.0
 10
-2.46189
 20
8.29777
 30
0.0
 10
-2.42077
 20
8.29777
 30
0.0
  0
SPLINE
  5
AD
330
1F
100
AcDbEntity
  8
0
370
    15
100
AcDbSpline
210
0.0
220
0.0
230
1.0
 70
     8
 71
     3
 72
     8
 73
     4
 74
     0
 42
0.0000000001
 43
0.0000000001
 40
0.0
 40
0.0
 40
0.0
 40
0.0
 40
1.0
 40
1.0
 40
1.0
 40
1.0
 10
4.0927
 20
8.37509
 30
0.0
 10
4.09258
 20
8.35922
 30
0.0
 10
4.09398
 20
8.34338
 30
0.0
 10
4.09688
 20
8.32778
 30
0.0
  0
SPLINE
  5
AE
330
1F
100
AcDbEntity
  8
0
370
    15
100
AcDbSpline
210
0.0
220
0.0
230
1.0
 70
     8
 71
     3
 72
     8
 73
     4
 74
     0
 42
0.0000000001
 43
0.0000000001
 40
0.0
 40
0.0
 40
0.0
 40
0.0
 40
1.0
 40
1.0
 40
1.0
 40
1.0
 10
7.81841
 20
8.32778
 30
0.0
 10
7.82131
 20
8.34338
 30
0.0
 10
7.82271
 20
8.35922
 30
0.0
 10
7.82259
 20
8.37509
 30
0.0
  0
SPLINE
  5
AF
330
1F
100
AcDbEntity
  8
0
370
    15
100
AcDbSpline
210
0.0
220
0.0
230
1.0
 70
    24
 71
     3
 72
     8
 73
     4
 74
     0
 42
0.0000000001
 43
0.0000000001
 40
0.0
 40
0.0
 40
0.0
 40
0.0
 40
1.0
 40
1.0
 40
1.0
 40
1.0
 10
7.82259
 20
8.37509
 30
0.0
 10
7.82259
 20
8.37509
 30
0.0
 10
7.80799
 20
10.45159
 30
0.0
 10
7.80799
 20
10.45159
 30
0.0
  0
SPLINE
  5
B0
330
1F
100
AcDbEntity
  8
0
370
    15
100
AcDbSpline
210
0.0
220
0.0
230
1.0
 70
    24
 71
     3
 72
     8
 73
     4
 74
     0
 42
0.0000000001
 43
0.0000000001
 40
0.0
 40
0.0
 40
0.0
 40
0.0
 40
1.0
 40
1.0
 40
1.0
 40
1.0
 10
4.1073
 20
10.45159
 30
0.0
 10
4.1073
 20
10.45159
 30
0.0
 10
4.0927
 20
8.37509
 30
0.0
 10
4.0927
 20
8.37509
 30
0.0
  0
SPLINE
  5
B1
330
1F
100
AcDbEntity
  8
0
370
    15
100
AcDbSpline
210
0.0
220
0.0
230
1.0
 70
    24
 71
     3
 72
     8
 73
     4
 74
     0
 42
0.0000000001
 43
0.0000000001
 40
0.0
 40
0.0
 40
0.0
 40
0.0
 40
1.0
 40
1.0
 40
1.0
 40
1.0
 10
4.09688
 20
8.32778
 30
0.0
 10
4.09688
 20
8.32778
 30
0.0
 10
4.25765
 20
7.46034
 30
0.0
 10
4.25765
 20
7.46034
 30
0.0
  0
SPLINE
  5
B2
330
1F
100
AcDbEntity
  8
0
370
    15
100
AcDbSpline
210
0.0
220
0.0
230
1.0
 70
    24
 71
     3
 72
     8
 73
     4
 74
     0
 42
0.0000000001
 43
0.0000000001
 40
0.0
 40
0.0
 40
0.0
 40
0.0
 40
1.0
 40
1.0
 40
1.0
 40
1.0
 10
7.65765
 20
7.46034
 30
0.0
 10
7.65765
 20
7.46034
 30
0.0
 10
7.81841
 20
8.32778
 30
0.0
 10
7.81841
 20
8.32778
 30
0.0
  0
SPLINE
  5
B3
330
1F
100
AcDbEntity
  8
0
370
    15
100
AcDbSpline
210
0.0
220
0.0
230
1.0
 70
     8
 71
     3
 72
     8
 73
     4
 74
     0
 42
0.0000000001
 43
0.0000000001
 40
0.0
 40
0.0
 40
0.0
 40
0.0
 40
1.0
 40
1.0
 40
1.0
 40
1.0
 10
4.15729
 20
10.50124
 30
0.0
 10
4.12982
 20
10.50124
 30
0.0
 10
4.10749
 20
10.47906
 30
0.0
 10
4.1073
 20
10.45159
 30
0.0
  0
SPLINE
  5
B4
330
1F
100
AcDbEntity
  8
0
370
    15
100
AcDbSpline
210
0.0
220
0.0
230
1.0
 70
     8
 71
     3
 72
     8
 73
     4
 74
     0
 42
0.0000000001
 43
0.0000000001
 40
0.0
 40
0.0
 40
0.0
 40
0.0
 40
1.0
 40
1.0
 40
1.0
 40
1.0
 10
7.80799
 20
10.45159
 30
0.0
 10
7.8078
 20
10.47906
 30
0.0
 10
7.78547
 20
10.50124
 30
0.0
 10
7.758
 20
10.50124
 30
0.0
  0
SPLINE
  5
B5
330
1F
100
AcDbEntity
  8
0
370
    15
100
AcDbSpline
210
0.0
220
0.0
230
1.0
 70
     8
 71
     3
 72
     8
 73
     4
 74
     0
 42
0.0000000001
 43
0.0000000001
 40
0.0
 40
0.0
 40
0.0
 40
0.0
 40
1.0
 40
1.0
 40
1.0
 40
1.0
 10
4.25765
 20
7.46034
 30
0.0
 10
4.2672
 20
7.40879
 30
0.0
 10
4.29272
 20
7.36155
 30
0.0
 10
4.33059
 20
7.3253
 30
0.0
  0
SPLINE
  5
B6
330
1F
100
AcDbEntity
  8
0
370
    15
100
AcDbSpline
210
0.0
220
0.0
230
1.0
 70
     8
 71
     3
 72
     8
 73
     4
 74
     0
 42
0.0000000001
 43
0.0000000001
 40
0.0
 40
0.0
 40
0.0
 40
0.0
 40
1.0
 40
1.0
 40
1.0
 40
1.0
 10
7.5847
 20
7.3253
 30
0.0
 10
7.62257
 20
7.36155
 30
0.0
 10
7.64809
 20
7.40879
 30
0.0
 10
7.65765
 20
7.46034
 30
0.0
  0
SPLINE
  5
B7
330
1F
100
AcDbEntity
  8
0
370
    15
100
AcDbSpline
210
0.0
220
0.0
230
1.0
 70
     8
 71
     3
 72
     8
 73
     4
 74
     0
 42
0.0000000001
 43
0.0000000001
 40
0.0
 40
0.0
 40
0.0
 40
0.0
 40
1.0
 40
1.0
 40
1.0
 40
1.0
 10
4.37032
 20
7.27624
 30
0.0
 10
4.35921
 20
7.2942
 30
0.0
 10
4.34586
 20
7.31069
 30
0.0
 10
4.33059
 20
7.3253
 30
0.0
  0
SPLINE
  5
B8
330
1F
100
AcDbEntity
  8
0
370
    15
100
AcDbSpline
210
0.0
220
0.0
230
1.0
 70
     8
 71
     3
 72
     8
 73
     4
 74
     0
 42
0.0000000001
 43
0.0000000001
 40
0.0
 40
0.0
 40
0.0
 40
0.0
 40
1.0
 40
1.0
 40
1.0
 40
1.0
 10
7.5847
 20
7.3253
 30
0.0
 10
7.56943
 20
7.31069
 30
0.0
 10
7.55608
 20
7.2942
 30
0.0
 10
7.54497
 20
7.27624
 30
0.0
  0
SPLINE
  5
B9
330
1F
100
AcDbEntity
  8
0
370
    15
100
AcDbSpline
210
0.0
220
0.0
230
1.0
 70
    24
 71
     3
 72
     8
 73
     4
 74
     0
 42
0.0000000001
 43
0.0000000001
 40
0.0
 40
0.0
 40
0.0
 40
0.0
 40
1.0
 40
1.0
 40
1.0
 40
1.0
 10
4.41877
 20
6.72624
 30
0.0
 10
4.41877
 20
6.72624
 30
0.0
 10
4.43793
 20
5.99469
 30
0.0
 10
4.43793
 20
5.99469
 30
0.0
  0
SPLINE
  5
BA
330
1F
100
AcDbEntity
  8
0
370
    15
100
AcDbSpline
210
0.0
220
0.0
230
1.0
 70
    24
 71
     3
 72
     8
 73
     4
 74
     0
 42
0.0000000001
 43
0.0000000001
 40
0.0
 40
0.0
 40
0.0
 40
0.0
 40
1.0
 40
1.0
 40
1.0
 40
1.0
 10
7.47736
 20
5.99469
 30
0.0
 10
7.47736
 20
5.99469
 30
0.0
 10
7.49652
 20
6.72624
 30
0.0
 10
7.49652
 20
6.72624
 30
0.0
  0
SPLINE
  5
BB
330
1F
100
AcDbEntity
  8
0
370
    15
100
AcDbSpline
210
0.0
220
0.0
230
1.0
 70
     8
 71
     3
 72
     8
 73
     4
 74
     0
 42
0.0000000001
 43
0.0000000001
 40
0.0
 40
0.0
 40
0.0
 40
0.0
 40
1.0
 40
1.0
 40
1.0
 40
1.0
 10
4.43793
 20
5.99469
 30
0.0
 10
4.44148
 20
5.85922
 30
0.0
 10
4.55232
 20
5.75124
 30
0.0
 10
4.68784
 20
5.75124
 30
0.0
  0
SPLINE
  5
BC
330
1F
100
AcDbEntity
  8
0
370
    15
100
AcDbSpline
210
0.0
220
0.0
230
1.0
 70
     8
 71
     3
 72
     8
 73
     4
 74
     0
 42
0.0000000001
 43
0.0000000001
 40
0.0
 40
0.0
 40
0.0
 40
0.0
 40
1.0
 40
1.0
 40
1.0
 40
1.0
 10
7.22745
 20
5.75124
 30
0.0
 10
7.36297
 20
5.75124
 30
0.0
 10
7.47381
 20
5.85922
 30
0.0
 10
7.47736
 20
5.99469
 30
0.0
  0
SPLINE
  5
BD
330
1F
100
AcDbEntity
  8
0
370
    15
100
AcDbSpline
210
0.0
220
0.0
230
1.0
 70
    24
 71
     3
 72
     8
 73
     4
 74
     0
 42
0.0000000001
 43
0.0000000001
 40
0.0
 40
0.0
 40
0.0
 40
0.0
 40
1.0
 40
1.0
 40
1.0
 40
1.0
 10
4.30495
 20
6.87624
 30
0.0
 10
4.30495
 20
6.87624
 30
0.0
 10
4.34515
 20
6.72624
 30
0.0
 10
4.34515
 20
6.72624
 30
0.0
  0
SPLINE
  5
BE
330
1F
100
AcDbEntity
  8
0
370
    15
100
AcDbSpline
210
0.0
220
0.0
230
1.0
 70
    24
 71
     3
 72
     8
 73
     4
 74
     0
 42
0.0000000001
 43
0.0000000001
 40
0.0
 40
0.0
 40
0.0
 40
0.0
 40
1.0
 40
1.0
 40
1.0
 40
1.0
 10
7.57015
 20
6.72624
 30
0.0
 10
7.57015
 20
6.72624
 30
0.0
 10
7.61034
 20
6.87624
 30
0.0
 10
7.61034
 20
6.87624
 30
0.0
  0
SPLINE
  5
BF
330
1F
100
AcDbEntity
  8
0
370
    15
100
AcDbSpline
210
0.0
220
0.0
230
1.0
 70
     8
 71
     3
 72
     8
 73
     4
 74
     0
 42
0.0000000001
 43
0.0000000001
 40
0.0
 40
0.0
 40
0.0
 40
0.0
 40
1.0
 40
1.0
 40
1.0
 40
1.0
 10
7.8135
 20
6.89363
 30
0.0
 10
7.85145
 20
7.01241
 30
0.0
 10
7.85145
 20
7.14006
 30
0.0
 10
7.8135
 20
7.25884
 30
0.0
  0
SPLINE
  5
C0
330
1F
100
AcDbEntity
  8
0
370
    15
100
AcDbSpline
210
0.0
220
0.0
230
1.0
 70
     8
 71
     3
 72
     8
 73
     4
 74
     0
 42
0.0000000001
 43
0.0000000001
 40
0.0
 40
0.0
 40
0.0
 40
0.0
 40
1.0
 40
1.0
 40
1.0
 40
1.0
 10
7.78968
 20
6.87624
 30
0.0
 10
7.80056
 20
6.87624
 30
0.0
 10
7.81019
 20
6.88327
 30
0.0
 10
7.8135
 20
6.89363
 30
0.0
  0
SPLINE
  5
C1
330
1F
100
AcDbEntity
  8
0
370
    15
100
AcDbSpline
210
0.0
220
0.0
230
1.0
 70
     8
 71
     3
 72
     8
 73
     4
 74
     0
 42
0.0000000001
 43
0.0000000001
 40
0.0
 40
0.0
 40
0.0
 40
0.0
 40
1.0
 40
1.0
 40
1.0
 40
1.0
 10
7.8135
 20
7.25884
 30
0.0
 10
7.81019
 20
7.2692
 30
0.0
 10
7.80056
 20
7.27624
 30
0.0
 10
7.78968
 20
7.27624
 30
0.0
  0
SPLINE
  5
C2
330
1F
100
AcDbEntity
  8
0
370
    15
100
AcDbSpline
210
0.0
220
0.0
230
1.0
 70
    24
 71
     3
 72
     8
 73
     4
 74
     0
 42
0.0000000001
 43
0.0000000001
 40
0.0
 40
0.0
 40
0.0
 40
0.0
 40
1.0
 40
1.0
 40
1.0
 40
1.0
 10
3.79169
 20
5.22624
 30
0.0
 10
3.79169
 20
5.22624
 30
0.0
 10
3.79169
 20
6.82115
 30
0.0
 10
3.79169
 20
6.82115
 30
0.0
  0
SPLINE
  5
C3
330
1F
100
AcDbEntity
  8
0
370
    15
100
AcDbSpline
210
0.0
220
0.0
230
1.0
 70
    24
 71
     3
 72
     8
 73
     4
 74
     0
 42
0.0000000001
 43
0.0000000001
 40
0.0
 40
0.0
 40
0.0
 40
0.0
 40
1.0
 40
1.0
 40
1.0
 40
1.0
 10
4.15729
 20
10.50124
 30
0.0
 10
4.15729
 20
10.50124
 30
0.0
 10
7.758
 20
10.50124
 30
0.0
 10
7.758
 20
10.50124
 30
0.0
  0
SPLINE
  5
C4
330
1F
100
AcDbEntity
  8
0
370
    15
100
AcDbSpline
210
0.0
220
0.0
230
1.0
 70
    24
 71
     3
 72
     8
 73
     4
 74
     0
 42
0.0000000001
 43
0.0000000001
 40
0.0
 40
0.0
 40
0.0
 40
0.0
 40
1.0
 40
1.0
 40
1.0
 40
1.0
 10
4.68784
 20
5.75124
 30
0.0
 10
4.68784
 20
5.75124
 30
0.0
 10
7.22745
 20
5.75124
 30
0.0
 10
7.22745
 20
5.75124
 30
0.0
  0
SPLINE
  5
C5
330
1F
100
AcDbEntity
  8
0
370
    15
100
AcDbSpline
210
0.0
220
0.0
230
1.0
 70
    24
 71
     3
 72
     8
 73
     4
 74
     0
 42
0.0000000001
 43
0.0000000001
 40
0.0
 40
0.0
 40
0.0
 40
0.0
 40
1.0
 40
1.0
 40
1.0
 40
1.0
 10
7.57015
 20
6.72624
 30
0.0
 10
7.57015
 20
6.72624
 30
0.0
 10
4.34515
 20
6.72624
 30
0.0
 10
4.34515
 20
6.72624
 30
0.0
  0
SPLINE
  5
C6
330
1F
100
AcDbEntity
  8
0
370
    15
100
AcDbSpline
210
0.0
220
0.0
230
1.0
 70
     8
 71
     3
 72
     8
 73
     4
 74
     0
 42
0.0000000001
 43
0.0000000001
 40
0.0
 40
0.0
 40
0.0
 40
0.0
 40
1.0
 40
1.0
 40
1.0
 40
1.0
 10
5.16721
 20
7.25884
 30
0.0
 10
5.15099
 20
7.13765
 30
0.0
 10
5.15099
 20
7.01483
 30
0.0
 10
5.16721
 20
6.89363
 30
0.0
  0
SPLINE
  5
C7
330
1F
100
AcDbEntity
  8
0
370
    15
100
AcDbSpline
210
0.0
220
0.0
230
1.0
 70
    24
 71
     3
 72
     8
 73
     4
 74
     0
 42
0.0000000001
 43
0.0000000001
 40
0.0
 40
0.0
 40
0.0
 40
0.0
 40
1.0
 40
1.0
 40
1.0
 40
1.0
 10
7.78968
 20
6.87624
 30
0.0
 10
7.78968
 20
6.87624
 30
0.0
 10
5.17735
 20
6.87624
 30
0.0
 10
5.17735
 20
6.87624
 30
0.0
  0
SPLINE
  5
C8
330
1F
100
AcDbEntity
  8
0
370
    15
100
AcDbSpline
210
0.0
220
0.0
230
1.0
 70
     8
 71
     3
 72
    36
 73
    32
 74
     0
 42
0.0000000001
 43
0.0000000001
 40
0.0
 40
0.0
 40
0.0
 40
0.0
 40
0.1111111111111111
 40
0.1111111111111111
 40
0.1111111111111111
 40
0.1111111111111111
 40
0.2222222222222222
 40
0.2222222222222222
 40
0.2222222222222222
 40
0.2222222222222222
 40
0.3333333333333333
 40
0.3333333333333333
 40
0.3333333333333333
 40
0.3333333333333333
 40
0.4444444444444444
 40
0.4444444444444444
 40
0.4444444444444444
 40
0.4444444444444444
 40
0.5555555555555556
 40
0.5555555555555556
 40
0.5555555555555556
 40
0.5555555555555556
 40
0.6666666666666666
 40
0.6666666666666666
 40
0.6666666666666666
 40
0.6666666666666666
 40
0.7777777777777778
 40
0.7777777777777778
 40
0.7777777777777778
 40
0.7777777777777778
 40
1.0
 40
1.0
 40
1.0
 40
1.0
 10
5.17735
 20
6.87624
 30
0.0
 10
5.17735
 20
6.87624
 30
0.0
 10
5.17568
 20
6.87655
 30
0.0
 10
5.17568
 20
6.87655
 30
0.0
 10
5.17568
 20
6.87655
 30
0.0
 10
5.17568
 20
6.87655
 30
0.0
 10
5.17405
 20
6.87747
 30
0.0
 10
5.17405
 20
6.87747
 30
0.0
 10
5.17405
 20
6.87747
 30
0.0
 10
5.17405
 20
6.87747
 30
0.0
 10
5.1725
 20
6.87898
 30
0.0
 10
5.1725
 20
6.87898
 30
0.0
 10
5.1725
 20
6.87898
 30
0.0
 10
5.1725
 20
6.87898
 30
0.0
 10
5.17107
 20
6.88105
 30
0.0
 10
5.17107
 20
6.88105
 30
0.0
 10
5.17107
 20
6.88105
 30
0.0
 10
5.17107
 20
6.88105
 30
0.0
 10
5.1698
 20
6.88361
 30
0.0
 10
5.1698
 20
6.88361
 30
0.0
 10
5.1698
 20
6.88361
 30
0.0
 10
5.1698
 20
6.88361
 30
0.0
 10
5.16871
 20
6.88662
 30
0.0
 10
5.16871
 20
6.88662
 30
0.0
 10
5.16871
 20
6.88662
 30
0.0
 10
5.16871
 20
6.88662
 30
0.0
 10
5.16784
 20
6.88998
 30
0.0
 10
5.16784
 20
6.88998
 30
0.0
 10
5.16784
 20
6.88998
 30
0.0
 10
5.16784
 20
6.88998
 30
0.0
 10
5.16721
 20
6.89363
 30
0.0
 10
5.16721
 20
6.89363
 30
0.0
  0
SPLINE
  5
C9
330
1F
100
AcDbEntity
  8
0
370
    15
100
AcDbSpline
210
0.0
220
0.0
230
1.0
 70
     8
 71
     3
 72
    36
 73
    32
 74
     0
 42
0.0000000001
 43
0.0000000001
 40
0.0
 40
0.0
 40
0.0
 40
0.0
 40
0.1111111111111111
 40
0.1111111111111111
 40
0.1111111111111111
 40
0.1111111111111111
 40
0.2222222222222222
 40
0.2222222222222222
 40
0.2222222222222222
 40
0.2222222222222222
 40
0.3333333333333333
 40
0.3333333333333333
 40
0.3333333333333333
 40
0.3333333333333333
 40
0.4444444444444444
 40
0.4444444444444444
 40
0.4444444444444444
 40
0.4444444444444444
 40
0.5555555555555556
 40
0.5555555555555556
 40
0.5555555555555556
 40
0.5555555555555556
 40
0.6666666666666666
 40
0.6666666666666666
 40
0.6666666666666666
 40
0.6666666666666666
 40
0.7777777777777778
 40
0.7777777777777778
 40
0.7777777777777778
 40
0.7777777777777778
 40
1.0
 40
1.0
 40
1.0
 40
1.0
 10
5.16721
 20
7.25884
 30
0.0
 10
5.16721
 20
7.25884
 30
0.0
 10
5.16784
 20
7.26249
 30
0.0
 10
5.16784
 20
7.26249
 30
0.0
 10
5.16784
 20
7.26249
 30
0.0
 10
5.16784
 20
7.26249
 30
0.0
 10
5.16871
 20
7.26586
 30
0.0
 10
5.16871
 20
7.26586
 30
0.0
 10
5.16871
 20
7.26586
 30
0.0
 10
5.16871
 20
7.26586
 30
0.0
 10
5.1698
 20
7.26886
 30
0.0
 10
5.1698
 20
7.26886
 30
0.0
 10
5.1698
 20
7.26886
 30
0.0
 10
5.1698
 20
7.26886
 30
0.0
 10
5.17107
 20
7.27143
 30
0.0
 10
5.17107
 20
7.27143
 30
0.0
 10
5.17107
 20
7.27143
 30
0.0
 10
5.17107
 20
7.27143
 30
0.0
 10
5.1725
 20
7.27349
 30
0.0
 10
5.1725
 20
7.27349
 30
0.0
 10
5.1725
 20
7.27349
 30
0.0
 10
5.1725
 20
7.27349
 30
0.0
 10
5.17405
 20
7.275
 30
0.0
 10
5.17405
 20
7.275
 30
0.0
 10
5.17405
 20
7.275
 30
0.0
 10
5.17405
 20
7.275
 30
0.0
 10
5.17568
 20
7.27593
 30
0.0
 10
5.17568
 20
7.27593
 30
0.0
 10
5.17568
 20
7.27593
 30
0.0
 10
5.17568
 20
7.27593
 30
0.0
 10
5.17735
 20
7.27624
 30
0.0
 10
5.17735
 20
7.27624
 30
0.0
  0
SPLINE
  5
CA
330
1F
100
AcDbEntity
  8
0
370
    15
100
AcDbSpline
210
0.0
220
0.0
230
1.0
 70
    24
 71
     3
 72
     8
 73
     4
 74
     0
 42
0.0000000001
 43
0.0000000001
 40
0.0
 40
0.0
 40
0.0
 40
0.0
 40
1.0
 40
1.0
 40
1.0
 40
1.0
 10
5.17735
 20
7.27624
 30
0.0
 10
5.17735
 20
7.27624
 30
0.0
 10
7.78968
 20
7.27624
 30
0.0
 10
7.78968
 20
7.27624
 30
0.0
  0
SPLINE
  5
CB
330
1F
100
AcDbEntity
  8
0
370
    15
100
AcDbSpline
210
0.0
220
0.0
230
1.0
 70
    24
 71
     3
 72
     8
 73
     4
 74
     0
 42
0.0000000001
 43
0.0000000001
 40
0.0
 40
0.0
 40
0.0
 40
0.0
 40
1.0
 40
1.0
 40
1.0
 40
1.0
 10
5.06322
 20
6.89363
 30
0.0
 10
5.06322
 20
6.89363
 30
0.0
 10
5.16721
 20
6.89363
 30
0.0
 10
5.16721
 20
6.89363
 30
0.0
  0
SPLINE
  5
CC
330
1F
100
AcDbEntity
  8
0
370
    15
100
AcDbSpline
210
0.0
220
0.0
230
1.0
 70
    24
 71
     3
 72
     8
 73
     4
 74
     0
 42
0.0000000001
 43
0.0000000001
 40
0.0
 40
0.0
 40
0.0
 40
0.0
 40
1.0
 40
1.0
 40
1.0
 40
1.0
 10
5.06322
 20
7.25884
 30
0.0
 10
5.06322
 20
7.25884
 30
0.0
 10
5.06322
 20
6.89363
 30
0.0
 10
5.06322
 20
6.89363
 30
0.0
  0
SPLINE
  5
CD
330
1F
100
AcDbEntity
  8
0
370
    15
100
AcDbSpline
210
0.0
220
0.0
230
1.0
 70
    24
 71
     3
 72
     8
 73
     4
 74
     0
 42
0.0000000001
 43
0.0000000001
 40
0.0
 40
0.0
 40
0.0
 40
0.0
 40
1.0
 40
1.0
 40
1.0
 40
1.0
 10
5.16721
 20
7.25884
 30
0.0
 10
5.16721
 20
7.25884
 30
0.0
 10
5.06322
 20
7.25884
 30
0.0
 10
5.06322
 20
7.25884
 30
0.0
  0
SPLINE
  5
CE
330
1F
100
AcDbEntity
  8
0
370
    15
100
AcDbSpline
210
0.0
220
0.0
230
1.0
 70
     8
 71
     3
 72
     8
 73
     4
 74
     0
 42
0.0000000001
 43
0.0000000001
 40
0.0
 40
0.0
 40
0.0
 40
0.0
 40
1.0
 40
1.0
 40
1.0
 40
1.0
 10
3.90765
 20
6.89363
 30
0.0
 10
3.82106
 20
6.89363
 30
0.0
 10
3.74877
 20
6.8276
 30
0.0
 10
3.74094
 20
6.74137
 30
0.0
  0
SPLINE
  5
CF
330
1F
100
AcDbEntity
  8
0
370
    15
100
AcDbSpline
210
0.0
220
0.0
230
1.0
 70
    24
 71
     3
 72
     8
 73
     4
 74
     0
 42
0.0000000001
 43
0.0000000001
 40
0.0
 40
0.0
 40
0.0
 40
0.0
 40
1.0
 40
1.0
 40
1.0
 40
1.0
 10
3.74101
 20
6.72624
 30
0.0
 10
3.74101
 20
6.72624
 30
0.0
 10
3.74094
 20
6.74137
 30
0.0
 10
3.74094
 20
6.74137
 30
0.0
  0
SPLINE
  5
D0
330
1F
100
AcDbEntity
  8
0
370
    15
100
AcDbSpline
210
0.0
220
0.0
230
1.0
 70
    24
 71
     3
 72
     8
 73
     4
 74
     0
 42
0.0000000001
 43
0.0000000001
 40
0.0
 40
0.0
 40
0.0
 40
0.0
 40
1.0
 40
1.0
 40
1.0
 40
1.0
 10
3.37504
 20
6.72624
 30
0.0
 10
3.37504
 20
6.72624
 30
0.0
 10
3.74101
 20
6.72624
 30
0.0
 10
3.74101
 20
6.72624
 30
0.0
  0
SPLINE
  5
D1
330
1F
100
AcDbEntity
  8
0
370
    15
100
AcDbSpline
210
0.0
220
0.0
230
1.0
 70
     8
 71
     3
 72
    12
 73
     8
 74
     0
 42
0.0000000001
 43
0.0000000001
 40
0.0
 40
0.0
 40
0.0
 40
0.0
 40
0.3333333333333333
 40
0.3333333333333333
 40
0.3333333333333333
 40
0.3333333333333333
 40
1.0
 40
1.0
 40
1.0
 40
1.0
 10
3.90765
 20
7.25884
 30
0.0
 10
3.76639
 20
7.25884
 30
0.0
 10
3.63092
 20
7.20273
 30
0.0
 10
3.53103
 20
7.10285
 30
0.0
 10
3.53103
 20
7.10285
 30
0.0
 10
3.43115
 20
7.00296
 30
0.0
 10
3.37504
 20
6.86749
 30
0.0
 10
3.37504
 20
6.72624
 30
0.0
  0
SPLINE
  5
D2
330
1F
100
AcDbEntity
  8
0
370
    15
100
AcDbSpline
210
0.0
220
0.0
230
1.0
 70
    24
 71
     3
 72
     8
 73
     4
 74
     0
 42
0.0000000001
 43
0.0000000001
 40
0.0
 40
0.0
 40
0.0
 40
0.0
 40
1.0
 40
1.0
 40
1.0
 40
1.0
 10
3.90765
 20
7.25884
 30
0.0
 10
3.90765
 20
7.25884
 30
0.0
 10
3.90765
 20
6.89363
 30
0.0
 10
3.90765
 20
6.89363
 30
0.0
  0
SPLINE
  5
D3
330
1F
100
AcDbEntity
  8
0
370
    15
100
AcDbSpline
210
0.0
220
0.0
230
1.0
 70
    24
 71
     3
 72
     8
 73
     4
 74
     0
 42
0.0000000001
 43
0.0000000001
 40
0.0
 40
0.0
 40
0.0
 40
0.0
 40
1.0
 40
1.0
 40
1.0
 40
1.0
 10
3.74101
 20
5.22624
 30
0.0
 10
3.74101
 20
5.22624
 30
0.0
 10
3.74101
 20
6.72624
 30
0.0
 10
3.74101
 20
6.72624
 30
0.0
  0
SPLINE
  5
D4
330
1F
100
AcDbEntity
  8
0
370
    15
100
AcDbSpline
210
0.0
220
0.0
230
1.0
 70
    24
 71
     3
 72
     8
 73
     4
 74
     0
 42
0.0000000001
 43
0.0000000001
 40
0.0
 40
0.0
 40
0.0
 40
0.0
 40
1.0
 40
1.0
 40
1.0
 40
1.0
 10
3.37504
 20
6.72624
 30
0.0
 10
3.37504
 20
6.72624
 30
0.0
 10
3.37504
 20
5.22624
 30
0.0
 10
3.37504
 20
5.22624
 30
0.0
  0
SPLINE
  5
D5
330
1F
100
AcDbEntity
  8
0
370
    15
100
AcDbSpline
210
0.0
220
0.0
230
1.0
 70
    24
 71
     3
 72
     8
 73
     4
 74
     0
 42
0.0000000001
 43
0.0000000001
 40
0.0
 40
0.0
 40
0.0
 40
0.0
 40
1.0
 40
1.0
 40
1.0
 40
1.0
 10
3.37504
 20
5.22624
 30
0.0
 10
3.37504
 20
5.22624
 30
0.0
 10
3.74101
 20
5.22624
 30
0.0
 10
3.74101
 20
5.22624
 30
0.0
  0
SPLINE
  5
D6
330
1F
100
AcDbEntity
  8
0
370
    15
100
AcDbSpline
210
0.0
220
0.0
230
1.0
 70
    24
 71
     3
 72
     8
 73
     4
 74
     0
 42
0.0000000001
 43
0.0000000001
 40
0.0
 40
0.0
 40
0.0
 40
0.0
 40
1.0
 40
1.0
 40
1.0
 40
1.0
 10
3.90765
 20
6.89363
 30
0.0
 10
3.90765
 20
6.89363
 30
0.0
 10
5.06322
 20
6.89363
 30
0.0
 10
5.06322
 20
6.89363
 30
0.0
  0
SPLINE
  5
D7
330
1F
100
AcDbEntity
  8
0
370
    15
100
AcDbSpline
210
0.0
220
0.0
230
1.0
 70
    24
 71
     3
 72
     8
 73
     4
 74
     0
 42
0.0000000001
 43
0.0000000001
 40
0.0
 40
0.0
 40
0.0
 40
0.0
 40
1.0
 40
1.0
 40
1.0
 40
1.0
 10
5.06322
 20
7.25884
 30
0.0
 10
5.06322
 20
7.25884
 30
0.0
 10
3.90765
 20
7.25884
 30
0.0
 10
3.90765
 20
7.25884
 30
0.0
  0
SPLINE
  5
D8
330
1F
100
AcDbEntity
  8
0
370
    15
100
AcDbSpline
210
0.0
220
0.0
230
1.0
 70
    24
 71
     3
 72
     8
 73
     4
 74
     0
 42
0.0000000001
 43
0.0000000001
 40
0.0
 40
0.0
 40
0.0
 40
0.0
 40
1.0
 40
1.0
 40
1.0
 40
1.0
 10
5.06322
 20
6.87624
 30
0.0
 10
5.06322
 20
6.87624
 30
0.0
 10
5.06322
 20
6.89363
 30
0.0
 10
5.06322
 20
6.89363
 30
0.0
  0
SPLINE
  5
D9
330
1F
100
AcDbEntity
  8
0
370
    15
100
AcDbSpline
210
0.0
220
0.0
230
1.0
 70
    24
 71
     3
 72
     8
 73
     4
 74
     0
 42
0.0000000001
 43
0.0000000001
 40
0.0
 40
0.0
 40
0.0
 40
0.0
 40
1.0
 40
1.0
 40
1.0
 40
1.0
 10
5.17735
 20
6.87624
 30
0.0
 10
5.17735
 20
6.87624
 30
0.0
 10
5.06322
 20
6.87624
 30
0.0
 10
5.06322
 20
6.87624
 30
0.0
  0
SPLINE
  5
DA
330
1F
100
AcDbEntity
  8
0
370
    15
100
AcDbSpline
210
0.0
220
0.0
230
1.0
 70
    24
 71
     3
 72
     8
 73
     4
 74
     0
 42
0.0000000001
 43
0.0000000001
 40
0.0
 40
0.0
 40
0.0
 40
0.0
 40
1.0
 40
1.0
 40
1.0
 40
1.0
 10
5.06322
 20
7.25884
 30
0.0
 10
5.06322
 20
7.25884
 30
0.0
 10
5.06322
 20
7.27624
 30
0.0
 10
5.06322
 20
7.27624
 30
0.0
  0
SPLINE
  5
DB
330
1F
100
AcDbEntity
  8
0
370
    15
100
AcDbSpline
210
0.0
220
0.0
230
1.0
 70
    24
 71
     3
 72
     8
 73
     4
 74
     0
 42
0.0000000001
 43
0.0000000001
 40
0.0
 40
0.0
 40
0.0
 40
0.0
 40
1.0
 40
1.0
 40
1.0
 40
1.0
 10
5.06322
 20
7.27624
 30
0.0
 10
5.06322
 20
7.27624
 30
0.0
 10
5.17735
 20
7.27624
 30
0.0
 10
5.17735
 20
7.27624
 30
0.0
  0
SPLINE
  5
DC
330
1F
100
AcDbEntity
  8
0
370
    15
100
AcDbSpline
210
0.0
220
0.0
230
1.0
 70
     8
 71
     3
 72
     8
 73
     4
 74
     0
 42
0.0000000001
 43
0.0000000001
 40
0.0
 40
0.0
 40
0.0
 40
0.0
 40
1.0
 40
1.0
 40
1.0
 40
1.0
 10
3.90765
 20
6.87624
 30
0.0
 10
3.83056
 20
6.87624
 30
0.0
 10
3.76602
 20
6.8178
 30
0.0
 10
3.75838
 20
6.74109
 30
0.0
  0
SPLINE
  5
DD
330
1F
100
AcDbEntity
  8
0
370
    15
100
AcDbSpline
210
0.0
220
0.0
230
1.0
 70
    24
 71
     3
 72
     8
 73
     4
 74
     0
 42
0.0000000001
 43
0.0000000001
 40
0.0
 40
0.0
 40
0.0
 40
0.0
 40
1.0
 40
1.0
 40
1.0
 40
1.0
 10
3.75838
 20
6.74109
 30
0.0
 10
3.75838
 20
6.74109
 30
0.0
 10
3.75834
 20
6.74088
 30
0.0
 10
3.75834
 20
6.74088
 30
0.0
  0
SPLINE
  5
DE
330
1F
100
AcDbEntity
  8
0
370
    15
100
AcDbSpline
210
0.0
220
0.0
230
1.0
 70
     8
 71
     3
 72
    24
 73
    20
 74
     0
 42
0.0000000001
 43
0.0000000001
 40
0.0
 40
0.0
 40
0.0
 40
0.0
 40
0.1666666666666667
 40
0.1666666666666667
 40
0.1666666666666667
 40
0.1666666666666667
 40
0.3333333333333333
 40
0.3333333333333333
 40
0.3333333333333333
 40
0.3333333333333333
 40
0.5
 40
0.5
 40
0.5
 40
0.5
 40
0.6666666666666666
 40
0.6666666666666666
 40
0.6666666666666666
 40
0.6666666666666666
 40
1.0
 40
1.0
 40
1.0
 40
1.0
 10
3.75834
 20
6.74088
 30
0.0
 10
3.75795
 20
6.74086
 30
0.0
 10
3.75756
 20
6.74084
 30
0.0
 10
3.7566
 20
6.74085
 30
0.0
 10
3.7566
 20
6.74085
 30
0.0
 10
3.75563
 20
6.74086
 30
0.0
 10
3.7541
 20
6.7409
 30
0.0
 10
3.75224
 20
6.74096
 30
0.0
 10
3.75224
 20
6.74096
 30
0.0
 10
3.75037
 20
6.74102
 30
0.0
 10
3.74818
 20
6.74109
 30
0.0
 10
3.74575
 20
6.74118
 30
0.0
 10
3.74575
 20
6.74118
 30
0.0
 10
3.74443
 20
6.74123
 30
0.0
 10
3.74304
 20
6.74129
 30
0.0
 10
3.74161
 20
6.74134
 30
0.0
 10
3.74161
 20
6.74134
 30
0.0
 10
3.74139
 20
6.74135
 30
0.0
 10
3.74116
 20
6.74136
 30
0.0
 10
3.74094
 20
6.74137
 30
0.0
  0
SPLINE
  5
DF
330
1F
100
AcDbEntity
  8
0
370
    15
100
AcDbSpline
210
0.0
220
0.0
230
1.0
 70
    24
 71
     3
 72
     8
 73
     4
 74
     0
 42
0.0000000001
 43
0.0000000001
 40
0.0
 40
0.0
 40
0.0
 40
0.0
 40
1.0
 40
1.0
 40
1.0
 40
1.0
 10
3.90765
 20
6.87624
 30
0.0
 10
3.90765
 20
6.87624
 30
0.0
 10
3.90765
 20
6.89363
 30
0.0
 10
3.90765
 20
6.89363
 30
0.0
  0
SPLINE
  5
E0
330
1F
100
AcDbEntity
  8
0
370
    15
100
AcDbSpline
210
0.0
220
0.0
230
1.0
 70
     8
 71
     3
 72
    12
 73
     8
 74
     0
 42
0.0000000001
 43
0.0000000001
 40
0.0
 40
0.0
 40
0.0
 40
0.0
 40
0.3333333333333333
 40
0.3333333333333333
 40
0.3333333333333333
 40
0.3333333333333333
 40
1.0
 40
1.0
 40
1.0
 40
1.0
 10
3.75834
 20
6.74088
 30
0.0
 10
3.75834
 20
6.74082
 30
0.0
 10
3.75834
 20
6.74075
 30
0.0
 10
3.75834
 20
6.74068
 30
0.0
 10
3.75834
 20
6.74068
 30
0.0
 10
3.75835
 20
6.73587
 30
0.0
 10
3.75835
 20
6.73105
 30
0.0
 10
3.75835
 20
6.72624
 30
0.0
  0
SPLINE
  5
E1
330
1F
100
AcDbEntity
  8
0
370
    15
100
AcDbSpline
210
0.0
220
0.0
230
1.0
 70
    24
 71
     3
 72
    20
 73
    16
 74
     0
 42
0.0000000001
 43
0.0000000001
 40
0.0
 40
0.0
 40
0.0
 40
0.0
 40
0.2
 40
0.2
 40
0.2
 40
0.2
 40
0.4
 40
0.4
 40
0.4
 40
0.4
 40
0.6
 40
0.6
 40
0.6
 40
0.6
 40
1.0
 40
1.0
 40
1.0
 40
1.0
 10
3.74101
 20
6.72624
 30
0.0
 10
3.74336
 20
6.72624
 30
0.0
 10
3.74572
 20
6.72624
 30
0.0
 10
3.7478
 20
6.72624
 30
0.0
 10
3.7478
 20
6.72624
 30
0.0
 10
3.74989
 20
6.72624
 30
0.0
 10
3.75172
 20
6.72624
 30
0.0
 10
3.75327
 20
6.72624
 30
0.0
 10
3.75327
 20
6.72624
 30
0.0
 10
3.75482
 20
6.72624
 30
0.0
 10
3.75609
 20
6.72624
 30
0.0
 10
3.75689
 20
6.72624
 30
0.0
 10
3.75689
 20
6.72624
 30
0.0
 10
3.75769
 20
6.72624
 30
0.0
 10
3.75802
 20
6.72624
 30
0.0
 10
3.75835
 20
6.72624
 30
0.0
  0
SPLINE
  5
E2
330
1F
100
AcDbEntity
  8
0
370
    15
100
AcDbSpline
210
0.0
220
0.0
230
1.0
 70
    24
 71
     3
 72
     8
 73
     4
 74
     0
 42
0.0000000001
 43
0.0000000001
 40
0.0
 40
0.0
 40
0.0
 40
0.0
 40
1.0
 40
1.0
 40
1.0
 40
1.0
 10
3.35765
 20
5.22624
 30
0.0
 10
3.35765
 20
5.22624
 30
0.0
 10
3.35765
 20
6.72624
 30
0.0
 10
3.35765
 20
6.72624
 30
0.0
  0
SPLINE
  5
E3
330
1F
100
AcDbEntity
  8
0
370
    15
100
AcDbSpline
210
0.0
220
0.0
230
1.0
 70
    24
 71
     3
 72
     8
 73
     4
 74
     0
 42
0.0000000001
 43
0.0000000001
 40
0.0
 40
0.0
 40
0.0
 40
0.0
 40
1.0
 40
1.0
 40
1.0
 40
1.0
 10
3.37504
 20
6.72624
 30
0.0
 10
3.37504
 20
6.72624
 30
0.0
 10
3.35765
 20
6.72624
 30
0.0
 10
3.35765
 20
6.72624
 30
0.0
  0
SPLINE
  5
E4
330
1F
100
AcDbEntity
  8
0
370
    15
100
AcDbSpline
210
0.0
220
0.0
230
1.0
 70
    24
 71
     3
 72
     8
 73
     4
 74
     0
 42
0.0000000001
 43
0.0000000001
 40
0.0
 40
0.0
 40
0.0
 40
0.0
 40
1.0
 40
1.0
 40
1.0
 40
1.0
 10
3.37504
 20
5.22624
 30
0.0
 10
3.37504
 20
5.22624
 30
0.0
 10
3.35765
 20
5.22624
 30
0.0
 10
3.35765
 20
5.22624
 30
0.0
  0
SPLINE
  5
E5
330
1F
100
AcDbEntity
  8
0
370
    15
100
AcDbSpline
210
0.0
220
0.0
230
1.0
 70
     8
 71
     3
 72
    12
 73
     8
 74
     0
 42
0.0000000001
 43
0.0000000001
 40
0.0
 40
0.0
 40
0.0
 40
0.0
 40
0.3333333333333333
 40
0.3333333333333333
 40
0.3333333333333333
 40
0.3333333333333333
 40
1.0
 40
1.0
 40
1.0
 40
1.0
 10
3.90765
 20
7.27624
 30
0.0
 10
3.76178
 20
7.27624
 30
0.0
 10
3.62188
 20
7.21829
 30
0.0
 10
3.51874
 20
7.11514
 30
0.0
 10
3.51874
 20
7.11514
 30
0.0
 10
3.41559
 20
7.012
 30
0.0
 10
3.35765
 20
6.8721
 30
0.0
 10
3.35765
 20
6.72624
 30
0.0
  0
SPLINE
  5
E6
330
1F
100
AcDbEntity
  8
0
370
    15
100
AcDbSpline
210
0.0
220
0.0
230
1.0
 70
    24
 71
     3
 72
     8
 73
     4
 74
     0
 42
0.0000000001
 43
0.0000000001
 40
0.0
 40
0.0
 40
0.0
 40
0.0
 40
1.0
 40
1.0
 40
1.0
 40
1.0
 10
3.90765
 20
7.25884
 30
0.0
 10
3.90765
 20
7.25884
 30
0.0
 10
3.90765
 20
7.27624
 30
0.0
 10
3.90765
 20
7.27624
 30
0.0
  0
SPLINE
  5
E7
330
1F
100
AcDbEntity
  8
0
370
    15
100
AcDbSpline
210
0.0
220
0.0
230
1.0
 70
    24
 71
     3
 72
     8
 73
     4
 74
     0
 42
0.0000000001
 43
0.0000000001
 40
0.0
 40
0.0
 40
0.0
 40
0.0
 40
1.0
 40
1.0
 40
1.0
 40
1.0
 10
5.06322
 20
6.87624
 30
0.0
 10
5.06322
 20
6.87624
 30
0.0
 10
3.90765
 20
6.87624
 30
0.0
 10
3.90765
 20
6.87624
 30
0.0
  0
SPLINE
  5
E8
330
1F
100
AcDbEntity
  8
0
370
    15
100
AcDbSpline
210
0.0
220
0.0
230
1.0
 70
    24
 71
     3
 72
     8
 73
     4
 74
     0
 42
0.0000000001
 43
0.0000000001
 40
0.0
 40
0.0
 40
0.0
 40
0.0
 40
1.0
 40
1.0
 40
1.0
 40
1.0
 10
3.90765
 20
7.27624
 30
0.0
 10
3.90765
 20
7.27624
 30
0.0
 10
5.06322
 20
7.27624
 30
0.0
 10
5.06322
 20
7.27624
 30
0.0
  0
SPLINE
  5
E9
330
1F
100
AcDbEntity
  8
0
370
    15
100
AcDbSpline
210
0.0
220
0.0
230
1.0
 70
    24
 71
     3
 72
     8
 73
     4
 74
     0
 42
0.0000000001
 43
0.0000000001
 40
0.0
 40
0.0
 40
0.0
 40
0.0
 40
1.0
 40
1.0
 40
1.0
 40
1.0
 10
3.75835
 20
6.72624
 30
0.0
 10
3.75835
 20
6.72624
 30
0.0
 10
3.75835
 20
5.22624
 30
0.0
 10
3.75835
 20
5.22624
 30
0.0
  0
SPLINE
  5
EA
330
1F
100
AcDbEntity
  8
0
370
    15
100
AcDbSpline
210
0.0
220
0.0
230
1.0
 70
    24
 71
     3
 72
     8
 73
     4
 74
     0
 42
0.0000000001
 43
0.0000000001
 40
0.0
 40
0.0
 40
0.0
 40
0.0
 40
1.0
 40
1.0
 40
1.0
 40
1.0
 10
3.75835
 20
5.22624
 30
0.0
 10
3.75835
 20
5.22624
 30
0.0
 10
3.74101
 20
5.22624
 30
0.0
 10
3.74101
 20
5.22624
 30
0.0
  0
SPLINE
  5
EB
330
1F
100
AcDbEntity
  8
0
370
    15
100
AcDbSpline
210
0.0
220
0.0
230
1.0
 70
    24
 71
     3
 72
     8
 73
     4
 74
     0
 42
0.0000000001
 43
0.0000000001
 40
0.0
 40
0.0
 40
0.0
 40
0.0
 40
1.0
 40
1.0
 40
1.0
 40
1.0
 10
3.79169
 20
5.22624
 30
0.0
 10
3.79169
 20
5.22624
 30
0.0
 10
3.75835
 20
5.22624
 30
0.0
 10
3.75835
 20
5.22624
 30
0.0
  0
SPLINE
  5
EC
330
1F
100
AcDbEntity
  8
0
370
    15
100
AcDbSpline
210
0.0
220
0.0
230
1.0
 70
    24
 71
     3
 72
     8
 73
     4
 74
     0
 42
0.0000000001
 43
0.0000000001
 40
0.0
 40
0.0
 40
0.0
 40
0.0
 40
1.0
 40
1.0
 40
1.0
 40
1.0
 10
3.39358
 20
6.92179
 30
0.0
 10
3.39358
 20
6.92179
 30
0.0
 10
3.3819
 20
6.92624
 30
0.0
 10
3.3819
 20
6.92624
 30
0.0
  0
SPLINE
  5
ED
330
1F
100
AcDbEntity
  8
0
370
    15
100
AcDbSpline
210
0.0
220
0.0
230
1.0
 70
     8
 71
     3
 72
    28
 73
    24
 74
     0
 42
0.0000000001
 43
0.0000000001
 40
0.0
 40
0.0
 40
0.0
 40
0.0
 40
0.1428571428571428
 40
0.1428571428571428
 40
0.1428571428571428
 40
0.1428571428571428
 40
0.2857142857142857
 40
0.2857142857142857
 40
0.2857142857142857
 40
0.2857142857142857
 40
0.4285714285714285
 40
0.4285714285714285
 40
0.4285714285714285
 40
0.4285714285714285
 40
0.5714285714285714
 40
0.5714285714285714
 40
0.5714285714285714
 40
0.5714285714285714
 40
0.7142857142857143
 40
0.7142857142857143
 40
0.7142857142857143
 40
0.7142857142857143
 40
1.0
 40
1.0
 40
1.0
 40
1.0
 10
3.3819
 20
6.92624
 30
0.0
 10
3.38604
 20
6.93575
 30
0.0
 10
3.39017
 20
6.94527
 30
0.0
 10
3.3946
 20
6.95448
 30
0.0
 10
3.3946
 20
6.95448
 30
0.0
 10
3.39903
 20
6.9637
 30
0.0
 10
3.40374
 20
6.97261
 30
0.0
 10
3.40859
 20
6.98117
 30
0.0
 10
3.40859
 20
6.98117
 30
0.0
 10
3.41776
 20
6.9974
 30
0.0
 10
3.4274
 20
7.01238
 30
0.0
 10
3.4366
 20
7.02542
 30
0.0
 10
3.4366
 20
7.02542
 30
0.0
 10
3.44415
 20
7.03612
 30
0.0
 10
3.45141
 20
7.04552
 30
0.0
 10
3.45791
 20
7.05348
 30
0.0
 10
3.45791
 20
7.05348
 30
0.0
 10
3.46371
 20
7.06059
 30
0.0
 10
3.4689
 20
7.06656
 30
0.0
 10
3.47207
 20
7.07016
 30
0.0
 10
3.47207
 20
7.07016
 30
0.0
 10
3.47523
 20
7.07376
 30
0.0
 10
3.47638
 20
7.075
 30
0.0
 10
3.47753
 20
7.07624
 30
0.0
  0
SPLINE
  5
EE
330
1F
100
AcDbEntity
  8
0
370
    15
100
AcDbSpline
210
0.0
220
0.0
230
1.0
 70
     8
 71
     3
 72
     8
 73
     4
 74
     0
 42
0.0000000001
 43
0.0000000001
 40
0.0
 40
0.0
 40
0.0
 40
0.0
 40
1.0
 40
1.0
 40
1.0
 40
1.0
 10
3.47753
 20
7.07624
 30
0.0
 10
3.48121
 20
7.07624
 30
0.0
 10
3.48471
 20
7.07786
 30
0.0
 10
3.48709
 20
7.08068
 30
0.0
  0
SPLINE
  5
EF
330
1F
100
AcDbEntity
  8
0
370
    15
100
AcDbSpline
210
0.0
220
0.0
230
1.0
 70
    24
 71
     3
 72
     8
 73
     4
 74
     0
 42
0.0000000001
 43
0.0000000001
 40
0.0
 40
0.0
 40
0.0
 40
0.0
 40
1.0
 40
1.0
 40
1.0
 40
1.0
 10
3.35765
 20
6.72624
 30
0.0
 10
3.35765
 20
6.72624
 30
0.0
 10
3.34515
 20
6.72624
 30
0.0
 10
3.34515
 20
6.72624
 30
0.0
  0
SPLINE
  5
F0
330
1F
100
AcDbEntity
  8
0
370
    15
100
AcDbSpline
210
0.0
220
0.0
230
1.0
 70
     8
 71
     3
 72
     8
 73
     4
 74
     0
 42
0.0000000001
 43
0.0000000001
 40
0.0
 40
0.0
 40
0.0
 40
0.0
 40
1.0
 40
1.0
 40
1.0
 40
1.0
 10
3.3819
 20
6.92624
 30
0.0
 10
3.3576
 20
6.86236
 30
0.0
 10
3.34515
 20
6.79458
 30
0.0
 10
3.34515
 20
6.72624
 30
0.0
  0
SPLINE
  5
F1
330
1F
100
AcDbEntity
  8
0
370
    15
100
AcDbSpline
210
0.0
220
0.0
230
1.0
 70
    24
 71
     3
 72
     8
 73
     4
 74
     0
 42
0.0000000001
 43
0.0000000001
 40
0.0
 40
0.0
 40
0.0
 40
0.0
 40
1.0
 40
1.0
 40
1.0
 40
1.0
 10
3.34515
 20
5.22624
 30
0.0
 10
3.34515
 20
5.22624
 30
0.0
 10
3.34515
 20
6.72624
 30
0.0
 10
3.34515
 20
6.72624
 30
0.0
  0
SPLINE
  5
F2
330
1F
100
AcDbEntity
  8
0
370
    15
100
AcDbSpline
210
0.0
220
0.0
230
1.0
 70
    24
 71
     3
 72
     8
 73
     4
 74
     0
 42
0.0000000001
 43
0.0000000001
 40
0.0
 40
0.0
 40
0.0
 40
0.0
 40
1.0
 40
1.0
 40
1.0
 40
1.0
 10
3.35765
 20
5.22624
 30
0.0
 10
3.35765
 20
5.22624
 30
0.0
 10
3.34515
 20
5.22624
 30
0.0
 10
3.34515
 20
5.22624
 30
0.0
  0
SPLINE
  5
F3
330
1F
100
AcDbEntity
  8
0
370
    15
100
AcDbSpline
210
0.0
220
0.0
230
1.0
 70
    24
 71
     3
 72
     8
 73
     4
 74
     0
 42
0.0000000001
 43
0.0000000001
 40
0.0
 40
0.0
 40
0.0
 40
0.0
 40
1.0
 40
1.0
 40
1.0
 40
1.0
 10
3.25765
 20
5.22624
 30
0.0
 10
3.25765
 20
5.22624
 30
0.0
 10
3.25765
 20
6.92624
 30
0.0
 10
3.25765
 20
6.92624
 30
0.0
  0
SPLINE
  5
F4
330
1F
100
AcDbEntity
  8
0
370
    15
100
AcDbSpline
210
0.0
220
0.0
230
1.0
 70
    24
 71
     3
 72
     8
 73
     4
 74
     0
 42
0.0000000001
 43
0.0000000001
 40
0.0
 40
0.0
 40
0.0
 40
0.0
 40
1.0
 40
1.0
 40
1.0
 40
1.0
 10
3.3819
 20
6.92624
 30
0.0
 10
3.3819
 20
6.92624
 30
0.0
 10
3.25765
 20
6.92624
 30
0.0
 10
3.25765
 20
6.92624
 30
0.0
  0
SPLINE
  5
F5
330
1F
100
AcDbEntity
  8
0
370
    15
100
AcDbSpline
210
0.0
220
0.0
230
1.0
 70
    24
 71
     3
 72
     8
 73
     4
 74
     0
 42
0.0000000001
 43
0.0000000001
 40
0.0
 40
0.0
 40
0.0
 40
0.0
 40
1.0
 40
1.0
 40
1.0
 40
1.0
 10
3.25765
 20
5.22624
 30
0.0
 10
3.25765
 20
5.22624
 30
0.0
 10
3.34515
 20
5.22624
 30
0.0
 10
3.34515
 20
5.22624
 30
0.0
  0
SPLINE
  5
F6
330
1F
100
AcDbEntity
  8
0
370
    15
100
AcDbSpline
210
0.0
220
0.0
230
1.0
 70
    24
 71
     3
 72
     8
 73
     4
 74
     0
 42
0.0000000001
 43
0.0000000001
 40
0.0
 40
0.0
 40
0.0
 40
0.0
 40
1.0
 40
1.0
 40
1.0
 40
1.0
 10
3.25765
 20
7.07624
 30
0.0
 10
3.25765
 20
7.07624
 30
0.0
 10
3.47753
 20
7.07624
 30
0.0
 10
3.47753
 20
7.07624
 30
0.0
  0
SPLINE
  5
F7
330
1F
100
AcDbEntity
  8
0
370
    15
100
AcDbSpline
210
0.0
220
0.0
230
1.0
 70
    24
 71
     3
 72
     8
 73
     4
 74
     0
 42
0.0000000001
 43
0.0000000001
 40
0.0
 40
0.0
 40
0.0
 40
0.0
 40
1.0
 40
1.0
 40
1.0
 40
1.0
 10
3.25765
 20
6.92624
 30
0.0
 10
3.25765
 20
6.92624
 30
0.0
 10
3.25765
 20
7.07624
 30
0.0
 10
3.25765
 20
7.07624
 30
0.0
  0
SPLINE
  5
F8
330
1F
100
AcDbEntity
  8
0
370
    15
100
AcDbSpline
210
0.0
220
0.0
230
1.0
 70
    24
 71
     3
 72
     8
 73
     4
 74
     0
 42
0.0000000001
 43
0.0000000001
 40
0.0
 40
0.0
 40
0.0
 40
0.0
 40
1.0
 40
1.0
 40
1.0
 40
1.0
 10
3.24265
 20
6.77736
 30
0.0
 10
3.24265
 20
6.77736
 30
0.0
 10
3.24265
 20
5.22624
 30
0.0
 10
3.24265
 20
5.22624
 30
0.0
  0
SPLINE
  5
F9
330
1F
100
AcDbEntity
  8
0
370
    15
100
AcDbSpline
210
0.0
220
0.0
230
1.0
 70
    24
 71
     3
 72
     8
 73
     4
 74
     0
 42
0.0000000001
 43
0.0000000001
 40
0.0
 40
0.0
 40
0.0
 40
0.0
 40
1.0
 40
1.0
 40
1.0
 40
1.0
 10
3.24265
 20
6.77736
 30
0.0
 10
3.24265
 20
6.77736
 30
0.0
 10
3.25765
 20
6.77723
 30
0.0
 10
3.25765
 20
6.77723
 30
0.0
  0
SPLINE
  5
FA
330
1F
100
AcDbEntity
  8
0
370
    15
100
AcDbSpline
210
0.0
220
0.0
230
1.0
 70
    27
 71
     3
 72
     8
 73
     4
 74
     0
 42
0.0000000001
 43
0.0000000001
 40
0.0
 40
0.0
 40
0.0
 40
0.0
 40
1.0
 40
1.0
 40
1.0
 40
1.0
 10
3.36117
 20
6.77633
 30
0.0
 10
3.36117
 20
6.77633
 30
0.0
 10
3.36117
 20
6.77633
 30
0.0
 10
3.36117
 20
6.77633
 30
0.0
  0
SPLINE
  5
FB
330
1F
100
AcDbEntity
  8
0
370
    15
100
AcDbSpline
210
0.0
220
0.0
230
1.0
 70
    24
 71
     3
 72
     8
 73
     4
 74
     0
 42
0.0000000001
 43
0.0000000001
 40
0.0
 40
0.0
 40
0.0
 40
0.0
 40
1.0
 40
1.0
 40
1.0
 40
1.0
 10
3.24265
 20
5.22624
 30
0.0
 10
3.24265
 20
5.22624
 30
0.0
 10
3.25765
 20
5.22624
 30
0.0
 10
3.25765
 20
5.22624
 30
0.0
  0
SPLINE
  5
FC
330
1F
100
AcDbEntity
  8
0
 62
     8
370
    15
100
AcDbSpline
210
0.0
220
0.0
230
1.0
 70
    24
 71
     3
 72
     8
 73
     4
 74
     0
 42
0.0000000001
 43
0.0000000001
 40
0.0
 40
0.0
 40
0.0
 40
0.0
 40
1.0
 40
1.0
 40
1.0
 40
1.0
 10
4.0927
 20
8.37509
 30
0.0
 10
4.0927
 20
8.37509
 30
0.0
 10
7.82259
 20
8.37509
 30
0.0
 10
7.82259
 20
8.37509
 30
0.0
  0
SPLINE
  5
FD
330
1F
100
AcDbEntity
  8
0
 62
     8
370
    15
100
AcDbSpline
210
0.0
220
0.0
230
1.0
 70
    24
 71
     3
 72
     8
 73
     4
 74
     0
 42
0.0000000001
 43
0.0000000001
 40
0.0
 40
0.0
 40
0.0
 40
0.0
 40
1.0
 40
1.0
 40
1.0
 40
1.0
 10
4.09688
 20
8.32778
 30
0.0
 10
4.09688
 20
8.32778
 30
0.0
 10
7.81841
 20
8.32778
 30
0.0
 10
7.81841
 20
8.32778
 30
0.0
  0
SPLINE
  5
FE
330
1F
100
AcDbEntity
  8
0
 62
     8
370
    15
100
AcDbSpline
210
0.0
220
0.0
230
1.0
 70
    24
 71
     3
 72
     8
 73
     4
 74
     0
 42
0.0000000001
 43
0.0000000001
 40
0.0
 40
0.0
 40
0.0
 40
0.0
 40
1.0
 40
1.0
 40
1.0
 40
1.0
 10
7.80799
 20
10.45159
 30
0.0
 10
7.80799
 20
10.45159
 30
0.0
 10
4.1073
 20
10.45159
 30
0.0
 10
4.1073
 20
10.45159
 30
0.0
  0
SPLINE
  5
FF
330
1F
100
AcDbEntity
  8
0
 62
     8
370
    15
100
AcDbSpline
210
0.0
220
0.0
230
1.0
 70
    24
 71
     3
 72
     8
 73
     4
 74
     0
 42
0.0000000001
 43
0.0000000001
 40
0.0
 40
0.0
 40
0.0
 40
0.0
 40
1.0
 40
1.0
 40
1.0
 40
1.0
 10
4.25765
 20
7.46034
 30
0.0
 10
4.25765
 20
7.46034
 30
0.0
 10
7.65765
 20
7.46034
 30
0.0
 10
7.65765
 20
7.46034
 30
0.0
  0
SPLINE
  5
100
330
1F
100
AcDbEntity
  8
0
 62
     8
370
    15
100
AcDbSpline
210
0.0
220
0.0
230
1.0
 70
    24
 71
     3
 72
     8
 73
     4
 74
     0
 42
0.0000000001
 43
0.0000000001
 40
0.0
 40
0.0
 40
0.0
 40
0.0
 40
1.0
 40
1.0
 40
1.0
 40
1.0
 10
4.33059
 20
7.3253
 30
0.0
 10
4.33059
 20
7.3253
 30
0.0
 10
7.5847
 20
7.3253
 30
0.0
 10
7.5847
 20
7.3253
 30
0.0
  0
SPLINE
  5
101
330
1F
100
AcDbEntity
  8
0
 62
     8
370
    15
100
AcDbSpline
210
0.0
220
0.0
230
1.0
 70
    24
 71
     3
 72
     8
 73
     4
 74
     0
 42
0.0000000001
 43
0.0000000001
 40
0.0
 40
0.0
 40
0.0
 40
0.0
 40
1.0
 40
1.0
 40
1.0
 40
1.0
 10
4.43793
 20
5.99469
 30
0.0
 10
4.43793
 20
5.99469
 30
0.0
 10
7.47736
 20
5.99469
 30
0.0
 10
7.47736
 20
5.99469
 30
0.0
  0
SPLINE
  5
102
330
1F
100
AcDbEntity
  8
0
 62
     8
370
    15
100
AcDbSpline
210
0.0
220
0.0
230
1.0
 70
    24
 71
     3
 72
     8
 73
     4
 74
     0
 42
0.0000000001
 43
0.0000000001
 40
0.0
 40
0.0
 40
0.0
 40
0.0
 40
1.0
 40
1.0
 40
1.0
 40
1.0
 10
5.16721
 20
6.89363
 30
0.0
 10
5.16721
 20
6.89363
 30
0.0
 10
7.8135
 20
6.89363
 30
0.0
 10
7.8135
 20
6.89363
 30
0.0
  0
SPLINE
  5
103
330
1F
100
AcDbEntity
  8
0
 62
     8
370
    15
100
AcDbSpline
210
0.0
220
0.0
230
1.0
 70
    24
 71
     3
 72
     8
 73
     4
 74
     0
 42
0.0000000001
 43
0.0000000001
 40
0.0
 40
0.0
 40
0.0
 40
0.0
 40
1.0
 40
1.0
 40
1.0
 40
1.0
 10
7.8135
 20
7.25884
 30
0.0
 10
7.8135
 20
7.25884
 30
0.0
 10
5.16721
 20
7.25884
 30
0.0
 10
5.16721
 20
7.25884
 30
0.0
  0
SPLINE
  5
104
330
1F
100
AcDbEntity
  8
0
100
AcDbSpline
210
0.0
220
0.0
230
1.0
 70
    27
 71
     3
 72
    12
 73
     8
 74
     0
 42
0.0000000001
 43
0.0000000001
 40
0.0
 40
0.0
 40
0.0
 40
0.0
 40
0.3333333333333333
 40
0.3333333333333333
 40
0.3333333333333333
 40
0.3333333333333333
 40
1.0
 40
1.0
 40
1.0
 40
1.0
 10
3.24265
 20
4.22624
 30
0.0
 10
3.24265
 20
4.22624
 30
0.0
 10
3.57285
 20
4.27704
 30
0.0
 10
3.57285
 20
4.27704
 30
0.0
 10
3.57285
 20
4.27704
 30
0.0
 10
3.57285
 20
4.27704
 30
0.0
 10
3.24265
 20
4.22624
 30
0.0
 10
3.24265
 20
4.22624
 30
0.0
  0
SPLINE
  5
105
330
1F
100
AcDbEntity
  8
0
100
AcDbSpline
210
0.0
220
0.0
230
1.0
 70
     8
 71
     3
 72
    12
 73
     8
 74
     0
 42
0.0000000001
 43
0.0000000001
 40
0.0
 40
0.0
 40
0.0
 40
0.0
 40
0.3333333333333333
 40
0.3333333333333333
 40
0.3333333333333333
 40
0.3333333333333333
 40
1.0
 40
1.0
 40
1.0
 40
1.0
 10
3.57285
 20
4.27704
 30
0.0
 10
3.57285
 20
4.27704
 30
0.0
 10
3.57285
 20
4.17544
 30
0.0
 10
3.57285
 20
4.17544
 30
0.0
 10
3.57285
 20
4.17544
 30
0.0
 10
3.57285
 20
4.17544
 30
0.0
 10
3.24265
 20
4.22624
 30
0.0
 10
3.24265
 20
4.22624
 30
0.0
  0
SPLINE
  5
106
330
1F
100
AcDbEntity
  8
0
370
     9
100
AcDbSpline
210
0.0
220
0.0
230
1.0
 70
    24
 71
     3
 72
     8
 73
     4
 74
     0
 42
0.0000000001
 43
0.0000000001
 40
0.0
 40
0.0
 40
0.0
 40
0.0
 40
1.0
 40
1.0
 40
1.0
 40
1.0
 10
3.24265
 20
4.22624
 30
0.0
 10
3.24265
 20
4.22624
 30
0.0
 10
3.57285
 20
4.27704
 30
0.0
 10
3.57285
 20
4.27704
 30
0.0
  0
SPLINE
  5
107
330
1F
100
AcDbEntity
  8
0
370
     9
100
AcDbSpline
210
0.0
220
0.0
230
1.0
 70
     8
 71
     3
 72
    12
 73
     8
 74
     0
 42
0.0000000001
 43
0.0000000001
 40
0.0
 40
0.0
 40
0.0
 40
0.0
 40
0.3333333333333333
 40
0.3333333333333333
 40
0.3333333333333333
 40
0.3333333333333333
 40
1.0
 40
1.0
 40
1.0
 40
1.0
 10
3.57285
 20
4.27704
 30
0.0
 10
3.57285
 20
4.27704
 30
0.0
 10
3.57285
 20
4.17544
 30
0.0
 10
3.57285
 20
4.17544
 30
0.0
 10
3.57285
 20
4.17544
 30
0.0
 10
3.57285
 20
4.17544
 30
0.0
 10
3.24265
 20
4.22624
 30
0.0
 10
3.24265
 20
4.22624
 30
0.0
  0
SPLINE
  5
108
330
1F
100
AcDbEntity
  8
0
100
AcDbSpline
210
0.0
220
0.0
230
1.0
 70
    27
 71
     3
 72
    12
 73
     8
 74
     0
 42
0.0000000001
 43
0.0000000001
 40
0.0
 40
0.0
 40
0.0
 40
0.0
 40
0.3333333333333333
 40
0.3333333333333333
 40
0.3333333333333333
 40
0.3333333333333333
 40
1.0
 40
1.0
 40
1.0
 40
1.0
 10
7.84196
 20
4.22624
 30
0.0
 10
7.84196
 20
4.22624
 30
0.0
 10
7.51176
 20
4.17544
 30
0.0
 10
7.51176
 20
4.17544
 30
0.0
 10
7.51176
 20
4.17544
 30
0.0
 10
7.51176
 20
4.17544
 30
0.0
 10
7.84196
 20
4.22624
 30
0.0
 10
7.84196
 20
4.22624
 30
0.0
  0
SPLINE
  5
109
330
1F
100
AcDbEntity
  8
0
100
AcDbSpline
210
0.0
220
0.0
230
1.0
 70
     8
 71
     3
 72
    12
 73
     8
 74
     0
 42
0.0000000001
 43
0.0000000001
 40
0.0
 40
0.0
 40
0.0
 40
0.0
 40
0.3333333333333333
 40
0.3333333333333333
 40
0.3333333333333333
 40
0.3333333333333333
 40
1.0
 40
1.0
 40
1.0
 40
1.0
 10
7.51176
 20
4.17544
 30
0.0
 10
7.51176
 20
4.17544
 30
0.0
 10
7.51176
 20
4.27704
 30
0.0
 10
7.51176
 20
4.27704
 30
0.0
 10
7.51176
 20
4.27704
 30
0.0
 10
7.51176
 20
4.27704
 30
0.0
 10
7.84196
 20
4.22624
 30
0.0
 10
7.84196
 20
4.22624
 30
0.0
  0
SPLINE
  5
10A
330
1F
100
AcDbEntity
  8
0
370
     9
100
AcDbSpline
210
0.0
220
0.0
230
1.0
 70
    24
 71
     3
 72
     8
 73
     4
 74
     0
 42
0.0000000001
 43
0.0000000001
 40
0.0
 40
0.0
 40
0.0
 40
0.0
 40
1.0
 40
1.0
 40
1.0
 40
1.0
 10
7.84196
 20
4.22624
 30
0.0
 10
7.84196
 20
4.22624
 30
0.0
 10
7.51176
 20
4.17544
 30
0.0
 10
7.51176
 20
4.17544
 30
0.0
  0
SPLINE
  5
10B
330
1F
100
AcDbEntity
  8
0
370
     9
100
AcDbSpline
210
0.0
220
0.0
230
1.0
 70
     8
 71
     3
 72
    12
 73
     8
 74
     0
 42
0.0000000001
 43
0.0000000001
 40
0.0
 40
0.0
 40
0.0
 40
0.0
 40
0.3333333333333333
 40
0.3333333333333333
 40
0.3333333333333333
 40
0.3333333333333333
 40
1.0
 40
1.0
 40
1.0
 40
1.0
 10
7.51176
 20
4.17544
 30
0.0
 10
7.51176
 20
4.17544
 30
0.0
 10
7.51176
 20
4.27704
 30
0.0
 10
7.51176
 20
4.27704
 30
0.0
 10
7.51176
 20
4.27704
 30
0.0
 10
7.51176
 20
4.27704
 30
0.0
 10
7.84196
 20
4.22624
 30
0.0
 10
7.84196
 20
4.22624
 30
0.0
  0
SPLINE
  5
10C
330
1F
100
AcDbEntity
  8
0
370
     9
100
AcDbSpline
210
0.0
220
0.0
230
1.0
 70
    24
 71
     3
 72
     8
 73
     4
 74
     0
 42
0.0000000001
 43
0.0000000001
 40
0.0
 40
0.0
 40
0.0
 40
0.0
 40
1.0
 40
1.0
 40
1.0
 40
1.0
 10
3.24265
 20
5.12624
 30
0.0
 10
3.24265
 20
5.12624
 30
0.0
 10
3.24265
 20
4.12624
 30
0.0
 10
3.24265
 20
4.12624
 30
0.0
  0
SPLINE
  5
10D
330
1F
100
AcDbEntity
  8
0
370
     9
100
AcDbSpline
210
0.0
220
0.0
230
1.0
 70
    24
 71
     3
 72
     8
 73
     4
 74
     0
 42
0.0000000001
 43
0.0000000001
 40
0.0
 40
0.0
 40
0.0
 40
0.0
 40
1.0
 40
1.0
 40
1.0
 40
1.0
 10
7.84196
 20
6.97624
 30
0.0
 10
7.84196
 20
6.97624
 30
0.0
 10
7.84196
 20
4.12624
 30
0.0
 10
7.84196
 20
4.12624
 30
0.0
  0
SPLINE
  5
10E
330
1F
100
AcDbEntity
  8
0
370
     9
100
AcDbSpline
210
0.0
220
0.0
230
1.0
 70
    24
 71
     3
 72
     8
 73
     4
 74
     0
 42
0.0000000001
 43
0.0000000001
 40
0.0
 40
0.0
 40
0.0
 40
0.0
 40
1.0
 40
1.0
 40
1.0
 40
1.0
 10
3.24265
 20
4.22624
 30
0.0
 10
3.24265
 20
4.22624
 30
0.0
 10
7.84196
 20
4.22624
 30
0.0
 10
7.84196
 20
4.22624
 30
0.0
  0
SPLINE
  5
10F
330
1F
100
AcDbEntity
  8
0
100
AcDbSpline
210
0.0
220
0.0
230
1.0
 70
    11
 71
     3
 72
    92
 73
    88
 74
     0
 42
0.0000000001
 43
0.0000000001
 40
0.0
 40
0.0
 40
0.0
 40
0.0
 40
0.0434782608695652
 40
0.0434782608695652
 40
0.0434782608695652
 40
0.0434782608695652
 40
0.0869565217391304
 40
0.0869565217391304
 40
0.0869565217391304
 40
0.0869565217391304
 40
0.1304347826086956
 40
0.1304347826086956
 40
0.1304347826086956
 40
0.1304347826086956
 40
0.1739130434782609
 40
0.1739130434782609
 40
0.1739130434782609
 40
0.1739130434782609
 40
0.2173913043478261
 40
0.2173913043478261
 40
0.2173913043478261
 40
0.2173913043478261
 40
0.2608695652173913
 40
0.2608695652173913
 40
0.2608695652173913
 40
0.2608695652173913
 40
0.3043478260869565
 40
0.3043478260869565
 40
0.3043478260869565
 40
0.3043478260869565
 40
0.3478260869565217
 40
0.3478260869565217
 40
0.3478260869565217
 40
0.3478260869565217
 40
0.391304347826087
 40
0.391304347826087
 40
0.391304347826087
 40
0.391304347826087
 40
0.4347826086956522
 40
0.4347826086956522
 40
0.4347826086956522
 40
0.4347826086956522
 40
0.4782608695652174
 40
0.4782608695652174
 40
0.4782608695652174
 40
0.4782608695652174
 40
0.5217391304347826
 40
0.5217391304347826
 40
0.5217391304347826
 40
0.5217391304347826
 40
0.5652173913043478
 40
0.5652173913043478
 40
0.5652173913043478
 40
0.5652173913043478
 40
0.6086956521739131
 40
0.6086956521739131
 40
0.6086956521739131
 40
0.6086956521739131
 40
0.6521739130434783
 40
0.6521739130434783
 40
0.6521739130434783
 40
0.6521739130434783
 40
0.6956521739130435
 40
0.6956521739130435
 40
0.6956521739130435
 40
0.6956521739130435
 40
0.7391304347826086
 40
0.7391304347826086
 40
0.7391304347826086
 40
0.7391304347826086
 40
0.782608695652174
 40
0.782608695652174
 40
0.782608695652174
 40
0.782608695652174
 40
0.8260869565217391
 40
0.8260869565217391
 40
0.8260869565217391
 40
0.8260869565217391
 40
0.8695652173913043
 40
0.8695652173913043
 40
0.8695652173913043
 40
0.8695652173913043
 40
0.9130434782608695
 40
0.9130434782608695
 40
0.9130434782608695
 40
0.9130434782608695
 40
1.0
 40
1.0
 40
1.0
 40
1.0
 10
5.54635
 20
4.41846
 30
0.0
 10
5.54635
 20
4.41846
 30
0.0
 10
5.57593
 20
4.42121
 30
0.0
 10
5.57593
 20
4.42121
 30
0.0
 10
5.57593
 20
4.42121
 30
0.0
 10
5.57844
 20
4.40732
 30
0.0
 10
5.58322
 20
4.39723
 30
0.0
 10
5.59028
 20
4.39093
 30
0.0
 10
5.59028
 20
4.39093
 30
0.0
 10
5.59734
 20
4.38469
 30
0.0
 10
5.60638
 20
4.38154
 30
0.0
 10
5.61746
 20
4.38154
 30
0.0
 10
5.61746
 20
4.38154
 30
0.0
 10
5.62691
 20
4.38154
 30
0.0
 10
5.63519
 20
4.3837
 30
0.0
 10
5.64231
 20
4.38807
 30
0.0
 10
5.64231
 20
4.38807
 30
0.0
 10
5.64943
 20
4.39239
 30
0.0
 10
5.65526
 20
4.39816
 30
0.0
 10
5.65981
 20
4.4054
 30
0.0
 10
5.65981
 20
4.4054
 30
0.0
 10
5.66442
 20
4.41263
 30
0.0
 10
5.66821
 20
4.42243
 30
0.0
 10
5.6713
 20
4.43468
 30
0.0
 10
5.6713
 20
4.43468
 30
0.0
 10
5.67434
 20
4.44699
 30
0.0
 10
5.67591
 20
4.45953
 30
0.0
 10
5.67591
 20
4.47231
 30
0.0
 10
5.67591
 20
4.47231
 30
0.0
 10
5.67591
 20
4.47365
 30
0.0
 10
5.67585
 20
4.47575
 30
0.0
 10
5.67574
 20
4.47843
 30
0.0
 10
5.67574
 20
4.47843
 30
0.0
 10
5.66955
 20
4.46869
 30
0.0
 10
5.66115
 20
4.4607
 30
0.0
 10
5.65054
 20
4.45463
 30
0.0
 10
5.65054
 20
4.45463
 30
0.0
 10
5.63986
 20
4.44851
 30
0.0
 10
5.62831
 20
4.44547
 30
0.0
 10
5.61594
 20
4.44547
 30
0.0
 10
5.61594
 20
4.44547
 30
0.0
 10
5.59518
 20
4.44547
 30
0.0
 10
5.57762
 20
4.453
 30
0.0
 10
5.56327
 20
4.46805
 30
0.0
 10
5.56327
 20
4.46805
 30
0.0
 10
5.54892
 20
4.4831
 30
0.0
 10
5.54174
 20
4.50287
 30
0.0
 10
5.54174
 20
4.52749
 30
0.0
 10
5.54174
 20
4.52749
 30
0.0
 10
5.54174
 20
4.55292
 30
0.0
 10
5.54921
 20
4.57334
 30
0.0
 10
5.5642
 20
4.58886
 30
0.0
 10
5.5642
 20
4.58886
 30
0.0
 10
5.57919
 20
4.60437
 30
0.0
 10
5.59798
 20
4.61213
 30
0.0
 10
5.62055
 20
4.61213
 30
0.0
 10
5.62055
 20
4.61213
 30
0.0
 10
5.63683
 20
4.61213
 30
0.0
 10
5.6517
 20
4.6077
 30
0.0
 10
5.66524
 20
4.59895
 30
0.0
 10
5.66524
 20
4.59895
 30
0.0
 10
5.67871
 20
4.5902
 30
0.0
 10
5.68898
 20
4.57766
 30
0.0
 10
5.69598
 20
4.56144
 30
0.0
 10
5.69598
 20
4.56144
 30
0.0
 10
5.70298
 20
4.54522
 30
0.0
 10
5.70648
 20
4.52171
 30
0.0
 10
5.70648
 20
4.49091
 30
0.0
 10
5.70648
 20
4.49091
 30
0.0
 10
5.70648
 20
4.45895
 30
0.0
 10
5.70304
 20
4.43346
 30
0.0
 10
5.69609
 20
4.41444
 30
0.0
 10
5.69609
 20
4.41444
 30
0.0
 10
5.68909
 20
4.39548
 30
0.0
 10
5.67877
 20
4.38107
 30
0.0
 10
5.66506
 20
4.37116
 30
0.0
 10
5.66506
 20
4.37116
 30
0.0
 10
5.65129
 20
4.36124
 30
0.0
 10
5.63525
 20
4.35628
 30
0.0
 10
5.61676
 20
4.35628
 30
0.0
 10
5.61676
 20
4.35628
 30
0.0
 10
5.59716
 20
4.35628
 30
0.0
 10
5.58118
 20
4.36171
 30
0.0
 10
5.56875
 20
4.37261
 30
0.0
 10
5.56875
 20
4.37261
 30
0.0
 10
5.55633
 20
4.38346
 30
0.0
 10
5.54886
 20
4.39875
 30
0.0
 10
5.54635
 20
4.41846
 30
0.0
  0
SPLINE
  5
110
330
1F
100
AcDbEntity
  8
0
100
AcDbSpline
210
0.0
220
0.0
230
1.0
 70
    11
 71
     3
 72
    36
 73
    32
 74
     0
 42
0.0000000001
 43
0.0000000001
 40
0.0
 40
0.0
 40
0.0
 40
0.0
 40
0.1111111111111111
 40
0.1111111111111111
 40
0.1111111111111111
 40
0.1111111111111111
 40
0.2222222222222222
 40
0.2222222222222222
 40
0.2222222222222222
 40
0.2222222222222222
 40
0.3333333333333333
 40
0.3333333333333333
 40
0.3333333333333333
 40
0.3333333333333333
 40
0.4444444444444444
 40
0.4444444444444444
 40
0.4444444444444444
 40
0.4444444444444444
 40
0.5555555555555556
 40
0.5555555555555556
 40
0.5555555555555556
 40
0.5555555555555556
 40
0.6666666666666666
 40
0.6666666666666666
 40
0.6666666666666666
 40
0.6666666666666666
 40
0.7777777777777778
 40
0.7777777777777778
 40
0.7777777777777778
 40
0.7777777777777778
 40
1.0
 40
1.0
 40
1.0
 40
1.0
 10
5.67229
 20
4.52906
 30
0.0
 10
5.67229
 20
4.54668
 30
0.0
 10
5.66763
 20
4.56074
 30
0.0
 10
5.65824
 20
4.57106
 30
0.0
 10
5.65824
 20
4.57106
 30
0.0
 10
5.64879
 20
4.58145
 30
0.0
 10
5.63753
 20
4.58664
 30
0.0
 10
5.62429
 20
4.58664
 30
0.0
 10
5.62429
 20
4.58664
 30
0.0
 10
5.61064
 20
4.58664
 30
0.0
 10
5.59874
 20
4.58104
 30
0.0
 10
5.58859
 20
4.5699
 30
0.0
 10
5.58859
 20
4.5699
 30
0.0
 10
5.57844
 20
4.5587
 30
0.0
 10
5.57336
 20
4.54423
 30
0.0
 10
5.57336
 20
4.5265
 30
0.0
 10
5.57336
 20
4.5265
 30
0.0
 10
5.57336
 20
4.51051
 30
0.0
 10
5.5782
 20
4.49756
 30
0.0
 10
5.58783
 20
4.48759
 30
0.0
 10
5.58783
 20
4.48759
 30
0.0
 10
5.59745
 20
4.47761
 30
0.0
 10
5.60929
 20
4.47266
 30
0.0
 10
5.62341
 20
4.47266
 30
0.0
 10
5.62341
 20
4.47266
 30
0.0
 10
5.6377
 20
4.47266
 30
0.0
 10
5.64937
 20
4.47761
 30
0.0
 10
5.65853
 20
4.48759
 30
0.0
 10
5.65853
 20
4.48759
 30
0.0
 10
5.66774
 20
4.49756
 30
0.0
 10
5.67229
 20
4.51139
 30
0.0
 10
5.67229
 20
4.52906
 30
0.0
  0
SPLINE
  5
111
330
1F
100
AcDbEntity
  8
0
100
AcDbSpline
210
0.0
220
0.0
230
1.0
 70
    11
 71
     3
 72
    92
 73
    88
 74
     0
 42
0.0000000001
 43
0.0000000001
 40
0.0
 40
0.0
 40
0.0
 40
0.0
 40
0.0434782608695652
 40
0.0434782608695652
 40
0.0434782608695652
 40
0.0434782608695652
 40
0.0869565217391304
 40
0.0869565217391304
 40
0.0869565217391304
 40
0.0869565217391304
 40
0.1304347826086956
 40
0.1304347826086956
 40
0.1304347826086956
 40
0.1304347826086956
 40
0.1739130434782609
 40
0.1739130434782609
 40
0.1739130434782609
 40
0.1739130434782609
 40
0.2173913043478261
 40
0.2173913043478261
 40
0.2173913043478261
 40
0.2173913043478261
 40
0.2608695652173913
 40
0.2608695652173913
 40
0.2608695652173913
 40
0.2608695652173913
 40
0.3043478260869565
 40
0.3043478260869565
 40
0.3043478260869565
 40
0.3043478260869565
 40
0.3478260869565217
 40
0.3478260869565217
 40
0.3478260869565217
 40
0.3478260869565217
 40
0.391304347826087
 40
0.391304347826087
 40
0.391304347826087
 40
0.391304347826087
 40
0.4347826086956522
 40
0.4347826086956522
 40
0.4347826086956522
 40
0.4347826086956522
 40
0.4782608695652174
 40
0.4782608695652174
 40
0.4782608695652174
 40
0.4782608695652174
 40
0.5217391304347826
 40
0.5217391304347826
 40
0.5217391304347826
 40
0.5217391304347826
 40
0.5652173913043478
 40
0.5652173913043478
 40
0.5652173913043478
 40
0.5652173913043478
 40
0.6086956521739131
 40
0.6086956521739131
 40
0.6086956521739131
 40
0.6086956521739131
 40
0.6521739130434783
 40
0.6521739130434783
 40
0.6521739130434783
 40
0.6521739130434783
 40
0.6956521739130435
 40
0.6956521739130435
 40
0.6956521739130435
 40
0.6956521739130435
 40
0.7391304347826086
 40
0.7391304347826086
 40
0.7391304347826086
 40
0.7391304347826086
 40
0.782608695652174
 40
0.782608695652174
 40
0.782608695652174
 40
0.782608695652174
 40
0.8260869565217391
 40
0.8260869565217391
 40
0.8260869565217391
 40
0.8260869565217391
 40
0.8695652173913043
 40
0.8695652173913043
 40
0.8695652173913043
 40
0.8695652173913043
 40
0.9130434782608695
 40
0.9130434782608695
 40
0.9130434782608695
 40
0.9130434782608695
 40
1.0
 40
1.0
 40
1.0
 40
1.0
 10
5.8981
 20
4.39011
 30
0.0
 10
5.8981
 20
4.39011
 30
0.0
 10
5.8981
 20
4.36054
 30
0.0
 10
5.8981
 20
4.36054
 30
0.0
 10
5.8981
 20
4.36054
 30
0.0
 10
5.8981
 20
4.36054
 30
0.0
 10
5.7325
 20
4.36054
 30
0.0
 10
5.7325
 20
4.36054
 30
0.0
 10
5.7325
 20
4.36054
 30
0.0
 10
5.73226
 20
4.36795
 30
0.0
 10
5.73343
 20
4.37506
 30
0.0
 10
5.73605
 20
4.38189
 30
0.0
 10
5.73605
 20
4.38189
 30
0.0
 10
5.74025
 20
4.39321
 30
0.0
 10
5.74702
 20
4.40429
 30
0.0
 10
5.7563
 20
4.41526
 30
0.0
 10
5.7563
 20
4.41526
 30
0.0
 10
5.76563
 20
4.42616
 30
0.0
 10
5.77905
 20
4.43882
 30
0.0
 10
5.79655
 20
4.45317
 30
0.0
 10
5.79655
 20
4.45317
 30
0.0
 10
5.82379
 20
4.47551
 30
0.0
 10
5.84222
 20
4.49319
 30
0.0
 10
5.85179
 20
4.50626
 30
0.0
 10
5.85179
 20
4.50626
 30
0.0
 10
5.86135
 20
4.51926
 30
0.0
 10
5.86614
 20
4.53163
 30
0.0
 10
5.86614
 20
4.54324
 30
0.0
 10
5.86614
 20
4.54324
 30
0.0
 10
5.86614
 20
4.55543
 30
0.0
 10
5.86176
 20
4.5657
 30
0.0
 10
5.85307
 20
4.5741
 30
0.0
 10
5.85307
 20
4.5741
 30
0.0
 10
5.84432
 20
4.58244
 30
0.0
 10
5.83295
 20
4.58664
 30
0.0
 10
5.81895
 20
4.58664
 30
0.0
 10
5.81895
 20
4.58664
 30
0.0
 10
5.80413
 20
4.58664
 30
0.0
 10
5.79229
 20
4.58221
 30
0.0
 10
5.78342
 20
4.57328
 30
0.0
 10
5.78342
 20
4.57328
 30
0.0
 10
5.7745
 20
4.56441
 30
0.0
 10
5.77
 20
4.55211
 30
0.0
 10
5.76989
 20
4.53641
 30
0.0
 10
5.76989
 20
4.53641
 30
0.0
 10
5.76989
 20
4.53641
 30
0.0
 10
5.73827
 20
4.53962
 30
0.0
 10
5.73827
 20
4.53962
 30
0.0
 10
5.73827
 20
4.53962
 30
0.0
 10
5.74043
 20
4.56325
 30
0.0
 10
5.7486
 20
4.58121
 30
0.0
 10
5.76271
 20
4.59358
 30
0.0
 10
5.76271
 20
4.59358
 30
0.0
 10
5.77683
 20
4.60595
 30
0.0
 10
5.79585
 20
4.61213
 30
0.0
 10
5.81965
 20
4.61213
 30
0.0
 10
5.81965
 20
4.61213
 30
0.0
 10
5.84368
 20
4.61213
 30
0.0
 10
5.8627
 20
4.60542
 30
0.0
 10
5.8767
 20
4.59212
 30
0.0
 10
5.8767
 20
4.59212
 30
0.0
 10
5.89075
 20
4.57876
 30
0.0
 10
5.89775
 20
4.56226
 30
0.0
 10
5.89775
 20
4.54254
 30
0.0
 10
5.89775
 20
4.54254
 30
0.0
 10
5.89775
 20
4.53251
 30
0.0
 10
5.89571
 20
4.52265
 30
0.0
 10
5.89157
 20
4.51296
 30
0.0
 10
5.89157
 20
4.51296
 30
0.0
 10
5.88749
 20
4.50328
 30
0.0
 10
5.88066
 20
4.49307
 30
0.0
 10
5.87115
 20
4.4824
 30
0.0
 10
5.87115
 20
4.4824
 30
0.0
 10
5.86165
 20
4.47166
 30
0.0
 10
5.84584
 20
4.45696
 30
0.0
 10
5.82373
 20
4.4383
 30
0.0
 10
5.82373
 20
4.4383
 30
0.0
 10
5.8053
 20
4.42278
 30
0.0
 10
5.79345
 20
4.41228
 30
0.0
 10
5.7882
 20
4.40674
 30
0.0
 10
5.7882
 20
4.40674
 30
0.0
 10
5.78295
 20
4.40126
 30
0.0
 10
5.77864
 20
4.39571
 30
0.0
 10
5.7752
 20
4.39011
 30
0.0
 10
5.7752
 20
4.39011
 30
0.0
 10
5.7752
 20
4.39011
 30
0.0
 10
5.8981
 20
4.39011
 30
0.0
 10
5.8981
 20
4.39011
 30
0.0
  0
SPLINE
  5
112
330
1F
100
AcDbEntity
  8
0
370
    15
100
AcDbSpline
210
0.0
220
0.0
230
1.0
 70
     8
 71
     3
 72
    20
 73
    16
 74
     0
 42
0.0000000001
 43
0.0000000001
 40
0.0
 40
0.0
 40
0.0
 40
0.0
 40
0.2
 40
0.2
 40
0.2
 40
0.2
 40
0.4
 40
0.4
 40
0.4
 40
0.4
 40
0.6
 40
0.6
 40
0.6
 40
0.6
 40
1.0
 40
1.0
 40
1.0
 40
1.0
 10
-3.65335
 20
-3.26735
 30
0.0
 10
-3.65335
 20
-2.23736
 30
0.0
 10
-4.48832
 20
-1.4024
 30
0.0
 10
-5.5183
 20
-1.40239
 30
0.0
 10
-5.5183
 20
-1.40239
 30
0.0
 10
-6.54829
 20
-1.40239
 30
0.0
 10
-7.38326
 20
-2.23736
 30
0.0
 10
-7.38326
 20
-3.26735
 30
0.0
 10
-7.38326
 20
-3.26735
 30
0.0
 10
-7.38327
 20
-4.29733
 30
0.0
 10
-6.5483
 20
-5.1323
 30
0.0
 10
-5.51831
 20
-5.13231
 30
0.0
 10
-5.51831
 20
-5.13231
 30
0.0
 10
-4.48833
 20
-5.13231
 30
0.0
 10
-3.65336
 20
-4.29735
 30
0.0
 10
-3.65335
 20
-3.26736
 30
0.0
  0
SPLINE
  5
113
330
1F
100
AcDbEntity
  8
0
370
    15
100
AcDbSpline
210
0.0
220
0.0
230
1.0
 70
    24
 71
     3
 72
     8
 73
     4
 74
     0
 42
0.0000000001
 43
0.0000000001
 40
0.0
 40
0.0
 40
0.0
 40
0.0
 40
1.0
 40
1.0
 40
1.0
 40
1.0
 10
-7.20262
 20
-0.86735
 30
0.0
 10
-7.20262
 20
-0.86735
 30
0.0
 10
-7.20262
 20
-1.21735
 30
0.0
 10
-7.20262
 20
-1.21735
 30
0.0
  0
SPLINE
  5
114
330
1F
100
AcDbEntity
  8
0
370
    15
100
AcDbSpline
210
0.0
220
0.0
230
1.0
 70
    24
 71
     3
 72
     8
 73
     4
 74
     0
 42
0.0000000001
 43
0.0000000001
 40
0.0
 40
0.0
 40
0.0
 40
0.0
 40
1.0
 40
1.0
 40
1.0
 40
1.0
 10
-3.83399
 20
-1.21735
 30
0.0
 10
-3.83399
 20
-1.21735
 30
0.0
 10
-3.83399
 20
-0.86735
 30
0.0
 10
-3.83399
 20
-0.86735
 30
0.0
  0
SPLINE
  5
115
330
1F
100
AcDbEntity
  8
0
370
    15
100
AcDbSpline
210
0.0
220
0.0
230
1.0
 70
    24
 71
     3
 72
     8
 73
     4
 74
     0
 42
0.0000000001
 43
0.0000000001
 40
0.0
 40
0.0
 40
0.0
 40
0.0
 40
1.0
 40
1.0
 40
1.0
 40
1.0
 10
-3.83399
 20
-2.37292
 30
0.0
 10
-3.83399
 20
-2.37292
 30
0.0
 10
-3.83399
 20
-1.21735
 30
0.0
 10
-3.83399
 20
-1.21735
 30
0.0
  0
SPLINE
  5
116
330
1F
100
AcDbEntity
  8
0
370
    15
100
AcDbSpline
210
0.0
220
0.0
230
1.0
 70
    24
 71
     3
 72
     8
 73
     4
 74
     0
 42
0.0000000001
 43
0.0000000001
 40
0.0
 40
0.0
 40
0.0
 40
0.0
 40
1.0
 40
1.0
 40
1.0
 40
1.0
 10
-7.20262
 20
-1.21735
 30
0.0
 10
-7.20262
 20
-1.21735
 30
0.0
 10
-7.20262
 20
-2.37292
 30
0.0
 10
-7.20262
 20
-2.37292
 30
0.0
  0
SPLINE
  5
117
330
1F
100
AcDbEntity
  8
0
370
    15
100
AcDbSpline
210
0.0
220
0.0
230
1.0
 70
     8
 71
     3
 72
     8
 73
     4
 74
     0
 42
0.0000000001
 43
0.0000000001
 40
0.0
 40
0.0
 40
0.0
 40
0.0
 40
1.0
 40
1.0
 40
1.0
 40
1.0
 10
-3.83399
 20
-2.37292
 30
0.0
 10
-3.83399
 20
-2.40468
 30
0.0
 10
-3.82698
 20
-2.43605
 30
0.0
 10
-3.81345
 20
-2.46479
 30
0.0
  0
SPLINE
  5
118
330
1F
100
AcDbEntity
  8
0
370
    15
100
AcDbSpline
210
0.0
220
0.0
230
1.0
 70
     8
 71
     3
 72
     8
 73
     4
 74
     0
 42
0.0000000001
 43
0.0000000001
 40
0.0
 40
0.0
 40
0.0
 40
0.0
 40
1.0
 40
1.0
 40
1.0
 40
1.0
 10
-7.22316
 20
-2.46479
 30
0.0
 10
-7.20964
 20
-2.43605
 30
0.0
 10
-7.20262
 20
-2.40468
 30
0.0
 10
-7.20262
 20
-2.37292
 30
0.0
  0
SPLINE
  5
119
330
1F
100
AcDbEntity
  8
0
370
    15
100
AcDbSpline
210
0.0
220
0.0
230
1.0
 70
     8
 71
     3
 72
    12
 73
     8
 74
     0
 42
0.0000000001
 43
0.0000000001
 40
0.0
 40
0.0
 40
0.0
 40
0.0
 40
0.3333333333333333
 40
0.3333333333333333
 40
0.3333333333333333
 40
0.3333333333333333
 40
1.0
 40
1.0
 40
1.0
 40
1.0
 10
-7.22316
 20
-2.46479
 30
0.0
 10
-7.49794
 20
-3.04848
 30
0.0
 10
-7.455
 20
-3.73217
 30
0.0
 10
-7.10936
 20
-4.27689
 30
0.0
 10
-7.10936
 20
-4.27689
 30
0.0
 10
-6.76373
 20
-4.82162
 30
0.0
 10
-6.16344
 20
-5.15166
 30
0.0
 10
-5.51831
 20
-5.15166
 30
0.0
  0
SPLINE
  5
11A
330
1F
100
AcDbEntity
  8
0
370
    15
100
AcDbSpline
210
0.0
220
0.0
230
1.0
 70
     8
 71
     3
 72
    12
 73
     8
 74
     0
 42
0.0000000001
 43
0.0000000001
 40
0.0
 40
0.0
 40
0.0
 40
0.0
 40
0.3333333333333333
 40
0.3333333333333333
 40
0.3333333333333333
 40
0.3333333333333333
 40
1.0
 40
1.0
 40
1.0
 40
1.0
 10
-5.51831
 20
-5.15166
 30
0.0
 10
-4.87318
 20
-5.15166
 30
0.0
 10
-4.27289
 20
-4.82163
 30
0.0
 10
-3.92725
 20
-4.2769
 30
0.0
 10
-3.92725
 20
-4.2769
 30
0.0
 10
-3.58162
 20
-3.73217
 30
0.0
 10
-3.53868
 20
-3.04849
 30
0.0
 10
-3.81345
 20
-2.4648
 30
0.0
  0
SPLINE
  5
11B
330
1F
100
AcDbEntity
  8
0
370
    15
100
AcDbSpline
210
0.0
220
0.0
230
1.0
 70
     8
 71
     3
 72
    20
 73
    16
 74
     0
 42
0.0000000001
 43
0.0000000001
 40
0.0
 40
0.0
 40
0.0
 40
0.0
 40
0.2
 40
0.2
 40
0.2
 40
0.2
 40
0.4
 40
0.4
 40
0.4
 40
0.4
 40
0.6
 40
0.6
 40
0.6
 40
0.6
 40
1.0
 40
1.0
 40
1.0
 40
1.0
 10
-3.71796
 20
-3.26735
 30
0.0
 10
-3.71796
 20
-2.27305
 30
0.0
 10
-4.524
 20
-1.467
 30
0.0
 10
-5.5183
 20
-1.467
 30
0.0
 10
-5.5183
 20
-1.467
 30
0.0
 10
-6.51261
 20
-1.467
 30
0.0
 10
-7.31865
 20
-2.27304
 30
0.0
 10
-7.31866
 20
-3.26735
 30
0.0
 10
-7.31866
 20
-3.26735
 30
0.0
 10
-7.31866
 20
-4.26165
 30
0.0
 10
-6.51262
 20
-5.0677
 30
0.0
 10
-5.51831
 20
-5.0677
 30
0.0
 10
-5.51831
 20
-5.0677
 30
0.0
 10
-4.52401
 20
-5.0677
 30
0.0
 10
-3.71796
 20
-4.26166
 30
0.0
 10
-3.71796
 20
-3.26736
 30
0.0
  0
SPLINE
  5
11C
330
1F
100
AcDbEntity
  8
0
370
    15
100
AcDbSpline
210
0.0
220
0.0
230
1.0
 70
     8
 71
     3
 72
    20
 73
    16
 74
     0
 42
0.0000000001
 43
0.0000000001
 40
0.0
 40
0.0
 40
0.0
 40
0.0
 40
0.2
 40
0.2
 40
0.2
 40
0.2
 40
0.4
 40
0.4
 40
0.4
 40
0.4
 40
0.6
 40
0.6
 40
0.6
 40
0.6
 40
1.0
 40
1.0
 40
1.0
 40
1.0
 10
-3.71847
 20
-3.26735
 30
0.0
 10
-3.71847
 20
-2.27333
 30
0.0
 10
-4.52428
 20
-1.46751
 30
0.0
 10
-5.5183
 20
-1.46751
 30
0.0
 10
-5.5183
 20
-1.46751
 30
0.0
 10
-6.51233
 20
-1.46751
 30
0.0
 10
-7.31814
 20
-2.27332
 30
0.0
 10
-7.31815
 20
-3.26735
 30
0.0
 10
-7.31815
 20
-3.26735
 30
0.0
 10
-7.31815
 20
-4.26137
 30
0.0
 10
-6.51234
 20
-5.06719
 30
0.0
 10
-5.51831
 20
-5.06719
 30
0.0
 10
-5.51831
 20
-5.06719
 30
0.0
 10
-4.52429
 20
-5.06719
 30
0.0
 10
-3.71847
 20
-4.26138
 30
0.0
 10
-3.71847
 20
-3.26736
 30
0.0
  0
SPLINE
  5
11D
330
1F
100
AcDbEntity
  8
0
370
    15
100
AcDbSpline
210
0.0
220
0.0
230
1.0
 70
     8
 71
     3
 72
    20
 73
    16
 74
     0
 42
0.0000000001
 43
0.0000000001
 40
0.0
 40
0.0
 40
0.0
 40
0.0
 40
0.2
 40
0.2
 40
0.2
 40
0.2
 40
0.4
 40
0.4
 40
0.4
 40
0.4
 40
0.6
 40
0.6
 40
0.6
 40
0.6
 40
1.0
 40
1.0
 40
1.0
 40
1.0
 10
-3.66796
 20
-3.26735
 30
0.0
 10
-3.66796
 20
-2.24543
 30
0.0
 10
-4.49639
 20
-1.417
 30
0.0
 10
-5.5183
 20
-1.417
 30
0.0
 10
-5.5183
 20
-1.417
 30
0.0
 10
-6.54022
 20
-1.417
 30
0.0
 10
-7.36865
 20
-2.24543
 30
0.0
 10
-7.36866
 20
-3.26735
 30
0.0
 10
-7.36866
 20
-3.26735
 30
0.0
 10
-7.36866
 20
-4.28926
 30
0.0
 10
-6.54023
 20
-5.1177
 30
0.0
 10
-5.51831
 20
-5.1177
 30
0.0
 10
-5.51831
 20
-5.1177
 30
0.0
 10
-4.4964
 20
-5.1177
 30
0.0
 10
-3.66796
 20
-4.28928
 30
0.0
 10
-3.66796
 20
-3.26736
 30
0.0
  0
SPLINE
  5
11E
330
1F
100
AcDbEntity
  8
0
370
    15
100
AcDbSpline
210
0.0
220
0.0
230
1.0
 70
     8
 71
     3
 72
    20
 73
    16
 74
     0
 42
0.0000000001
 43
0.0000000001
 40
0.0
 40
0.0
 40
0.0
 40
0.0
 40
0.2
 40
0.2
 40
0.2
 40
0.2
 40
0.4
 40
0.4
 40
0.4
 40
0.4
 40
0.6
 40
0.6
 40
0.6
 40
0.6
 40
1.0
 40
1.0
 40
1.0
 40
1.0
 10
-3.74347
 20
-3.26735
 30
0.0
 10
-3.74347
 20
-2.28713
 30
0.0
 10
-4.53809
 20
-1.49251
 30
0.0
 10
-5.5183
 20
-1.49251
 30
0.0
 10
-5.5183
 20
-1.49251
 30
0.0
 10
-6.49852
 20
-1.49251
 30
0.0
 10
-7.29314
 20
-2.28713
 30
0.0
 10
-7.29315
 20
-3.26735
 30
0.0
 10
-7.29315
 20
-3.26735
 30
0.0
 10
-7.29315
 20
-4.24756
 30
0.0
 10
-6.49853
 20
-5.04219
 30
0.0
 10
-5.51831
 20
-5.04219
 30
0.0
 10
-5.51831
 20
-5.04219
 30
0.0
 10
-4.5381
 20
-5.04219
 30
0.0
 10
-3.74347
 20
-4.24758
 30
0.0
 10
-3.74347
 20
-3.26736
 30
0.0
  0
SPLINE
  5
11F
330
1F
100
AcDbEntity
  8
0
370
    15
100
AcDbSpline
210
0.0
220
0.0
230
1.0
 70
     8
 71
     3
 72
    20
 73
    16
 74
     0
 42
0.0000000001
 43
0.0000000001
 40
0.0
 40
0.0
 40
0.0
 40
0.0
 40
0.2
 40
0.2
 40
0.2
 40
0.2
 40
0.4
 40
0.4
 40
0.4
 40
0.4
 40
0.6
 40
0.6
 40
0.6
 40
0.6
 40
1.0
 40
1.0
 40
1.0
 40
1.0
 10
-3.75263
 20
-3.26735
 30
0.0
 10
-3.75263
 20
-2.2922
 30
0.0
 10
-4.54315
 20
-1.50168
 30
0.0
 10
-5.5183
 20
-1.50168
 30
0.0
 10
-5.5183
 20
-1.50168
 30
0.0
 10
-6.49346
 20
-1.50168
 30
0.0
 10
-7.28398
 20
-2.29219
 30
0.0
 10
-7.28398
 20
-3.26735
 30
0.0
 10
-7.28398
 20
-3.26735
 30
0.0
 10
-7.28398
 20
-4.2425
 30
0.0
 10
-6.49347
 20
-5.03302
 30
0.0
 10
-5.51831
 20
-5.03302
 30
0.0
 10
-5.51831
 20
-5.03302
 30
0.0
 10
-4.54316
 20
-5.03303
 30
0.0
 10
-3.75264
 20
-4.24251
 30
0.0
 10
-3.75263
 20
-3.26736
 30
0.0
  0
SPLINE
  5
120
330
1F
100
AcDbEntity
  8
0
370
    15
100
AcDbSpline
210
0.0
220
0.0
230
1.0
 70
     8
 71
     3
 72
    20
 73
    16
 74
     0
 42
0.0000000001
 43
0.0000000001
 40
0.0
 40
0.0
 40
0.0
 40
0.0
 40
0.2
 40
0.2
 40
0.2
 40
0.2
 40
0.4
 40
0.4
 40
0.4
 40
0.4
 40
0.6
 40
0.6
 40
0.6
 40
0.6
 40
1.0
 40
1.0
 40
1.0
 40
1.0
 10
-3.65336
 20
-3.26735
 30
0.0
 10
-3.65336
 20
-2.23737
 30
0.0
 10
-4.48832
 20
-1.4024
 30
0.0
 10
-5.5183
 20
-1.4024
 30
0.0
 10
-5.5183
 20
-1.4024
 30
0.0
 10
-6.54829
 20
-1.4024
 30
0.0
 10
-7.38325
 20
-2.23736
 30
0.0
 10
-7.38326
 20
-3.26735
 30
0.0
 10
-7.38326
 20
-3.26735
 30
0.0
 10
-7.38326
 20
-4.29733
 30
0.0
 10
-6.5483
 20
-5.1323
 30
0.0
 10
-5.51831
 20
-5.1323
 30
0.0
 10
-5.51831
 20
-5.1323
 30
0.0
 10
-4.48833
 20
-5.1323
 30
0.0
 10
-3.65336
 20
-4.29734
 30
0.0
 10
-3.65336
 20
-3.26736
 30
0.0
  0
SPLINE
  5
121
330
1F
100
AcDbEntity
  8
0
370
    15
100
AcDbSpline
210
0.0
220
0.0
230
1.0
 70
     8
 71
     3
 72
    20
 73
    16
 74
     0
 42
0.0000000001
 43
0.0000000001
 40
0.0
 40
0.0
 40
0.0
 40
0.0
 40
0.2
 40
0.2
 40
0.2
 40
0.2
 40
0.4
 40
0.4
 40
0.4
 40
0.4
 40
0.6
 40
0.6
 40
0.6
 40
0.6
 40
1.0
 40
1.0
 40
1.0
 40
1.0
 10
-3.76115
 20
-3.26735
 30
0.0
 10
-3.76115
 20
-2.2969
 30
0.0
 10
-4.54785
 20
-1.5102
 30
0.0
 10
-5.5183
 20
-1.51019
 30
0.0
 10
-5.5183
 20
-1.51019
 30
0.0
 10
-6.48875
 20
-1.51019
 30
0.0
 10
-7.27546
 20
-2.2969
 30
0.0
 10
-7.27546
 20
-3.26735
 30
0.0
 10
-7.27546
 20
-3.26735
 30
0.0
 10
-7.27546
 20
-4.23779
 30
0.0
 10
-6.48876
 20
-5.0245
 30
0.0
 10
-5.51831
 20
-5.02451
 30
0.0
 10
-5.51831
 20
-5.02451
 30
0.0
 10
-4.54786
 20
-5.02451
 30
0.0
 10
-3.76116
 20
-4.23781
 30
0.0
 10
-3.76115
 20
-3.26736
 30
0.0
  0
SPLINE
  5
122
330
1F
100
AcDbEntity
  8
0
370
    15
100
AcDbSpline
210
0.0
220
0.0
230
1.0
 70
     8
 71
     3
 72
    20
 73
    16
 74
     0
 42
0.0000000001
 43
0.0000000001
 40
0.0
 40
0.0
 40
0.0
 40
0.0
 40
0.2
 40
0.2
 40
0.2
 40
0.2
 40
0.4
 40
0.4
 40
0.4
 40
0.4
 40
0.6
 40
0.6
 40
0.6
 40
0.6
 40
1.0
 40
1.0
 40
1.0
 40
1.0
 10
-3.99586
 20
-3.26735
 30
0.0
 10
-3.99586
 20
-2.42653
 30
0.0
 10
-4.67748
 20
-1.74491
 30
0.0
 10
-5.5183
 20
-1.74491
 30
0.0
 10
-5.5183
 20
-1.74491
 30
0.0
 10
-6.35913
 20
-1.7449
 30
0.0
 10
-7.04075
 20
-2.42652
 30
0.0
 10
-7.04075
 20
-3.26735
 30
0.0
 10
-7.04075
 20
-3.26735
 30
0.0
 10
-7.04075
 20
-4.10817
 30
0.0
 10
-6.35913
 20
-4.78979
 30
0.0
 10
-5.51831
 20
-4.78979
 30
0.0
 10
-5.51831
 20
-4.78979
 30
0.0
 10
-4.67749
 20
-4.7898
 30
0.0
 10
-3.99587
 20
-4.10818
 30
0.0
 10
-3.99586
 20
-3.26736
 30
0.0
  0
SPLINE
  5
123
330
1F
100
AcDbEntity
  8
0
370
    15
100
AcDbSpline
210
0.0
220
0.0
230
1.0
 70
     8
 71
     3
 72
    20
 73
    16
 74
     0
 42
0.0000000001
 43
0.0000000001
 40
0.0
 40
0.0
 40
0.0
 40
0.0
 40
0.2
 40
0.2
 40
0.2
 40
0.2
 40
0.4
 40
0.4
 40
0.4
 40
0.4
 40
0.6
 40
0.6
 40
0.6
 40
0.6
 40
1.0
 40
1.0
 40
1.0
 40
1.0
 10
-4.00873
 20
-3.26735
 30
0.0
 10
-4.00873
 20
-2.43364
 30
0.0
 10
-4.68459
 20
-1.75778
 30
0.0
 10
-5.5183
 20
-1.75778
 30
0.0
 10
-5.5183
 20
-1.75778
 30
0.0
 10
-6.35202
 20
-1.75778
 30
0.0
 10
-7.02788
 20
-2.43363
 30
0.0
 10
-7.02788
 20
-3.26735
 30
0.0
 10
-7.02788
 20
-3.26735
 30
0.0
 10
-7.02788
 20
-4.10106
 30
0.0
 10
-6.35203
 20
-4.77692
 30
0.0
 10
-5.51831
 20
-4.77692
 30
0.0
 10
-5.51831
 20
-4.77692
 30
0.0
 10
-4.6846
 20
-4.77693
 30
0.0
 10
-4.00874
 20
-4.10107
 30
0.0
 10
-4.00873
 20
-3.26736
 30
0.0
  0
SPLINE
  5
124
330
1F
100
AcDbEntity
  8
0
370
    15
100
AcDbSpline
210
0.0
220
0.0
230
1.0
 70
     8
 71
     3
 72
    20
 73
    16
 74
     0
 42
0.0000000001
 43
0.0000000001
 40
0.0
 40
0.0
 40
0.0
 40
0.0
 40
0.2
 40
0.2
 40
0.2
 40
0.2
 40
0.4
 40
0.4
 40
0.4
 40
0.4
 40
0.6
 40
0.6
 40
0.6
 40
0.6
 40
1.0
 40
1.0
 40
1.0
 40
1.0
 10
-4.09298
 20
-3.26735
 30
0.0
 10
-4.09298
 20
-2.48017
 30
0.0
 10
-4.73112
 20
-1.84203
 30
0.0
 10
-5.5183
 20
-1.84202
 30
0.0
 10
-5.5183
 20
-1.84202
 30
0.0
 10
-6.30549
 20
-1.84202
 30
0.0
 10
-6.94363
 20
-2.48016
 30
0.0
 10
-6.94363
 20
-3.26735
 30
0.0
 10
-6.94363
 20
-3.26735
 30
0.0
 10
-6.94363
 20
-4.05453
 30
0.0
 10
-6.3055
 20
-4.69267
 30
0.0
 10
-5.51831
 20
-4.69268
 30
0.0
 10
-5.51831
 20
-4.69268
 30
0.0
 10
-4.73113
 20
-4.69268
 30
0.0
 10
-4.09299
 20
-4.05454
 30
0.0
 10
-4.09298
 20
-3.26736
 30
0.0
  0
SPLINE
  5
125
330
1F
100
AcDbEntity
  8
0
370
    15
100
AcDbSpline
210
0.0
220
0.0
230
1.0
 70
     8
 71
     3
 72
    20
 73
    16
 74
     0
 42
0.0000000001
 43
0.0000000001
 40
0.0
 40
0.0
 40
0.0
 40
0.0
 40
0.2
 40
0.2
 40
0.2
 40
0.2
 40
0.4
 40
0.4
 40
0.4
 40
0.4
 40
0.6
 40
0.6
 40
0.6
 40
0.6
 40
1.0
 40
1.0
 40
1.0
 40
1.0
 10
-4.19517
 20
-3.26735
 30
0.0
 10
-4.19517
 20
-2.5366
 30
0.0
 10
-4.78756
 20
-1.94421
 30
0.0
 10
-5.5183
 20
-1.94421
 30
0.0
 10
-5.5183
 20
-1.94421
 30
0.0
 10
-6.24905
 20
-1.94421
 30
0.0
 10
-6.84144
 20
-2.5366
 30
0.0
 10
-6.84144
 20
-3.26735
 30
0.0
 10
-6.84144
 20
-3.26735
 30
0.0
 10
-6.84145
 20
-3.99809
 30
0.0
 10
-6.24906
 20
-4.59048
 30
0.0
 10
-5.51831
 20
-4.59049
 30
0.0
 10
-5.51831
 20
-4.59049
 30
0.0
 10
-4.78756
 20
-4.59049
 30
0.0
 10
-4.19517
 20
-3.9981
 30
0.0
 10
-4.19517
 20
-3.26736
 30
0.0
  0
SPLINE
  5
126
330
1F
100
AcDbEntity
  8
0
370
    15
100
AcDbSpline
210
0.0
220
0.0
230
1.0
 70
     8
 71
     3
 72
    20
 73
    16
 74
     0
 42
0.0000000001
 43
0.0000000001
 40
0.0
 40
0.0
 40
0.0
 40
0.0
 40
0.2
 40
0.2
 40
0.2
 40
0.2
 40
0.4
 40
0.4
 40
0.4
 40
0.4
 40
0.6
 40
0.6
 40
0.6
 40
0.6
 40
1.0
 40
1.0
 40
1.0
 40
1.0
 10
-4.44331
 20
-3.26735
 30
0.0
 10
-4.44331
 20
-2.67364
 30
0.0
 10
-4.9246
 20
-2.19235
 30
0.0
 10
-5.51831
 20
-2.19235
 30
0.0
 10
-5.51831
 20
-2.19235
 30
0.0
 10
-6.11201
 20
-2.19235
 30
0.0
 10
-6.5933
 20
-2.67364
 30
0.0
 10
-6.59331
 20
-3.26735
 30
0.0
 10
-6.59331
 20
-3.26735
 30
0.0
 10
-6.59331
 20
-3.86105
 30
0.0
 10
-6.11202
 20
-4.34235
 30
0.0
 10
-5.51831
 20
-4.34235
 30
0.0
 10
-5.51831
 20
-4.34235
 30
0.0
 10
-4.92461
 20
-4.34235
 30
0.0
 10
-4.44331
 20
-3.86106
 30
0.0
 10
-4.44331
 20
-3.26736
 30
0.0
  0
SPLINE
  5
127
330
1F
100
AcDbEntity
  8
0
370
    15
100
AcDbSpline
210
0.0
220
0.0
230
1.0
 70
    24
 71
     3
 72
     8
 73
     4
 74
     0
 42
0.0000000001
 43
0.0000000001
 40
0.0
 40
0.0
 40
0.0
 40
0.0
 40
1.0
 40
1.0
 40
1.0
 40
1.0
 10
-7.13081
 20
-0.70329
 30
0.0
 10
-7.13081
 20
-0.70329
 30
0.0
 10
-7.13081
 20
-0.66735
 30
0.0
 10
-7.13081
 20
-0.66735
 30
0.0
  0
SPLINE
  5
128
330
1F
100
AcDbEntity
  8
0
370
    15
100
AcDbSpline
210
0.0
220
0.0
230
1.0
 70
     8
 71
     3
 72
    28
 73
    24
 74
     0
 42
0.0000000001
 43
0.0000000001
 40
0.0
 40
0.0
 40
0.0
 40
0.0
 40
0.1428571428571428
 40
0.1428571428571428
 40
0.1428571428571428
 40
0.1428571428571428
 40
0.2857142857142857
 40
0.2857142857142857
 40
0.2857142857142857
 40
0.2857142857142857
 40
0.4285714285714285
 40
0.4285714285714285
 40
0.4285714285714285
 40
0.4285714285714285
 40
0.5714285714285714
 40
0.5714285714285714
 40
0.5714285714285714
 40
0.5714285714285714
 40
0.7142857142857143
 40
0.7142857142857143
 40
0.7142857142857143
 40
0.7142857142857143
 40
1.0
 40
1.0
 40
1.0
 40
1.0
 10
-6.96831
 20
-0.79679
 30
0.0
 10
-6.98389
 20
-0.79568
 30
0.0
 10
-6.99947
 20
-0.79457
 30
0.0
 10
-7.01409
 20
-0.79145
 30
0.0
 10
-7.01409
 20
-0.79145
 30
0.0
 10
-7.02856
 20
-0.78836
 30
0.0
 10
-7.04209
 20
-0.78331
 30
0.0
 10
-7.05435
 20
-0.77761
 30
0.0
 10
-7.05435
 20
-0.77761
 30
0.0
 10
-7.06792
 20
-0.7713
 30
0.0
 10
-7.07994
 20
-0.7642
 30
0.0
 10
-7.09021
 20
-0.75678
 30
0.0
 10
-7.09021
 20
-0.75678
 30
0.0
 10
-7.10263
 20
-0.74781
 30
0.0
 10
-7.11249
 20
-0.73837
 30
0.0
 10
-7.11952
 20
-0.72938
 30
0.0
 10
-7.11952
 20
-0.72938
 30
0.0
 10
-7.12322
 20
-0.72464
 30
0.0
 10
-7.12613
 20
-0.72003
 30
0.0
 10
-7.12788
 20
-0.7157
 30
0.0
 10
-7.12788
 20
-0.7157
 30
0.0
 10
-7.12963
 20
-0.71137
 30
0.0
 10
-7.13022
 20
-0.70733
 30
0.0
 10
-7.13081
 20
-0.70329
 30
0.0
  0
SPLINE
  5
129
330
1F
100
AcDbEntity
  8
0
370
    15
100
AcDbSpline
210
0.0
220
0.0
230
1.0
 70
    24
 71
     3
 72
     8
 73
     4
 74
     0
 42
0.0000000001
 43
0.0000000001
 40
0.0
 40
0.0
 40
0.0
 40
0.0
 40
1.0
 40
1.0
 40
1.0
 40
1.0
 10
-4.06831
 20
-0.79679
 30
0.0
 10
-4.06831
 20
-0.79679
 30
0.0
 10
-6.96831
 20
-0.79679
 30
0.0
 10
-6.96831
 20
-0.79679
 30
0.0
  0
SPLINE
  5
12A
330
1F
100
AcDbEntity
  8
0
370
    15
100
AcDbSpline
210
0.0
220
0.0
230
1.0
 70
     8
 71
     3
 72
    28
 73
    24
 74
     0
 42
0.0000000001
 43
0.0000000001
 40
0.0
 40
0.0
 40
0.0
 40
0.0
 40
0.1428571428571428
 40
0.1428571428571428
 40
0.1428571428571428
 40
0.1428571428571428
 40
0.2857142857142857
 40
0.2857142857142857
 40
0.2857142857142857
 40
0.2857142857142857
 40
0.4285714285714285
 40
0.4285714285714285
 40
0.4285714285714285
 40
0.4285714285714285
 40
0.5714285714285714
 40
0.5714285714285714
 40
0.5714285714285714
 40
0.5714285714285714
 40
0.7142857142857143
 40
0.7142857142857143
 40
0.7142857142857143
 40
0.7142857142857143
 40
1.0
 40
1.0
 40
1.0
 40
1.0
 10
-3.90581
 20
-0.70329
 30
0.0
 10
-3.90794
 20
-0.71138
 30
0.0
 10
-3.91008
 20
-0.71948
 30
0.0
 10
-3.91632
 20
-0.72836
 30
0.0
 10
-3.91632
 20
-0.72836
 30
0.0
 10
-3.92256
 20
-0.73726
 30
0.0
 10
-3.93292
 20
-0.74695
 30
0.0
 10
-3.9455
 20
-0.75612
 30
0.0
 10
-3.9455
 20
-0.75612
 30
0.0
 10
-3.95229
 20
-0.76107
 30
0.0
 10
-3.95973
 20
-0.76587
 30
0.0
 10
-3.96789
 20
-0.77036
 30
0.0
 10
-3.96789
 20
-0.77036
 30
0.0
 10
-3.97604
 20
-0.77485
 30
0.0
 10
-3.98492
 20
-0.77903
 30
0.0
 10
-3.99446
 20
-0.78276
 30
0.0
 10
-3.99446
 20
-0.78276
 30
0.0
 10
-4.00772
 20
-0.78793
 30
0.0
 10
-4.02227
 20
-0.79222
 30
0.0
 10
-4.03749
 20
-0.79438
 30
0.0
 10
-4.03749
 20
-0.79438
 30
0.0
 10
-4.04757
 20
-0.79581
 30
0.0
 10
-4.05794
 20
-0.7963
 30
0.0
 10
-4.06831
 20
-0.79679
 30
0.0
  0
SPLINE
  5
12B
330
1F
100
AcDbEntity
  8
0
370
    15
100
AcDbSpline
210
0.0
220
0.0
230
1.0
 70
    24
 71
     3
 72
     8
 73
     4
 74
     0
 42
0.0000000001
 43
0.0000000001
 40
0.0
 40
0.0
 40
0.0
 40
0.0
 40
1.0
 40
1.0
 40
1.0
 40
1.0
 10
-3.90581
 20
-0.66735
 30
0.0
 10
-3.90581
 20
-0.66735
 30
0.0
 10
-3.90581
 20
-0.70329
 30
0.0
 10
-3.90581
 20
-0.70329
 30
0.0
  0
SPLINE
  5
12C
330
1F
100
AcDbEntity
  8
0
370
    15
100
AcDbSpline
210
0.0
220
0.0
230
1.0
 70
    24
 71
     3
 72
     8
 73
     4
 74
     0
 42
0.0000000001
 43
0.0000000001
 40
0.0
 40
0.0
 40
0.0
 40
0.0
 40
1.0
 40
1.0
 40
1.0
 40
1.0
 10
-3.88627
 20
-0.66735
 30
0.0
 10
-3.88627
 20
-0.66735
 30
0.0
 10
-3.90581
 20
-0.66735
 30
0.0
 10
-3.90581
 20
-0.66735
 30
0.0
  0
SPLINE
  5
12D
330
1F
100
AcDbEntity
  8
0
370
    15
100
AcDbSpline
210
0.0
220
0.0
230
1.0
 70
    24
 71
     3
 72
     8
 73
     4
 74
     0
 42
0.0000000001
 43
0.0000000001
 40
0.0
 40
0.0
 40
0.0
 40
0.0
 40
1.0
 40
1.0
 40
1.0
 40
1.0
 10
-3.88627
 20
-1.21735
 30
0.0
 10
-3.88627
 20
-1.21735
 30
0.0
 10
-3.88627
 20
-0.66735
 30
0.0
 10
-3.88627
 20
-0.66735
 30
0.0
  0
SPLINE
  5
12E
330
1F
100
AcDbEntity
  8
0
370
    15
100
AcDbSpline
210
0.0
220
0.0
230
1.0
 70
    24
 71
     3
 72
     8
 73
     4
 74
     0
 42
0.0000000001
 43
0.0000000001
 40
0.0
 40
0.0
 40
0.0
 40
0.0
 40
1.0
 40
1.0
 40
1.0
 40
1.0
 10
-3.88627
 20
-1.21735
 30
0.0
 10
-3.88627
 20
-1.21735
 30
0.0
 10
-7.15034
 20
-1.21735
 30
0.0
 10
-7.15034
 20
-1.21735
 30
0.0
  0
SPLINE
  5
12F
330
1F
100
AcDbEntity
  8
0
370
    15
100
AcDbSpline
210
0.0
220
0.0
230
1.0
 70
    24
 71
     3
 72
     8
 73
     4
 74
     0
 42
0.0000000001
 43
0.0000000001
 40
0.0
 40
0.0
 40
0.0
 40
0.0
 40
1.0
 40
1.0
 40
1.0
 40
1.0
 10
-7.15034
 20
-0.66735
 30
0.0
 10
-7.15034
 20
-0.66735
 30
0.0
 10
-7.15034
 20
-1.21735
 30
0.0
 10
-7.15034
 20
-1.21735
 30
0.0
  0
SPLINE
  5
130
330
1F
100
AcDbEntity
  8
0
370
    15
100
AcDbSpline
210
0.0
220
0.0
230
1.0
 70
    24
 71
     3
 72
     8
 73
     4
 74
     0
 42
0.0000000001
 43
0.0000000001
 40
0.0
 40
0.0
 40
0.0
 40
0.0
 40
1.0
 40
1.0
 40
1.0
 40
1.0
 10
-7.13081
 20
-0.66735
 30
0.0
 10
-7.13081
 20
-0.66735
 30
0.0
 10
-7.15034
 20
-0.66735
 30
0.0
 10
-7.15034
 20
-0.66735
 30
0.0
  0
SPLINE
  5
131
330
1F
100
AcDbEntity
  8
0
370
    15
100
AcDbSpline
210
0.0
220
0.0
230
1.0
 70
    24
 71
     3
 72
     8
 73
     4
 74
     0
 42
0.0000000001
 43
0.0000000001
 40
0.0
 40
0.0
 40
0.0
 40
0.0
 40
1.0
 40
1.0
 40
1.0
 40
1.0
 10
-7.17416
 20
-1.21735
 30
0.0
 10
-7.17416
 20
-1.21735
 30
0.0
 10
-7.17416
 20
-0.68474
 30
0.0
 10
-7.17416
 20
-0.68474
 30
0.0
  0
SPLINE
  5
132
330
1F
100
AcDbEntity
  8
0
370
    15
100
AcDbSpline
210
0.0
220
0.0
230
1.0
 70
     8
 71
     3
 72
     8
 73
     4
 74
     0
 42
0.0000000001
 43
0.0000000001
 40
0.0
 40
0.0
 40
0.0
 40
0.0
 40
1.0
 40
1.0
 40
1.0
 40
1.0
 10
-7.15034
 20
-0.66735
 30
0.0
 10
-7.16122
 20
-0.66735
 30
0.0
 10
-7.17085
 20
-0.67438
 30
0.0
 10
-7.17416
 20
-0.68474
 30
0.0
  0
SPLINE
  5
133
330
1F
100
AcDbEntity
  8
0
370
    15
100
AcDbSpline
210
0.0
220
0.0
230
1.0
 70
    24
 71
     3
 72
     8
 73
     4
 74
     0
 42
0.0000000001
 43
0.0000000001
 40
0.0
 40
0.0
 40
0.0
 40
0.0
 40
1.0
 40
1.0
 40
1.0
 40
1.0
 10
-7.17416
 20
-1.21735
 30
0.0
 10
-7.17416
 20
-1.21735
 30
0.0
 10
-7.15034
 20
-1.21735
 30
0.0
 10
-7.15034
 20
-1.21735
 30
0.0
  0
SPLINE
  5
134
330
1F
100
AcDbEntity
  8
0
370
    15
100
AcDbSpline
210
0.0
220
0.0
230
1.0
 70
    24
 71
     3
 72
     8
 73
     4
 74
     0
 42
0.0000000001
 43
0.0000000001
 40
0.0
 40
0.0
 40
0.0
 40
0.0
 40
1.0
 40
1.0
 40
1.0
 40
1.0
 10
-3.86246
 20
-0.68474
 30
0.0
 10
-3.86246
 20
-0.68474
 30
0.0
 10
-3.86246
 20
-1.21735
 30
0.0
 10
-3.86246
 20
-1.21735
 30
0.0
  0
SPLINE
  5
135
330
1F
100
AcDbEntity
  8
0
370
    15
100
AcDbSpline
210
0.0
220
0.0
230
1.0
 70
    24
 71
     3
 72
     8
 73
     4
 74
     0
 42
0.0000000001
 43
0.0000000001
 40
0.0
 40
0.0
 40
0.0
 40
0.0
 40
1.0
 40
1.0
 40
1.0
 40
1.0
 10
-3.86246
 20
-1.21735
 30
0.0
 10
-3.86246
 20
-1.21735
 30
0.0
 10
-3.88627
 20
-1.21735
 30
0.0
 10
-3.88627
 20
-1.21735
 30
0.0
  0
SPLINE
  5
136
330
1F
100
AcDbEntity
  8
0
370
    15
100
AcDbSpline
210
0.0
220
0.0
230
1.0
 70
     8
 71
     3
 72
     8
 73
     4
 74
     0
 42
0.0000000001
 43
0.0000000001
 40
0.0
 40
0.0
 40
0.0
 40
0.0
 40
1.0
 40
1.0
 40
1.0
 40
1.0
 10
-3.86246
 20
-0.68474
 30
0.0
 10
-3.86577
 20
-0.67438
 30
0.0
 10
-3.87539
 20
-0.66735
 30
0.0
 10
-3.88627
 20
-0.66735
 30
0.0
  0
SPLINE
  5
137
330
1F
100
AcDbEntity
  8
0
370
    15
100
AcDbSpline
210
0.0
220
0.0
230
1.0
 70
    24
 71
     3
 72
     8
 73
     4
 74
     0
 42
0.0000000001
 43
0.0000000001
 40
0.0
 40
0.0
 40
0.0
 40
0.0
 40
1.0
 40
1.0
 40
1.0
 40
1.0
 10
-3.86246
 20
-1.21735
 30
0.0
 10
-3.86246
 20
-1.21735
 30
0.0
 10
-3.86246
 20
-2.37292
 30
0.0
 10
-3.86246
 20
-2.37292
 30
0.0
  0
SPLINE
  5
138
330
1F
100
AcDbEntity
  8
0
370
    15
100
AcDbSpline
210
0.0
220
0.0
230
1.0
 70
    24
 71
     3
 72
     8
 73
     4
 74
     0
 42
0.0000000001
 43
0.0000000001
 40
0.0
 40
0.0
 40
0.0
 40
0.0
 40
1.0
 40
1.0
 40
1.0
 40
1.0
 10
-7.17416
 20
-2.37292
 30
0.0
 10
-7.17416
 20
-2.37292
 30
0.0
 10
-7.17416
 20
-1.21735
 30
0.0
 10
-7.17416
 20
-1.21735
 30
0.0
  0
SPLINE
  5
139
330
1F
100
AcDbEntity
  8
0
370
    15
100
AcDbSpline
210
0.0
220
0.0
230
1.0
 70
     8
 71
     3
 72
     8
 73
     4
 74
     0
 42
0.0000000001
 43
0.0000000001
 40
0.0
 40
0.0
 40
0.0
 40
0.0
 40
1.0
 40
1.0
 40
1.0
 40
1.0
 10
-7.17416
 20
-0.68474
 30
0.0
 10
-7.19302
 20
-0.74378
 30
0.0
 10
-7.20262
 20
-0.80538
 30
0.0
 10
-7.20262
 20
-0.86735
 30
0.0
  0
SPLINE
  5
13A
330
1F
100
AcDbEntity
  8
0
370
    15
100
AcDbSpline
210
0.0
220
0.0
230
1.0
 70
     8
 71
     3
 72
     8
 73
     4
 74
     0
 42
0.0000000001
 43
0.0000000001
 40
0.0
 40
0.0
 40
0.0
 40
0.0
 40
1.0
 40
1.0
 40
1.0
 40
1.0
 10
-3.83399
 20
-0.86735
 30
0.0
 10
-3.83399
 20
-0.80538
 30
0.0
 10
-3.84359
 20
-0.74378
 30
0.0
 10
-3.86246
 20
-0.68474
 30
0.0
  0
SPLINE
  5
13B
330
1F
100
AcDbEntity
  8
0
370
    15
100
AcDbSpline
210
0.0
220
0.0
230
1.0
 70
    24
 71
     3
 72
     8
 73
     4
 74
     0
 42
0.0000000001
 43
0.0000000001
 40
0.0
 40
0.0
 40
0.0
 40
0.0
 40
1.0
 40
1.0
 40
1.0
 40
1.0
 10
-4.06831
 20
-0.79679
 30
0.0
 10
-4.06831
 20
-0.79679
 30
0.0
 10
-4.06831
 20
-0.78723
 30
0.0
 10
-4.06831
 20
-0.78723
 30
0.0
  0
SPLINE
  5
13C
330
1F
100
AcDbEntity
  8
0
370
    15
100
AcDbSpline
210
0.0
220
0.0
230
1.0
 70
     8
 71
     3
 72
    28
 73
    24
 74
     0
 42
0.0000000001
 43
0.0000000001
 40
0.0
 40
0.0
 40
0.0
 40
0.0
 40
0.1428571428571428
 40
0.1428571428571428
 40
0.1428571428571428
 40
0.1428571428571428
 40
0.2857142857142857
 40
0.2857142857142857
 40
0.2857142857142857
 40
0.2857142857142857
 40
0.4285714285714285
 40
0.4285714285714285
 40
0.4285714285714285
 40
0.4285714285714285
 40
0.5714285714285714
 40
0.5714285714285714
 40
0.5714285714285714
 40
0.5714285714285714
 40
0.7142857142857143
 40
0.7142857142857143
 40
0.7142857142857143
 40
0.7142857142857143
 40
1.0
 40
1.0
 40
1.0
 40
1.0
 10
-4.06831
 20
-0.78723
 30
0.0
 10
-4.05872
 20
-0.78673
 30
0.0
 10
-4.04914
 20
-0.78622
 30
0.0
 10
-4.03986
 20
-0.78477
 30
0.0
 10
-4.03986
 20
-0.78477
 30
0.0
 10
-4.02573
 20
-0.78255
 30
0.0
 10
-4.01231
 20
-0.77814
 30
0.0
 10
-4.00014
 20
-0.77288
 30
0.0
 10
-4.00014
 20
-0.77288
 30
0.0
 10
-3.99141
 20
-0.76911
 30
0.0
 10
-3.98333
 20
-0.76489
 30
0.0
 10
-3.97592
 20
-0.76039
 30
0.0
 10
-3.97592
 20
-0.76039
 30
0.0
 10
-3.96824
 20
-0.75573
 30
0.0
 10
-3.96128
 20
-0.75075
 30
0.0
 10
-3.95495
 20
-0.74564
 30
0.0
 10
-3.95495
 20
-0.74564
 30
0.0
 10
-3.9433
 20
-0.73623
 30
0.0
 10
-3.93376
 20
-0.72633
 30
0.0
 10
-3.92801
 20
-0.71725
 30
0.0
 10
-3.92801
 20
-0.71725
 30
0.0
 10
-3.92226
 20
-0.70816
 30
0.0
 10
-3.92028
 20
-0.69989
 30
0.0
 10
-3.91831
 20
-0.69161
 30
0.0
  0
SPLINE
  5
13D
330
1F
100
AcDbEntity
  8
0
370
    15
100
AcDbSpline
210
0.0
220
0.0
230
1.0
 70
     8
 71
     3
 72
     8
 73
     4
 74
     0
 42
0.0000000001
 43
0.0000000001
 40
0.0
 40
0.0
 40
0.0
 40
0.0
 40
1.0
 40
1.0
 40
1.0
 40
1.0
 10
-3.91831
 20
-0.69161
 30
0.0
 10
-3.91807
 20
-0.69828
 30
0.0
 10
-3.91248
 20
-0.70351
 30
0.0
 10
-3.90581
 20
-0.70329
 30
0.0
  0
SPLINE
  5
13E
330
1F
100
AcDbEntity
  8
0
370
    15
100
AcDbSpline
210
0.0
220
0.0
230
1.0
 70
     8
 71
     3
 72
     8
 73
     4
 74
     0
 42
0.0000000001
 43
0.0000000001
 40
0.0
 40
0.0
 40
0.0
 40
0.0
 40
1.0
 40
1.0
 40
1.0
 40
1.0
 10
-7.13081
 20
-0.70329
 30
0.0
 10
-7.12413
 20
-0.70351
 30
0.0
 10
-7.11854
 20
-0.69828
 30
0.0
 10
-7.11831
 20
-0.69161
 30
0.0
  0
SPLINE
  5
13F
330
1F
100
AcDbEntity
  8
0
370
    15
100
AcDbSpline
210
0.0
220
0.0
230
1.0
 70
     8
 71
     3
 72
    28
 73
    24
 74
     0
 42
0.0000000001
 43
0.0000000001
 40
0.0
 40
0.0
 40
0.0
 40
0.0
 40
0.1428571428571428
 40
0.1428571428571428
 40
0.1428571428571428
 40
0.1428571428571428
 40
0.2857142857142857
 40
0.2857142857142857
 40
0.2857142857142857
 40
0.2857142857142857
 40
0.4285714285714285
 40
0.4285714285714285
 40
0.4285714285714285
 40
0.4285714285714285
 40
0.5714285714285714
 40
0.5714285714285714
 40
0.5714285714285714
 40
0.5714285714285714
 40
0.7142857142857143
 40
0.7142857142857143
 40
0.7142857142857143
 40
0.7142857142857143
 40
1.0
 40
1.0
 40
1.0
 40
1.0
 10
-7.11831
 20
-0.69161
 30
0.0
 10
-7.11776
 20
-0.69574
 30
0.0
 10
-7.11722
 20
-0.69988
 30
0.0
 10
-7.11561
 20
-0.7043
 30
0.0
 10
-7.11561
 20
-0.7043
 30
0.0
 10
-7.11399
 20
-0.70873
 30
0.0
 10
-7.1113
 20
-0.71345
 30
0.0
 10
-7.10789
 20
-0.71829
 30
0.0
 10
-7.10789
 20
-0.71829
 30
0.0
 10
-7.10141
 20
-0.72747
 30
0.0
 10
-7.09234
 20
-0.7371
 30
0.0
 10
-7.08083
 20
-0.74631
 30
0.0
 10
-7.08083
 20
-0.74631
 30
0.0
 10
-7.0714
 20
-0.75386
 30
0.0
 10
-7.06033
 20
-0.76112
 30
0.0
 10
-7.04773
 20
-0.76761
 30
0.0
 10
-7.04773
 20
-0.76761
 30
0.0
 10
-7.03649
 20
-0.77341
 30
0.0
 10
-7.02402
 20
-0.7786
 30
0.0
 10
-7.01057
 20
-0.78177
 30
0.0
 10
-7.01057
 20
-0.78177
 30
0.0
 10
-6.99714
 20
-0.78494
 30
0.0
 10
-6.98272
 20
-0.78608
 30
0.0
 10
-6.96831
 20
-0.78723
 30
0.0
  0
SPLINE
  5
140
330
1F
100
AcDbEntity
  8
0
370
    15
100
AcDbSpline
210
0.0
220
0.0
230
1.0
 70
    24
 71
     3
 72
     8
 73
     4
 74
     0
 42
0.0000000001
 43
0.0000000001
 40
0.0
 40
0.0
 40
0.0
 40
0.0
 40
1.0
 40
1.0
 40
1.0
 40
1.0
 10
-6.96831
 20
-0.79679
 30
0.0
 10
-6.96831
 20
-0.79679
 30
0.0
 10
-6.96831
 20
-0.78723
 30
0.0
 10
-6.96831
 20
-0.78723
 30
0.0
  0
SPLINE
  5
141
330
1F
100
AcDbEntity
  8
0
370
    15
100
AcDbSpline
210
0.0
220
0.0
230
1.0
 70
    24
 71
     3
 72
     8
 73
     4
 74
     0
 42
0.0000000001
 43
0.0000000001
 40
0.0
 40
0.0
 40
0.0
 40
0.0
 40
1.0
 40
1.0
 40
1.0
 40
1.0
 10
-6.96831
 20
-0.78723
 30
0.0
 10
-6.96831
 20
-0.78723
 30
0.0
 10
-4.06831
 20
-0.78723
 30
0.0
 10
-4.06831
 20
-0.78723
 30
0.0
  0
SPLINE
  5
142
330
1F
100
AcDbEntity
  8
0
370
    15
100
AcDbSpline
210
0.0
220
0.0
230
1.0
 70
    24
 71
     3
 72
     8
 73
     4
 74
     0
 42
0.0000000001
 43
0.0000000001
 40
0.0
 40
0.0
 40
0.0
 40
0.0
 40
1.0
 40
1.0
 40
1.0
 40
1.0
 10
-6.96831
 20
-0.56735
 30
0.0
 10
-6.96831
 20
-0.56735
 30
0.0
 10
-6.96831
 20
-0.78723
 30
0.0
 10
-6.96831
 20
-0.78723
 30
0.0
  0
SPLINE
  5
143
330
1F
100
AcDbEntity
  8
0
370
    15
100
AcDbSpline
210
0.0
220
0.0
230
1.0
 70
    24
 71
     3
 72
     8
 73
     4
 74
     0
 42
0.0000000001
 43
0.0000000001
 40
0.0
 40
0.0
 40
0.0
 40
0.0
 40
1.0
 40
1.0
 40
1.0
 40
1.0
 10
-7.11831
 20
-0.69161
 30
0.0
 10
-7.11831
 20
-0.69161
 30
0.0
 10
-7.11831
 20
-0.56735
 30
0.0
 10
-7.11831
 20
-0.56735
 30
0.0
  0
SPLINE
  5
144
330
1F
100
AcDbEntity
  8
0
370
    15
100
AcDbSpline
210
0.0
220
0.0
230
1.0
 70
    24
 71
     3
 72
     8
 73
     4
 74
     0
 42
0.0000000001
 43
0.0000000001
 40
0.0
 40
0.0
 40
0.0
 40
0.0
 40
1.0
 40
1.0
 40
1.0
 40
1.0
 10
-7.11831
 20
-0.56735
 30
0.0
 10
-7.11831
 20
-0.56735
 30
0.0
 10
-6.96831
 20
-0.56735
 30
0.0
 10
-6.96831
 20
-0.56735
 30
0.0
  0
SPLINE
  5
145
330
1F
100
AcDbEntity
  8
0
370
    15
100
AcDbSpline
210
0.0
220
0.0
230
1.0
 70
    24
 71
     3
 72
     8
 73
     4
 74
     0
 42
0.0000000001
 43
0.0000000001
 40
0.0
 40
0.0
 40
0.0
 40
0.0
 40
1.0
 40
1.0
 40
1.0
 40
1.0
 10
-3.91831
 20
-0.56735
 30
0.0
 10
-3.91831
 20
-0.56735
 30
0.0
 10
-3.91831
 20
-0.69161
 30
0.0
 10
-3.91831
 20
-0.69161
 30
0.0
  0
SPLINE
  5
146
330
1F
100
AcDbEntity
  8
0
370
    15
100
AcDbSpline
210
0.0
220
0.0
230
1.0
 70
    24
 71
     3
 72
     8
 73
     4
 74
     0
 42
0.0000000001
 43
0.0000000001
 40
0.0
 40
0.0
 40
0.0
 40
0.0
 40
1.0
 40
1.0
 40
1.0
 40
1.0
 10
-4.06831
 20
-0.78723
 30
0.0
 10
-4.06831
 20
-0.78723
 30
0.0
 10
-4.06831
 20
-0.56735
 30
0.0
 10
-4.06831
 20
-0.56735
 30
0.0
  0
SPLINE
  5
147
330
1F
100
AcDbEntity
  8
0
370
    15
100
AcDbSpline
210
0.0
220
0.0
230
1.0
 70
    24
 71
     3
 72
     8
 73
     4
 74
     0
 42
0.0000000001
 43
0.0000000001
 40
0.0
 40
0.0
 40
0.0
 40
0.0
 40
1.0
 40
1.0
 40
1.0
 40
1.0
 10
-4.06831
 20
-0.56735
 30
0.0
 10
-4.06831
 20
-0.56735
 30
0.0
 10
-3.91831
 20
-0.56735
 30
0.0
 10
-3.91831
 20
-0.56735
 30
0.0
  0
SPLINE
  5
148
330
1F
100
AcDbEntity
  8
0
370
    15
100
AcDbSpline
210
0.0
220
0.0
230
1.0
 70
    24
 71
     3
 72
     8
 73
     4
 74
     0
 42
0.0000000001
 43
0.0000000001
 40
0.0
 40
0.0
 40
0.0
 40
0.0
 40
1.0
 40
1.0
 40
1.0
 40
1.0
 10
-6.96831
 20
-0.56735
 30
0.0
 10
-6.96831
 20
-0.56735
 30
0.0
 10
-4.06831
 20
-0.56735
 30
0.0
 10
-4.06831
 20
-0.56735
 30
0.0
  0
SPLINE
  5
149
330
1F
100
AcDbEntity
  8
0
370
    15
100
AcDbSpline
210
0.0
220
0.0
230
1.0
 70
     8
 71
     3
 72
    12
 73
     8
 74
     0
 42
0.0000000001
 43
0.0000000001
 40
0.0
 40
0.0
 40
0.0
 40
0.0
 40
0.3333333333333333
 40
0.3333333333333333
 40
0.3333333333333333
 40
0.3333333333333333
 40
1.0
 40
1.0
 40
1.0
 40
1.0
 10
-3.91831
 20
-0.65485
 30
0.0
 10
-3.91831
 20
-0.65817
 30
0.0
 10
-3.91699
 20
-0.66134
 30
0.0
 10
-3.91465
 20
-0.66369
 30
0.0
 10
-3.91465
 20
-0.66369
 30
0.0
 10
-3.9123
 20
-0.66603
 30
0.0
 10
-3.90912
 20
-0.66735
 30
0.0
 10
-3.90581
 20
-0.66735
 30
0.0
  0
SPLINE
  5
14A
330
1F
100
AcDbEntity
  8
0
370
    15
100
AcDbSpline
210
0.0
220
0.0
230
1.0
 70
     8
 71
     3
 72
     8
 73
     4
 74
     0
 42
0.0000000001
 43
0.0000000001
 40
0.0
 40
0.0
 40
0.0
 40
0.0
 40
1.0
 40
1.0
 40
1.0
 40
1.0
 10
-7.13081
 20
-0.66735
 30
0.0
 10
-7.1239
 20
-0.66735
 30
0.0
 10
-7.11831
 20
-0.66175
 30
0.0
 10
-7.11831
 20
-0.65485
 30
0.0
  0
SPLINE
  5
14B
330
1F
100
AcDbEntity
  8
0
370
    15
100
AcDbSpline
210
0.0
220
0.0
230
1.0
 70
    24
 71
     3
 72
     8
 73
     4
 74
     0
 42
0.0000000001
 43
0.0000000001
 40
0.0
 40
0.0
 40
0.0
 40
0.0
 40
1.0
 40
1.0
 40
1.0
 40
1.0
 10
-6.79227
 20
-0.55235
 30
0.0
 10
-6.79227
 20
-0.55235
 30
0.0
 10
-6.80581
 20
-0.55235
 30
0.0
 10
-6.80581
 20
-0.55235
 30
0.0
  0
SPLINE
  5
14C
330
1F
100
AcDbEntity
  8
0
370
    15
100
AcDbSpline
210
0.0
220
0.0
230
1.0
 70
    24
 71
     3
 72
     8
 73
     4
 74
     0
 42
0.0000000001
 43
0.0000000001
 40
0.0
 40
0.0
 40
0.0
 40
0.0
 40
1.0
 40
1.0
 40
1.0
 40
1.0
 10
-6.79227
 20
-0.55235
 30
0.0
 10
-6.79227
 20
-0.55235
 30
0.0
 10
-6.79227
 20
-0.56735
 30
0.0
 10
-6.79227
 20
-0.56735
 30
0.0
  0
SPLINE
  5
14D
330
1F
100
AcDbEntity
  8
0
370
    15
100
AcDbSpline
210
0.0
220
0.0
230
1.0
 70
    24
 71
     3
 72
     8
 73
     4
 74
     0
 42
0.0000000001
 43
0.0000000001
 40
0.0
 40
0.0
 40
0.0
 40
0.0
 40
1.0
 40
1.0
 40
1.0
 40
1.0
 10
-6.80581
 20
-0.55235
 30
0.0
 10
-6.80581
 20
-0.55235
 30
0.0
 10
-6.80581
 20
-0.56735
 30
0.0
 10
-6.80581
 20
-0.56735
 30
0.0
  0
SPLINE
  5
14E
330
1F
100
AcDbEntity
  8
0
370
    15
100
AcDbSpline
210
0.0
220
0.0
230
1.0
 70
    24
 71
     3
 72
     8
 73
     4
 74
     0
 42
0.0000000001
 43
0.0000000001
 40
0.0
 40
0.0
 40
0.0
 40
0.0
 40
1.0
 40
1.0
 40
1.0
 40
1.0
 10
-4.23081
 20
-0.56735
 30
0.0
 10
-4.23081
 20
-0.56735
 30
0.0
 10
-4.23081
 20
-0.55235
 30
0.0
 10
-4.23081
 20
-0.55235
 30
0.0
  0
SPLINE
  5
14F
330
1F
100
AcDbEntity
  8
0
370
    15
100
AcDbSpline
210
0.0
220
0.0
230
1.0
 70
    24
 71
     3
 72
     8
 73
     4
 74
     0
 42
0.0000000001
 43
0.0000000001
 40
0.0
 40
0.0
 40
0.0
 40
0.0
 40
1.0
 40
1.0
 40
1.0
 40
1.0
 10
-4.24434
 20
-0.56735
 30
0.0
 10
-4.24434
 20
-0.56735
 30
0.0
 10
-4.24434
 20
-0.55235
 30
0.0
 10
-4.24434
 20
-0.55235
 30
0.0
  0
SPLINE
  5
150
330
1F
100
AcDbEntity
  8
0
370
    15
100
AcDbSpline
210
0.0
220
0.0
230
1.0
 70
    24
 71
     3
 72
     8
 73
     4
 74
     0
 42
0.0000000001
 43
0.0000000001
 40
0.0
 40
0.0
 40
0.0
 40
0.0
 40
1.0
 40
1.0
 40
1.0
 40
1.0
 10
-4.24434
 20
-0.55235
 30
0.0
 10
-4.24434
 20
-0.55235
 30
0.0
 10
-4.23081
 20
-0.55235
 30
0.0
 10
-4.23081
 20
-0.55235
 30
0.0
  0
SPLINE
  5
151
330
1F
100
AcDbEntity
  8
0
370
    15
100
AcDbSpline
210
0.0
220
0.0
230
1.0
 70
    24
 71
     3
 72
     8
 73
     4
 74
     0
 42
0.0000000001
 43
0.0000000001
 40
0.0
 40
0.0
 40
0.0
 40
0.0
 40
1.0
 40
1.0
 40
1.0
 40
1.0
 10
-4.24434
 20
-0.55235
 30
0.0
 10
-4.24434
 20
-0.55235
 30
0.0
 10
-6.79227
 20
-0.55235
 30
0.0
 10
-6.79227
 20
-0.55235
 30
0.0
  0
SPLINE
  5
152
330
1F
100
AcDbEntity
  8
0
 62
     8
370
    15
100
AcDbSpline
210
0.0
220
0.0
230
1.0
 70
    24
 71
     3
 72
     8
 73
     4
 74
     0
 42
0.0000000001
 43
0.0000000001
 40
0.0
 40
0.0
 40
0.0
 40
0.0
 40
1.0
 40
1.0
 40
1.0
 40
1.0
 10
-3.86246
 20
-2.37292
 30
0.0
 10
-3.86246
 20
-2.37292
 30
0.0
 10
-3.88183
 20
-2.37292
 30
0.0
 10
-3.88183
 20
-2.37292
 30
0.0
  0
SPLINE
  5
153
330
1F
100
AcDbEntity
  8
0
 62
     8
370
    15
100
AcDbSpline
210
0.0
220
0.0
230
1.0
 70
    24
 71
     3
 72
     8
 73
     4
 74
     0
 42
0.0000000001
 43
0.0000000001
 40
0.0
 40
0.0
 40
0.0
 40
0.0
 40
1.0
 40
1.0
 40
1.0
 40
1.0
 10
-3.88627
 20
-2.36485
 30
0.0
 10
-3.88627
 20
-2.36485
 30
0.0
 10
-3.88627
 20
-1.21735
 30
0.0
 10
-3.88627
 20
-1.21735
 30
0.0
  0
SPLINE
  5
154
330
1F
100
AcDbEntity
  8
0
 62
     8
370
    15
100
AcDbSpline
210
0.0
220
0.0
230
1.0
 70
    24
 71
     3
 72
     8
 73
     4
 74
     0
 42
0.0000000001
 43
0.0000000001
 40
0.0
 40
0.0
 40
0.0
 40
0.0
 40
1.0
 40
1.0
 40
1.0
 40
1.0
 10
-7.15034
 20
-1.21735
 30
0.0
 10
-7.15034
 20
-1.21735
 30
0.0
 10
-7.15034
 20
-2.36485
 30
0.0
 10
-7.15034
 20
-2.36485
 30
0.0
  0
SPLINE
  5
155
330
1F
100
AcDbEntity
  8
0
 62
     8
370
    15
100
AcDbSpline
210
0.0
220
0.0
230
1.0
 70
    24
 71
     3
 72
     8
 73
     4
 74
     0
 42
0.0000000001
 43
0.0000000001
 40
0.0
 40
0.0
 40
0.0
 40
0.0
 40
1.0
 40
1.0
 40
1.0
 40
1.0
 10
-7.17416
 20
-2.37292
 30
0.0
 10
-7.17416
 20
-2.37292
 30
0.0
 10
-7.15478
 20
-2.37292
 30
0.0
 10
-7.15478
 20
-2.37292
 30
0.0
  0
SPLINE
  5
156
330
1F
100
AcDbEntity
  8
0
 62
     8
370
    15
100
AcDbSpline
210
0.0
220
0.0
230
1.0
 70
     8
 71
     3
 72
     8
 73
     4
 74
     0
 42
0.0000000001
 43
0.0000000001
 40
0.0
 40
0.0
 40
0.0
 40
0.0
 40
1.0
 40
1.0
 40
1.0
 40
1.0
 10
-3.86246
 20
-2.37292
 30
0.0
 10
-3.86246
 20
-2.38776
 30
0.0
 10
-3.8611
 20
-2.40257
 30
0.0
 10
-3.85841
 20
-2.41716
 30
0.0
  0
SPLINE
  5
157
330
1F
100
AcDbEntity
  8
0
 62
     8
370
    15
100
AcDbSpline
210
0.0
220
0.0
230
1.0
 70
     8
 71
     3
 72
     8
 73
     4
 74
     0
 42
0.0000000001
 43
0.0000000001
 40
0.0
 40
0.0
 40
0.0
 40
0.0
 40
1.0
 40
1.0
 40
1.0
 40
1.0
 10
-7.1782
 20
-2.41716
 30
0.0
 10
-7.17551
 20
-2.40257
 30
0.0
 10
-7.17416
 20
-2.38776
 30
0.0
 10
-7.17416
 20
-2.37292
 30
0.0
  0
SPLINE
  5
158
330
1F
100
AcDbEntity
  8
0
 62
     8
370
    15
100
AcDbSpline
210
0.0
220
0.0
230
1.0
 70
    24
 71
     3
 72
     8
 73
     4
 74
     0
 42
0.0000000001
 43
0.0000000001
 40
0.0
 40
0.0
 40
0.0
 40
0.0
 40
1.0
 40
1.0
 40
1.0
 40
1.0
 10
-7.17416
 20
-1.21735
 30
0.0
 10
-7.17416
 20
-1.21735
 30
0.0
 10
-7.20262
 20
-1.21735
 30
0.0
 10
-7.20262
 20
-1.21735
 30
0.0
  0
SPLINE
  5
159
330
1F
100
AcDbEntity
  8
0
 62
     8
370
    15
100
AcDbSpline
210
0.0
220
0.0
230
1.0
 70
    24
 71
     3
 72
     8
 73
     4
 74
     0
 42
0.0000000001
 43
0.0000000001
 40
0.0
 40
0.0
 40
0.0
 40
0.0
 40
1.0
 40
1.0
 40
1.0
 40
1.0
 10
-3.86246
 20
-1.21735
 30
0.0
 10
-3.86246
 20
-1.21735
 30
0.0
 10
-3.83399
 20
-1.21735
 30
0.0
 10
-3.83399
 20
-1.21735
 30
0.0
  0
SPLINE
  5
15A
330
1F
100
AcDbEntity
  8
0
 62
     8
370
    15
100
AcDbSpline
210
0.0
220
0.0
230
1.0
 70
    24
 71
     3
 72
     8
 73
     4
 74
     0
 42
0.0000000001
 43
0.0000000001
 40
0.0
 40
0.0
 40
0.0
 40
0.0
 40
1.0
 40
1.0
 40
1.0
 40
1.0
 10
-3.86246
 20
-2.37292
 30
0.0
 10
-3.86246
 20
-2.37292
 30
0.0
 10
-3.83399
 20
-2.37292
 30
0.0
 10
-3.83399
 20
-2.37292
 30
0.0
  0
SPLINE
  5
15B
330
1F
100
AcDbEntity
  8
0
 62
     8
370
    15
100
AcDbSpline
210
0.0
220
0.0
230
1.0
 70
    24
 71
     3
 72
     8
 73
     4
 74
     0
 42
0.0000000001
 43
0.0000000001
 40
0.0
 40
0.0
 40
0.0
 40
0.0
 40
1.0
 40
1.0
 40
1.0
 40
1.0
 10
-7.17416
 20
-2.37292
 30
0.0
 10
-7.17416
 20
-2.37292
 30
0.0
 10
-7.20262
 20
-2.37292
 30
0.0
 10
-7.20262
 20
-2.37292
 30
0.0
  0
SPLINE
  5
15C
330
1F
100
AcDbEntity
  8
0
 62
     8
370
    15
100
AcDbSpline
210
0.0
220
0.0
230
1.0
 70
    24
 71
     3
 72
     8
 73
     4
 74
     0
 42
0.0000000001
 43
0.0000000001
 40
0.0
 40
0.0
 40
0.0
 40
0.0
 40
1.0
 40
1.0
 40
1.0
 40
1.0
 10
-3.83097
 20
-2.47303
 30
0.0
 10
-3.83097
 20
-2.47303
 30
0.0
 10
-3.81345
 20
-2.46479
 30
0.0
 10
-3.81345
 20
-2.46479
 30
0.0
  0
SPLINE
  5
15D
330
1F
100
AcDbEntity
  8
0
 62
     8
370
    15
100
AcDbSpline
210
0.0
220
0.0
230
1.0
 70
    24
 71
     3
 72
     8
 73
     4
 74
     0
 42
0.0000000001
 43
0.0000000001
 40
0.0
 40
0.0
 40
0.0
 40
0.0
 40
1.0
 40
1.0
 40
1.0
 40
1.0
 10
-7.20565
 20
-2.47303
 30
0.0
 10
-7.20565
 20
-2.47303
 30
0.0
 10
-7.22316
 20
-2.46479
 30
0.0
 10
-7.22316
 20
-2.46479
 30
0.0
  0
ENDSEC
  0
SECTION
  2
OBJECTS
  0
DICTIONARY
  5
C
330
0
100
AcDbDictionary
281
     1
  3
ACAD_GROUP
350
D
  3
ACAD_LAYOUT
350
1A
  3
ACAD_MATERIAL
350
3B
  3
ACAD_MLEADERSTYLE
350
17F
  3
ACAD_MLINESTYLE
350
17
  3
ACAD_PLOTSETTINGS
350
19
  3
ACAD_PLOTSTYLENAME
350
E
  3
ACAD_TABLESTYLE
350
17E
  3
ACAD_VISUALSTYLE
350
2A
  0
DICTIONARY
  5
D
102
{ACAD_REACTORS
330
C
102
}
330
C
100
AcDbDictionary
281
     1
  0
DICTIONARY
  5
1A
102
{ACAD_REACTORS
330
C
102
}
330
C
100
AcDbDictionary
281
     1
  3
Layout1
350
1E
  3
Layout2
350
26
  3
Model
350
22
  0
DICTIONARY
  5
3B
102
{ACAD_REACTORS
330
C
102
}
330
C
100
AcDbDictionary
281
     1
  3
ByBlock
350
3D
  3
ByLayer
350
3C
  3
Global
350
3E
  0
DICTIONARY
  5
17F
102
{ACAD_REACTORS
330
C
102
}
330
C
100
AcDbDictionary
281
     1
  0
DICTIONARY
  5
17
102
{ACAD_REACTORS
330
C
102
}
330
C
100
AcDbDictionary
281
     1
  3
Standard
350
18
  0
DICTIONARY
  5
19
102
{ACAD_REACTORS
330
C
102
}
330
C
100
AcDbDictionary
281
     1
  0
ACDBDICTIONARYWDFLT
  5
E
102
{ACAD_REACTORS
330
C
102
}
330
C
100
AcDbDictionary
281
     1
  3
Normal
350
F
100
AcDbDictionaryWithDefault
340
F
  0
DICTIONARY
  5
17E
102
{ACAD_REACTORS
330
C
102
}
330
C
100
AcDbDictionary
281
     1
  0
DICTIONARY
  5
2A
102
{ACAD_REACTORS
330
C
102
}
330
C
100
AcDbDictionary
281
     1
  3
2dWireframe
350
2F
  3
3D Hidden
350
31
  3
3dWireframe
350
30
  3
Basic
350
32
  3
Brighten
350
36
  3
ColorChange
350
3A
  3
Conceptual
350
34
  3
Dim
350
35
  3
Facepattern
350
39
  3
Flat
350
2B
  3
FlatWithEdges
350
2C
  3
Gouraud
350
2D
  3
GouraudWithEdges
350
2E
  3
Linepattern
350
38
  3
Realistic
350
33
  3
Thicken
350
37
  0
LAYOUT
  5
1E
102
{ACAD_REACTORS
330
1A
102
}
330
1A
100
AcDbPlotSettings
  1

  2
none_device
  4

  6

 40
0.0
 41
0.0
 42
0.0
 43
0.0
 44
0.0
 45
0.0
 46
0.0
 47
0.0
 48
0.0
 49
0.0
140
0.0
141
0.0
142
1.0
143
1.0
 70
   688
 72
     0
 73
     0
 74
     5
  7

 75
    16
 76
     0
 77
     2
 78
   300
147
1.0
148
0.0
149
0.0
100
AcDbLayout
  1
Layout1
 70
     1
 71
     1
 10
0.0
 20
0.0
 11
12.0
 21
9.0
 12
0.0
 22
0.0
 32
0.0
 14
1.000000000000000E+20
 24
1.000000000000000E+20
 34
1.000000000000000E+20
 15
-1.000000000000000E+20
 25
-1.000000000000000E+20
 35
-1.000000000000000E+20
146
0.0
 13
0.0
 23
0.0
 33
0.0
 16
1.0
 26
0.0
 36
0.0
 17
0.0
 27
1.0
 37
0.0
 76
     0
330
1B
  0
LAYOUT
  5
26
102
{ACAD_REACTORS
330
1A
102
}
330
1A
100
AcDbPlotSettings
  1

  2
none_device
  4

  6

 40
0.0
 41
0.0
 42
0.0
 43
0.0
 44
0.0
 45
0.0
 46
0.0
 47
0.0
 48
0.0
 49
0.0
140
0.0
141
0.0
142
1.0
143
1.0
 70
   688
 72
     0
 73
     0
 74
     5
  7

 75
    16
 76
     0
 77
     2
 78
   300
147
1.0
148
0.0
149
0.0
100
AcDbLayout
  1
Layout2
 70
     1
 71
     2
 10
0.0
 20
0.0
 11
0.0
 21
0.0
 12
0.0
 22
0.0
 32
0.0
 14
0.0
 24
0.0
 34
0.0
 15
0.0
 25
0.0
 35
0.0
146
0.0
 13
0.0
 23
0.0
 33
0.0
 16
1.0
 26
0.0
 36
0.0
 17
0.0
 27
1.0
 37
0.0
 76
     0
330
23
  0
LAYOUT
  5
22
102
{ACAD_REACTORS
330
1A
102
}
330
1A
100
AcDbPlotSettings
  1

  2
none_device
  4

  6

 40
0.0
 41
0.0
 42
0.0
 43
0.0
 44
0.0
 45
0.0
 46
0.0
 47
0.0
 48
0.0
 49
0.0
140
0.0
141
0.0
142
1.0
143
1.0
 70
  1712
 72
     0
 73
     0
 74
     0
  7

 75
     0
 76
     0
 77
     2
 78
   300
147
1.0
148
0.0
149
0.0
100
AcDbLayout
  1
Model
 70
     1
 71
     0
 10
0.0
 20
0.0
 11
12.0
 21
9.0
 12
0.0
 22
0.0
 32
0.0
 14
-7.41013
 24
-5.15916
 34
0.0
 15
7.84946
 25
10.50874
 35
0.0
146
0.0
 13
0.0
 23
0.0
 33
0.0
 16
1.0
 26
0.0
 36
0.0
 17
0.0
 27
1.0
 37
0.0
 76
     0
330
1F
331
29
  0
MATERIAL
  5
3D
102
{ACAD_REACTORS
330
3B
102
}
330
3B
100
AcDbMaterial
  1
ByBlock
 72
     1
 94
      127
  0
MATERIAL
  5
3C
102
{ACAD_REACTORS
330
3B
102
}
330
3B
100
AcDbMaterial
  1
ByLayer
 72
     1
 94
      127
  0
MATERIAL
  5
3E
102
{ACAD_REACTORS
330
3B
102
}
330
3B
100
AcDbMaterial
  1
Global
 72
     1
 94
      127
  0
MLINESTYLE
  5
18
102
{ACAD_REACTORS
330
17
102
}
330
17
100
AcDbMlineStyle
  2
Standard
 70
     0
  3

 62
   256
 51
90.0
 52
90.0
 71
     2
 49
0.5
 62
   256
  6
BYLAYER
 49
-0.5
 62
   256
  6
BYLAYER
  0
ACDBPLACEHOLDER
  5
F
102
{ACAD_REACTORS
330
E
102
}
330
E
  0
VISUALSTYLE
  5
2F
102
{ACAD_REACTORS
330
2A
102
}
102
{ACAD_XDICTIONARY
360
166
102
}
330
2A
100
AcDbVisualStyle
  2
2dWireframe
 70
     4
 71
     0
 72
     2
 73
     0
 90
        0
 40
-0.6
 41
-30.0
 62
     5
 63
     7
421
 16777215
 74
     1
 91
        4
 64
     7
 65
   257
 75
     1
175
     1
 42
1.0
 92
        0
 66
   257
 43
1.0
 76
     1
 77
     6
 78
     2
 67
     7
 79
     5
170
     0
171
     0
290
     0
174
     0
 93
        1
 44
0.0
173
     0
291
     0
 45
0.0
  0
VISUALSTYLE
  5
31
102
{ACAD_REACTORS
330
2A
102
}
102
{ACAD_XDICTIONARY
360
16A
102
}
330
2A
100
AcDbVisualStyle
  2
3D Hidden
 70
     6
 71
     1
 72
     2
 73
     2
 90
        0
 40
-0.6
 41
-30.0
 62
     5
 63
     7
421
 16777215
 74
     2
 91
        2
 64
     7
 65
   257
 75
     2
175
     1
 42
40.0
 92
        0
 66
   257
 43
1.0
 76
     1
 77
     6
 78
     2
 67
     7
 79
     3
170
     0
171
     0
290
     0
174
     0
 93
        1
 44
0.0
173
     0
291
     0
 45
0.0
  0
VISUALSTYLE
  5
30
102
{ACAD_REACTORS
330
2A
102
}
102
{ACAD_XDICTIONARY
360
168
102
}
330
2A
100
AcDbVisualStyle
  2
3dWireframe
 70
     5
 71
     0
 72
     2
 73
     0
 90
        0
 40
-0.6
 41
-30.0
 62
     5
 63
     7
421
 16777215
 74
     1
 91
        4
 64
     7
 65
   257
 75
     1
175
     1
 42
1.0
 92
        0
 66
   257
 43
1.0
 76
     1
 77
     6
 78
     2
 67
     7
 79
     5
170
     0
171
     0
290
     0
174
     0
 93
        1
 44
0.0
173
     0
291
     0
 45
0.0
  0
VISUALSTYLE
  5
32
102
{ACAD_REACTORS
330
2A
102
}
102
{ACAD_XDICTIONARY
360
16C
102
}
330
2A
100
AcDbVisualStyle
  2
Basic
 70
     7
 71
     1
 72
     0
 73
     1
 90
        0
 40
-0.6
 41
-30.0
 62
     5
 63
     7
421
 16777215
 74
     0
 91
        4
 64
     7
 65
   257
 75
     1
175
     1
 42
1.0
 92
        8
 66
     7
 43
1.0
 76
     1
 77
     6
 78
     2
 67
     7
 79
     5
170
     0
171
     0
290
     0
174
     0
 93
        1
 44
0.0
173
     0
291
     1
 45
0.0
  0
VISUALSTYLE
  5
36
102
{ACAD_REACTORS
330
2A
102
}
102
{ACAD_XDICTIONARY
360
174
102
}
330
2A
100
AcDbVisualStyle
  2
Brighten
 70
    12
 71
     2
 72
     2
 73
     0
 90
        0
 40
-0.6
 41
-30.0
 62
     5
 63
     7
421
 16777215
 74
     1
 91
        4
 64
     7
 65
   257
 75
     1
175
     1
 42
1.0
 92
        8
 66
     7
 43
1.0
 76
     1
 77
     6
 78
     2
 67
     7
 79
     5
170
     0
171
     0
290
     0
174
     0
 93
        1
 44
50.0
173
     0
291
     1
 45
0.0
  0
VISUALSTYLE
  5
3A
102
{ACAD_REACTORS
330
2A
102
}
102
{ACAD_XDICTIONARY
360
17C
102
}
330
2A
100
AcDbVisualStyle
  2
ColorChange
 70
    16
 71
     2
 72
     2
 73
     3
 90
        0
 40
-0.6
 41
-30.0
 62
     5
 63
     8
421
  8421504
 74
     1
 91
        4
 64
     7
 65
   257
 75
     1
175
     1
 42
1.0
 92
        8
 66
     8
424
  8421504
 43
1.0
 76
     1
 77
     6
 78
     2
 67
     7
 79
     5
170
     0
171
     0
290
     0
174
     0
 93
        1
 44
0.0
173
     0
291
     1
 45
0.0
  0
VISUALSTYLE
  5
34
102
{ACAD_REACTORS
330
2A
102
}
102
{ACAD_XDICTIONARY
360
170
102
}
330
2A
100
AcDbVisualStyle
  2
Conceptual
 70
     9
 71
     3
 72
     2
 73
     0
 90
        0
 40
-0.6
 41
-30.0
 62
     5
 63
     7
421
 16777215
 74
     2
 91
        2
 64
     7
 65
   257
 75
     1
175
     1
 42
40.0
 92
        8
 66
     7
 43
1.0
 76
     1
 77
     6
 78
     2
 67
     7
 79
     3
170
     0
171
     0
290
     0
174
     0
 93
        1
 44
0.0
173
     0
291
     0
 45
0.0
  0
VISUALSTYLE
  5
35
102
{ACAD_REACTORS
330
2A
102
}
102
{ACAD_XDICTIONARY
360
172
102
}
330
2A
100
AcDbVisualStyle
  2
Dim
 70
    11
 71
     2
 72
     2
 73
     0
 90
        0
 40
-0.6
 41
-30.0
 62
     5
 63
     7
421
 16777215
 74
     1
 91
        4
 64
     7
 65
   257
 75
     1
175
     1
 42
1.0
 92
        8
 66
     7
 43
1.0
 76
     1
 77
     6
 78
     2
 67
     7
 79
     5
170
     0
171
     0
290
     0
174
     0
 93
        1
 44
-50.0
173
     0
291
     1
 45
0.0
  0
VISUALSTYLE
  5
39
102
{ACAD_REACTORS
330
2A
102
}
102
{ACAD_XDICTIONARY
360
17A
102
}
330
2A
100
AcDbVisualStyle
  2
Facepattern
 70
    15
 71
     2
 72
     2
 73
     0
 90
        0
 40
-0.6
 41
-30.0
 62
     5
 63
     7
421
 16777215
 74
     1
 91
        4
 64
     7
 65
   257
 75
     1
175
     1
 42
1.0
 92
        8
 66
     7
 43
1.0
 76
     1
 77
     6
 78
     2
 67
     7
 79
     5
170
     0
171
     0
290
     0
174
     0
 93
        1
 44
0.0
173
     0
291
     1
 45
0.0
  0
VISUALSTYLE
  5
2B
102
{ACAD_REACTORS
330
2A
102
}
102
{ACAD_XDICTIONARY
360
15E
102
}
330
2A
100
AcDbVisualStyle
  2
Flat
 70
     0
 71
     2
 72
     1
 73
     1
 90
        2
 40
-0.6
 41
30.0
 62
     5
 63
     7
421
 16777215
 74
     0
 91
        4
 64
     7
 65
   257
 75
     1
175
     1
 42
1.0
 92
        8
 66
     7
 43
1.0
 76
     1
 77
     6
 78
     2
 67
     7
 79
     5
170
     0
171
     0
290
     0
174
     0
 93
       13
 44
0.0
173
     0
291
     1
 45
0.0
  0
VISUALSTYLE
  5
2C
102
{ACAD_REACTORS
330
2A
102
}
102
{ACAD_XDICTIONARY
360
160
102
}
330
2A
100
AcDbVisualStyle
  2
FlatWithEdges
 70
     1
 71
     2
 72
     1
 73
     1
 90
        2
 40
-0.6
 41
30.0
 62
     5
 63
     7
421
 16777215
 74
     1
 91
        4
 64
     7
 65
   257
 75
     1
175
     1
 42
1.0
 92
        0
 66
   257
 43
1.0
 76
     1
 77
     6
 78
     2
 67
     7
 79
     5
170
     0
171
     0
290
     0
174
     0
 93
       13
 44
0.0
173
     0
291
     1
 45
0.0
  0
VISUALSTYLE
  5
2D
102
{ACAD_REACTORS
330
2A
102
}
102
{ACAD_XDICTIONARY
360
162
102
}
330
2A
100
AcDbVisualStyle
  2
Gouraud
 70
     2
 71
     2
 72
     2
 73
     1
 90
        2
 40
-0.6
 41
30.0
 62
     5
 63
     7
421
 16777215
 74
     0
 91
        4
 64
     7
 65
   257
 75
     1
175
     1
 42
1.0
 92
        0
 66
     7
 43
1.0
 76
     1
 77
     6
 78
     2
 67
     7
 79
     5
170
     0
171
     0
290
     0
174
     0
 93
       13
 44
0.0
173
     0
291
     1
 45
0.0
  0
VISUALSTYLE
  5
2E
102
{ACAD_REACTORS
330
2A
102
}
102
{ACAD_XDICTIONARY
360
164
102
}
330
2A
100
AcDbVisualStyle
  2
GouraudWithEdges
 70
     3
 71
     2
 72
     2
 73
     1
 90
        2
 40
-0.6
 41
30.0
 62
     5
 63
     7
421
 16777215
 74
     1
 91
        4
 64
     7
 65
   257
 75
     1
175
     1
 42
1.0
 92
        0
 66
   257
 43
1.0
 76
     1
 77
     6
 78
     2
 67
     7
 79
     5
170
     0
171
     0
290
     0
174
     0
 93
       13
 44
0.0
173
     0
291
     1
 45
0.0
  0
VISUALSTYLE
  5
38
102
{ACAD_REACTORS
330
2A
102
}
102
{ACAD_XDICTIONARY
360
178
102
}
330
2A
100
AcDbVisualStyle
  2
Linepattern
 70
    14
 71
     2
 72
     2
 73
     0
 90
        0
 40
-0.6
 41
-30.0
 62
     5
 63
     7
421
 16777215
 74
     1
 91
        4
 64
     7
 65
   257
 75
     7
175
     7
 42
1.0
 92
        8
 66
     7
 43
1.0
 76
     1
 77
     6
 78
     2
 67
     7
 79
     5
170
     0
171
     0
290
     0
174
     0
 93
        1
 44
0.0
173
     0
291
     1
 45
0.0
  0
VISUALSTYLE
  5
33
102
{ACAD_REACTORS
330
2A
102
}
102
{ACAD_XDICTIONARY
360
16E
102
}
330
2A
100
AcDbVisualStyle
  2
Realistic
 70
     8
 71
     2
 72
     2
 73
     0
 90
        0
 40
-0.6
 41
-30.0
 62
     5
 63
     7
421
 16777215
 74
     1
 91
        0
 64
     7
 65
   257
 75
     1
175
     1
 42
1.0
 92
        8
 66
     8
424
  7895160
 43
1.0
 76
     1
 77
     6
 78
     2
 67
     7
 79
     5
170
     0
171
     0
290
     0
174
     0
 93
       13
 44
0.0
173
     0
291
     0
 45
0.0
  0
VISUALSTYLE
  5
37
102
{ACAD_REACTORS
330
2A
102
}
102
{ACAD_XDICTIONARY
360
176
102
}
330
2A
100
AcDbVisualStyle
  2
Thicken
 70
    13
 71
     2
 72
     2
 73
     0
 90
        0
 40
-0.6
 41
-30.0
 62
     5
 63
     7
421
 16777215
 74
     1
 91
        4
 64
     7
 65
   257
 75
     1
175
     1
 42
1.0
 92
       12
 66
     7
 43
1.0
 76
     1
 77
     6
 78
     2
 67
     7
 79
     5
170
     0
171
     0
290
     0
174
     0
 93
        1
 44
0.0
173
     0
291
     1
 45
0.0
  0
DICTIONARY
  5
166
330
2F
100
AcDbDictionary
280
     1
281
     1
  3
ACAD_XREC_ROUNDTRIP
360
167
  0
DICTIONARY
  5
16A
330
31
100
AcDbDictionary
280
     1
281
     1
  3
ACAD_XREC_ROUNDTRIP
360
16B
  0
DICTIONARY
  5
168
330
30
100
AcDbDictionary
280
     1
281
     1
  3
ACAD_XREC_ROUNDTRIP
360
169
  0
DICTIONARY
  5
16C
330
32
100
AcDbDictionary
280
     1
281
     1
  3
ACAD_XREC_ROUNDTRIP
360
16D
  0
DICTIONARY
  5
174
330
36
100
AcDbDictionary
280
     1
281
     1
  3
ACAD_XREC_ROUNDTRIP
360
175
  0
DICTIONARY
  5
17C
330
3A
100
AcDbDictionary
280
     1
281
     1
  3
ACAD_XREC_ROUNDTRIP
360
17D
  0
DICTIONARY
  5
170
330
34
100
AcDbDictionary
280
     1
281
     1
  3
ACAD_XREC_ROUNDTRIP
360
171
  0
DICTIONARY
  5
172
330
35
100
AcDbDictionary
280
     1
281
     1
  3
ACAD_XREC_ROUNDTRIP
360
173
  0
DICTIONARY
  5
17A
330
39
100
AcDbDictionary
280
     1
281
     1
  3
ACAD_XREC_ROUNDTRIP
360
17B
  0
DICTIONARY
  5
15E
330
2B
100
AcDbDictionary
280
     1
281
     1
  3
ACAD_XREC_ROUNDTRIP
360
15F
  0
DICTIONARY
  5
160
330
2C
100
AcDbDictionary
280
     1
281
     1
  3
ACAD_XREC_ROUNDTRIP
360
161
  0
DICTIONARY
  5
162
330
2D
100
AcDbDictionary
280
     1
281
     1
  3
ACAD_XREC_ROUNDTRIP
360
163
  0
DICTIONARY
  5
164
330
2E
100
AcDbDictionary
280
     1
281
     1
  3
ACAD_XREC_ROUNDTRIP
360
165
  0
DICTIONARY
  5
178
330
38
100
AcDbDictionary
280
     1
281
     1
  3
ACAD_XREC_ROUNDTRIP
360
179
  0
DICTIONARY
  5
16E
330
33
100
AcDbDictionary
280
     1
281
     1
  3
ACAD_XREC_ROUNDTRIP
360
16F
  0
DICTIONARY
  5
176
330
37
100
AcDbDictionary
280
     1
281
     1
  3
ACAD_XREC_ROUNDTRIP
360
177
  0
XRECORD
  5
167
102
{ACAD_REACTORS
330
166
102
}
330
166
100
AcDbXrecord
280
     1
102
RTVSPropertyOp0
 70
     1
102
RTVSPropertyOp1
 70
     1
102
RTVSPropertyOp2
 70
     1
102
RTVSPropertyOp3
 70
     1
102
RTVSPropertyOp4
 70
     1
102
RTVSPropertyOp5
 70
     1
102
RTVSPropertyOp6
 70
     1
102
RTVSPropertyOp7
 70
     1
102
RTVSPropertyOp8
 70
     1
102
RTVSPropertyOp9
 70
     1
102
RTVSPropertyOp10
 70
     1
102
RTVSPropertyOp11
 70
     1
102
RTVSPropertyOp12
 70
     1
102
RTVSPropertyOp13
 70
     1
102
RTVSPropertyOp14
 70
     1
102
RTVSPropertyOp15
 70
     1
102
RTVSPropertyOp16
 70
     1
102
RTVSPropertyOp17
 70
     1
102
RTVSPropertyOp18
 70
     1
102
RTVSPropertyOp19
 70
     1
102
RTVSPropertyOp20
 70
     1
102
RTVSPropertyOp21
 70
     1
102
RTVSPropertyOp22
 70
     1
102
RTVSPropertyOp23
 70
     1
102
RTVSPropertyOp24
 70
     1
102
RTVSPropertyOp25
 70
     1
102
RTVSPropertyOp26
 70
     1
102
RTVSPropertyOp27
 70
     1
  0
XRECORD
  5
16B
102
{ACAD_REACTORS
330
16A
102
}
330
16A
100
AcDbXrecord
280
     1
102
RTVSPropertyOp0
 70
     1
102
RTVSPropertyOp1
 70
     1
102
RTVSPropertyOp2
 70
     1
102
RTVSPropertyOp3
 70
     1
102
RTVSPropertyOp4
 70
     1
102
RTVSPropertyOp5
 70
     1
102
RTVSPropertyOp6
 70
     1
102
RTVSPropertyOp7
 70
     1
102
RTVSPropertyOp8
 70
     1
102
RTVSPropertyOp9
 70
     1
102
RTVSPropertyOp10
 70
     1
102
RTVSPropertyOp11
 70
     1
102
RTVSPropertyOp12
 70
     1
102
RTVSPropertyOp13
 70
     1
102
RTVSPropertyOp14
 70
     1
102
RTVSPropertyOp15
 70
     1
102
RTVSPropertyOp16
 70
     1
102
RTVSPropertyOp17
 70
     1
102
RTVSPropertyOp18
 70
     1
102
RTVSPropertyOp19
 70
     1
102
RTVSPropertyOp20
 70
     1
102
RTVSPropertyOp21
 70
     1
102
RTVSPropertyOp22
 70
     1
102
RTVSPropertyOp23
 70
     1
102
RTVSPropertyOp24
 70
     1
102
RTVSPropertyOp25
 70
     1
102
RTVSPropertyOp26
 70
     1
102
RTVSPropertyOp27
 70
     1
  0
XRECORD
  5
169
102
{ACAD_REACTORS
330
168
102
}
330
168
100
AcDbXrecord
280
     1
102
RTVSPropertyOp0
 70
     1
102
RTVSPropertyOp1
 70
     1
102
RTVSPropertyOp2
 70
     1
102
RTVSPropertyOp3
 70
     1
102
RTVSPropertyOp4
 70
     1
102
RTVSPropertyOp5
 70
     1
102
RTVSPropertyOp6
 70
     1
102
RTVSPropertyOp7
 70
     1
102
RTVSPropertyOp8
 70
     1
102
RTVSPropertyOp9
 70
     1
102
RTVSPropertyOp10
 70
     1
102
RTVSPropertyOp11
 70
     1
102
RTVSPropertyOp12
 70
     1
102
RTVSPropertyOp13
 70
     1
102
RTVSPropertyOp14
 70
     1
102
RTVSPropertyOp15
 70
     1
102
RTVSPropertyOp16
 70
     1
102
RTVSPropertyOp17
 70
     1
102
RTVSPropertyOp18
 70
     1
102
RTVSPropertyOp19
 70
     1
102
RTVSPropertyOp20
 70
     1
102
RTVSPropertyOp21
 70
     1
102
RTVSPropertyOp22
 70
     1
102
RTVSPropertyOp23
 70
     1
102
RTVSPropertyOp24
 70
     1
102
RTVSPropertyOp25
 70
     1
102
RTVSPropertyOp26
 70
     1
102
RTVSPropertyOp27
 70
     1
  0
XRECORD
  5
16D
102
{ACAD_REACTORS
330
16C
102
}
330
16C
100
AcDbXrecord
280
     1
102
RTVSPropertyOp0
 70
     1
102
RTVSPropertyOp1
 70
     1
102
RTVSPropertyOp2
 70
     1
102
RTVSPropertyOp3
 70
     1
102
RTVSPropertyOp4
 70
     1
102
RTVSPropertyOp5
 70
     1
102
RTVSPropertyOp6
 70
     1
102
RTVSPropertyOp7
 70
     1
102
RTVSPropertyOp8
 70
     1
102
RTVSPropertyOp9
 70
     1
102
RTVSPropertyOp10
 70
     1
102
RTVSPropertyOp11
 70
     1
102
RTVSPropertyOp12
 70
     1
102
RTVSPropertyOp13
 70
     1
102
RTVSPropertyOp14
 70
     1
102
RTVSPropertyOp15
 70
     1
102
RTVSPropertyOp16
 70
     1
102
RTVSPropertyOp17
 70
     1
102
RTVSPropertyOp18
 70
     1
102
RTVSPropertyOp19
 70
     1
102
RTVSPropertyOp20
 70
     1
102
RTVSPropertyOp21
 70
     1
102
RTVSPropertyOp22
 70
     1
102
RTVSPropertyOp23
 70
     1
102
RTVSPropertyOp24
 70
     1
102
RTVSPropertyOp25
 70
     1
102
RTVSPropertyOp26
 70
     1
102
RTVSPropertyOp27
 70
     1
  0
XRECORD
  5
175
102
{ACAD_REACTORS
330
174
102
}
330
174
100
AcDbXrecord
280
     1
102
RTVSPropertyOp0
 70
     1
102
RTVSPropertyOp1
 70
     1
102
RTVSPropertyOp2
 70
     1
102
RTVSPropertyOp3
 70
     1
102
RTVSPropertyOp4
 70
     1
102
RTVSPropertyOp5
 70
     1
102
RTVSPropertyOp6
 70
     1
102
RTVSPropertyOp7
 70
     1
102
RTVSPropertyOp8
 70
     1
102
RTVSPropertyOp9
 70
     1
102
RTVSPropertyOp10
 70
     1
102
RTVSPropertyOp11
 70
     1
102
RTVSPropertyOp12
 70
     1
102
RTVSPropertyOp13
 70
     1
102
RTVSPropertyOp14
 70
     1
102
RTVSPropertyOp15
 70
     1
102
RTVSPropertyOp16
 70
     1
102
RTVSPropertyOp17
 70
     1
102
RTVSPropertyOp18
 70
     1
102
RTVSPropertyOp19
 70
     1
102
RTVSPropertyOp20
 70
     1
102
RTVSPropertyOp21
 70
     1
102
RTVSPropertyOp22
 70
     1
102
RTVSPropertyOp23
 70
     1
102
RTVSPropertyOp24
 70
     1
102
RTVSPropertyOp25
 70
     1
102
RTVSPropertyOp26
 70
     1
102
RTVSPropertyOp27
 70
     1
  0
XRECORD
  5
17D
102
{ACAD_REACTORS
330
17C
102
}
330
17C
100
AcDbXrecord
280
     1
102
RTVSPropertyOp0
 70
     1
102
RTVSPropertyOp1
 70
     1
102
RTVSPropertyOp2
 70
     1
102
RTVSPropertyOp3
 70
     1
102
RTVSPropertyOp4
 70
     1
102
RTVSPropertyOp5
 70
     1
102
RTVSPropertyOp6
 70
     1
102
RTVSPropertyOp7
 70
     1
102
RTVSPropertyOp8
 70
     1
102
RTVSPropertyOp9
 70
     1
102
RTVSPropertyOp10
 70
     1
102
RTVSPropertyOp11
 70
     1
102
RTVSPropertyOp12
 70
     1
102
RTVSPropertyOp13
 70
     1
102
RTVSPropertyOp14
 70
     1
102
RTVSPropertyOp15
 70
     1
102
RTVSPropertyOp16
 70
     1
102
RTVSPropertyOp17
 70
     1
102
RTVSPropertyOp18
 70
     1
102
RTVSPropertyOp19
 70
     1
102
RTVSPropertyOp20
 70
     1
102
RTVSPropertyOp21
 70
     1
102
RTVSPropertyOp22
 70
     1
102
RTVSPropertyOp23
 70
     1
102
RTVSPropertyOp24
 70
     1
102
RTVSPropertyOp25
 70
     1
102
RTVSPropertyOp26
 70
     1
102
RTVSPropertyOp27
 70
     1
  0
XRECORD
  5
171
102
{ACAD_REACTORS
330
170
102
}
330
170
100
AcDbXrecord
280
     1
102
RTVSPropertyOp0
 70
     1
102
RTVSPropertyOp1
 70
     1
102
RTVSPropertyOp2
 70
     1
102
RTVSPropertyOp3
 70
     1
102
RTVSPropertyOp4
 70
     1
102
RTVSPropertyOp5
 70
     1
102
RTVSPropertyOp6
 70
     1
102
RTVSPropertyOp7
 70
     1
102
RTVSPropertyOp8
 70
     1
102
RTVSPropertyOp9
 70
     1
102
RTVSPropertyOp10
 70
     1
102
RTVSPropertyOp11
 70
     1
102
RTVSPropertyOp12
 70
     1
102
RTVSPropertyOp13
 70
     1
102
RTVSPropertyOp14
 70
     1
102
RTVSPropertyOp15
 70
     1
102
RTVSPropertyOp16
 70
     1
102
RTVSPropertyOp17
 70
     1
102
RTVSPropertyOp18
 70
     1
102
RTVSPropertyOp19
 70
     1
102
RTVSPropertyOp20
 70
     1
102
RTVSPropertyOp21
 70
     1
102
RTVSPropertyOp22
 70
     1
102
RTVSPropertyOp23
 70
     1
102
RTVSPropertyOp24
 70
     1
102
RTVSPropertyOp25
 70
     1
102
RTVSPropertyOp26
 70
     1
102
RTVSPropertyOp27
 70
     1
  0
XRECORD
  5
173
102
{ACAD_REACTORS
330
172
102
}
330
172
100
AcDbXrecord
280
     1
102
RTVSPropertyOp0
 70
     1
102
RTVSPropertyOp1
 70
     1
102
RTVSPropertyOp2
 70
     1
102
RTVSPropertyOp3
 70
     1
102
RTVSPropertyOp4
 70
     1
102
RTVSPropertyOp5
 70
     1
102
RTVSPropertyOp6
 70
     1
102
RTVSPropertyOp7
 70
     1
102
RTVSPropertyOp8
 70
     1
102
RTVSPropertyOp9
 70
     1
102
RTVSPropertyOp10
 70
     1
102
RTVSPropertyOp11
 70
     1
102
RTVSPropertyOp12
 70
     1
102
RTVSPropertyOp13
 70
     1
102
RTVSPropertyOp14
 70
     1
102
RTVSPropertyOp15
 70
     1
102
RTVSPropertyOp16
 70
     1
102
RTVSPropertyOp17
 70
     1
102
RTVSPropertyOp18
 70
     1
102
RTVSPropertyOp19
 70
     1
102
RTVSPropertyOp20
 70
     1
102
RTVSPropertyOp21
 70
     1
102
RTVSPropertyOp22
 70
     1
102
RTVSPropertyOp23
 70
     1
102
RTVSPropertyOp24
 70
     1
102
RTVSPropertyOp25
 70
     1
102
RTVSPropertyOp26
 70
     1
102
RTVSPropertyOp27
 70
     1
  0
XRECORD
  5
17B
102
{ACAD_REACTORS
330
17A
102
}
330
17A
100
AcDbXrecord
280
     1
102
RTVSPropertyOp0
 70
     1
102
RTVSPropertyOp1
 70
     1
102
RTVSPropertyOp2
 70
     1
102
RTVSPropertyOp3
 70
     1
102
RTVSPropertyOp4
 70
     1
102
RTVSPropertyOp5
 70
     1
102
RTVSPropertyOp6
 70
     1
102
RTVSPropertyOp7
 70
     1
102
RTVSPropertyOp8
 70
     1
102
RTVSPropertyOp9
 70
     1
102
RTVSPropertyOp10
 70
     1
102
RTVSPropertyOp11
 70
     1
102
RTVSPropertyOp12
 70
     1
102
RTVSPropertyOp13
 70
     1
102
RTVSPropertyOp14
 70
     1
102
RTVSPropertyOp15
 70
     1
102
RTVSPropertyOp16
 70
     1
102
RTVSPropertyOp17
 70
     1
102
RTVSPropertyOp18
 70
     1
102
RTVSPropertyOp19
 70
     1
102
RTVSPropertyOp20
 70
     1
102
RTVSPropertyOp21
 70
     1
102
RTVSPropertyOp22
 70
     1
102
RTVSPropertyOp23
 70
     1
102
RTVSPropertyOp24
 70
     1
102
RTVSPropertyOp25
 70
     1
102
RTVSPropertyOp26
 70
     1
102
RTVSPropertyOp27
 70
     1
  0
XRECORD
  5
15F
102
{ACAD_REACTORS
330
15E
102
}
330
15E
100
AcDbXrecord
280
     1
102
RTVSPropertyOp0
 70
     1
102
RTVSPropertyOp1
 70
     1
102
RTVSPropertyOp2
 70
     1
102
RTVSPropertyOp3
 70
     1
102
RTVSPropertyOp4
 70
     1
102
RTVSPropertyOp5
 70
     1
102
RTVSPropertyOp6
 70
     1
102
RTVSPropertyOp7
 70
     1
102
RTVSPropertyOp8
 70
     1
102
RTVSPropertyOp9
 70
     1
102
RTVSPropertyOp10
 70
     1
102
RTVSPropertyOp11
 70
     1
102
RTVSPropertyOp12
 70
     1
102
RTVSPropertyOp13
 70
     1
102
RTVSPropertyOp14
 70
     1
102
RTVSPropertyOp15
 70
     1
102
RTVSPropertyOp16
 70
     1
102
RTVSPropertyOp17
 70
     1
102
RTVSPropertyOp18
 70
     1
102
RTVSPropertyOp19
 70
     1
102
RTVSPropertyOp20
 70
     1
102
RTVSPropertyOp21
 70
     1
102
RTVSPropertyOp22
 70
     1
102
RTVSPropertyOp23
 70
     1
102
RTVSPropertyOp24
 70
     1
102
RTVSPropertyOp25
 70
     1
102
RTVSPropertyOp26
 70
     1
102
RTVSPropertyOp27
 70
     1
  0
XRECORD
  5
161
102
{ACAD_REACTORS
330
160
102
}
330
160
100
AcDbXrecord
280
     1
102
RTVSPropertyOp0
 70
     1
102
RTVSPropertyOp1
 70
     1
102
RTVSPropertyOp2
 70
     1
102
RTVSPropertyOp3
 70
     1
102
RTVSPropertyOp4
 70
     1
102
RTVSPropertyOp5
 70
     1
102
RTVSPropertyOp6
 70
     1
102
RTVSPropertyOp7
 70
     1
102
RTVSPropertyOp8
 70
     1
102
RTVSPropertyOp9
 70
     1
102
RTVSPropertyOp10
 70
     1
102
RTVSPropertyOp11
 70
     1
102
RTVSPropertyOp12
 70
     1
102
RTVSPropertyOp13
 70
     1
102
RTVSPropertyOp14
 70
     1
102
RTVSPropertyOp15
 70
     1
102
RTVSPropertyOp16
 70
     1
102
RTVSPropertyOp17
 70
     1
102
RTVSPropertyOp18
 70
     1
102
RTVSPropertyOp19
 70
     1
102
RTVSPropertyOp20
 70
     1
102
RTVSPropertyOp21
 70
     1
102
RTVSPropertyOp22
 70
     1
102
RTVSPropertyOp23
 70
     1
102
RTVSPropertyOp24
 70
     1
102
RTVSPropertyOp25
 70
     1
102
RTVSPropertyOp26
 70
     1
102
RTVSPropertyOp27
 70
     1
  0
XRECORD
  5
163
102
{ACAD_REACTORS
330
162
102
}
330
162
100
AcDbXrecord
280
     1
102
RTVSPropertyOp0
 70
     1
102
RTVSPropertyOp1
 70
     1
102
RTVSPropertyOp2
 70
     1
102
RTVSPropertyOp3
 70
     1
102
RTVSPropertyOp4
 70
     1
102
RTVSPropertyOp5
 70
     1
102
RTVSPropertyOp6
 70
     1
102
RTVSPropertyOp7
 70
     1
102
RTVSPropertyOp8
 70
     1
102
RTVSPropertyOp9
 70
     1
102
RTVSPropertyOp10
 70
     1
102
RTVSPropertyOp11
 70
     1
102
RTVSPropertyOp12
 70
     1
102
RTVSPropertyOp13
 70
     1
102
RTVSPropertyOp14
 70
     1
102
RTVSPropertyOp15
 70
     1
102
RTVSPropertyOp16
 70
     1
102
RTVSPropertyOp17
 70
     1
102
RTVSPropertyOp18
 70
     1
102
RTVSPropertyOp19
 70
     1
102
RTVSPropertyOp20
 70
     1
102
RTVSPropertyOp21
 70
     1
102
RTVSPropertyOp22
 70
     1
102
RTVSPropertyOp23
 70
     1
102
RTVSPropertyOp24
 70
     1
102
RTVSPropertyOp25
 70
     1
102
RTVSPropertyOp26
 70
     1
102
RTVSPropertyOp27
 70
     1
  0
XRECORD
  5
165
102
{ACAD_REACTORS
330
164
102
}
330
164
100
AcDbXrecord
280
     1
102
RTVSPropertyOp0
 70
     1
102
RTVSPropertyOp1
 70
     1
102
RTVSPropertyOp2
 70
     1
102
RTVSPropertyOp3
 70
     1
102
RTVSPropertyOp4
 70
     1
102
RTVSPropertyOp5
 70
     1
102
RTVSPropertyOp6
 70
     1
102
RTVSPropertyOp7
 70
     1
102
RTVSPropertyOp8
 70
     1
102
RTVSPropertyOp9
 70
     1
102
RTVSPropertyOp10
 70
     1
102
RTVSPropertyOp11
 70
     1
102
RTVSPropertyOp12
 70
     1
102
RTVSPropertyOp13
 70
     1
102
RTVSPropertyOp14
 70
     1
102
RTVSPropertyOp15
 70
     1
102
RTVSPropertyOp16
 70
     1
102
RTVSPropertyOp17
 70
     1
102
RTVSPropertyOp18
 70
     1
102
RTVSPropertyOp19
 70
     1
102
RTVSPropertyOp20
 70
     1
102
RTVSPropertyOp21
 70
     1
102
RTVSPropertyOp22
 70
     1
102
RTVSPropertyOp23
 70
     1
102
RTVSPropertyOp24
 70
     1
102
RTVSPropertyOp25
 70
     1
102
RTVSPropertyOp26
 70
     1
102
RTVSPropertyOp27
 70
     1
  0
XRECORD
  5
179
102
{ACAD_REACTORS
330
178
102
}
330
178
100
AcDbXrecord
280
     1
102
RTVSPropertyOp0
 70
     1
102
RTVSPropertyOp1
 70
     1
102
RTVSPropertyOp2
 70
     1
102
RTVSPropertyOp3
 70
     1
102
RTVSPropertyOp4
 70
     1
102
RTVSPropertyOp5
 70
     1
102
RTVSPropertyOp6
 70
     1
102
RTVSPropertyOp7
 70
     1
102
RTVSPropertyOp8
 70
     1
102
RTVSPropertyOp9
 70
     1
102
RTVSPropertyOp10
 70
     1
102
RTVSPropertyOp11
 70
     1
102
RTVSPropertyOp12
 70
     1
102
RTVSPropertyOp13
 70
     1
102
RTVSPropertyOp14
 70
     1
102
RTVSPropertyOp15
 70
     1
102
RTVSPropertyOp16
 70
     1
102
RTVSPropertyOp17
 70
     1
102
RTVSPropertyOp18
 70
     1
102
RTVSPropertyOp19
 70
     1
102
RTVSPropertyOp20
 70
     1
102
RTVSPropertyOp21
 70
     1
102
RTVSPropertyOp22
 70
     1
102
RTVSPropertyOp23
 70
     1
102
RTVSPropertyOp24
 70
     1
102
RTVSPropertyOp25
 70
     1
102
RTVSPropertyOp26
 70
     1
102
RTVSPropertyOp27
 70
     1
  0
XRECORD
  5
16F
102
{ACAD_REACTORS
330
16E
102
}
330
16E
100
AcDbXrecord
280
     1
102
RTVSPropertyOp0
 70
     1
102
RTVSPropertyOp1
 70
     1
102
RTVSPropertyOp2
 70
     1
102
RTVSPropertyOp3
 70
     1
102
RTVSPropertyOp4
 70
     1
102
RTVSPropertyOp5
 70
     1
102
RTVSPropertyOp6
 70
     1
102
RTVSPropertyOp7
 70
     1
102
RTVSPropertyOp8
 70
     1
102
RTVSPropertyOp9
 70
     1
102
RTVSPropertyOp10
 70
     1
102
RTVSPropertyOp11
 70
     1
102
RTVSPropertyOp12
 70
     1
102
RTVSPropertyOp13
 70
     1
102
RTVSPropertyOp14
 70
     1
102
RTVSPropertyOp15
 70
     1
102
RTVSPropertyOp16
 70
     1
102
RTVSPropertyOp17
 70
     1
102
RTVSPropertyOp18
 70
     1
102
RTVSPropertyOp19
 70
     1
102
RTVSPropertyOp20
 70
     1
102
RTVSPropertyOp21
 70
     1
102
RTVSPropertyOp22
 70
     1
102
RTVSPropertyOp23
 70
     1
102
RTVSPropertyOp24
 70
     1
102
RTVSPropertyOp25
 70
     1
102
RTVSPropertyOp26
 70
     1
102
RTVSPropertyOp27
 70
     1
  0
XRECORD
  5
177
102
{ACAD_REACTORS
330
176
102
}
330
176
100
AcDbXrecord
280
     1
102
RTVSPropertyOp0
 70
     1
102
RTVSPropertyOp1
 70
     1
102
RTVSPropertyOp2
 70
     1
102
RTVSPropertyOp3
 70
     1
102
RTVSPropertyOp4
 70
     1
102
RTVSPropertyOp5
 70
     1
102
RTVSPropertyOp6
 70
     1
102
RTVSPropertyOp7
 70
     1
102
RTVSPropertyOp8
 70
     1
102
RTVSPropertyOp9
 70
     1
102
RTVSPropertyOp10
 70
     1
102
RTVSPropertyOp11
 70
     1
102
RTVSPropertyOp12
 70
     1
102
RTVSPropertyOp13
 70
     1
102
RTVSPropertyOp14
 70
     1
102
RTVSPropertyOp15
 70
     1
102
RTVSPropertyOp16
 70
     1
102
RTVSPropertyOp17
 70
     1
102
RTVSPropertyOp18
 70
     1
102
RTVSPropertyOp19
 70
     1
102
RTVSPropertyOp20
 70
     1
102
RTVSPropertyOp21
 70
     1
102
RTVSPropertyOp22
 70
     1
102
RTVSPropertyOp23
 70
     1
102
RTVSPropertyOp24
 70
     1
102
RTVSPropertyOp25
 70
     1
102
RTVSPropertyOp26
 70
     1
102
RTVSPropertyOp27
 70
     1
  0
ENDSEC
  0
EOF
