  0
SECTION
  2
HEADER
  9
$ACADVER
  1
AC1024
  9
$ACADMAINTVER
 70
     6
  9
$DWGCODEPAGE
  3
ANSI_1252
  9
$LASTSAVEDBY
  1
p.perez
  9
$INSBASE
 10
0.0
 20
0.0
 30
0.0
  9
$EXTMIN
 10
0.0
 20
0.0
 30
0.0
  9
$EXTMAX
 10
210.0
 20
297.0
 30
0.0
  9
$LIMMIN
 10
0.0
 20
0.0
  9
$LIMMAX
 10
210.0
 20
297.0
  9
$ORTHOMODE
 70
     0
  9
$REGENMODE
 70
     1
  9
$FILLMODE
 70
     1
  9
$QTEXTMODE
 70
     0
  9
$MIRRTEXT
 70
     1
  9
$LTSCALE
 40
1.0
  9
$ATTMODE
 70
     1
  9
$TEXTSIZE
 40
3.5
  9
$TRACEWID
 40
1.0
  9
$TEXTSTYLE
  7
STANDARD
  9
$CLAYER
  8
0
  9
$CELTYPE
  6
ByLayer
  9
$CECOLOR
 62
   256
  9
$CELTSCALE
 40
1.0
  9
$DISPSILH
 70
     0
  9
$DIMSCALE
 40
1.0
  9
$DIMASZ
 40
3.302
  9
$DIMEXO
 40
1.0
  9
$DIMDLI
 40
3.75
  9
$DIMRND
 40
0.0
  9
$DIMDLE
 40
0.0
  9
$DIMEXE
 40
1.0
  9
$DIMTP
 40
0.0
  9
$DIMTM
 40
0.0
  9
$DIMTXT
 40
3.5
  9
$DIMCEN
 40
2.5
  9
$DIMTSZ
 40
0.0
  9
$DIMTOL
 70
     0
  9
$DIMLIM
 70
     0
  9
$DIMTIH
 70
     1
  9
$DIMTOH
 70
     1
  9
$DIMSE1
 70
     0
  9
$DIMSE2
 70
     0
  9
$DIMTAD
 70
     1
  9
$DIMZIN
 70
     0
  9
$DIMBLK
  1

  9
$DIMASO
 70
     1
  9
$DIMSHO
 70
     1
  9
$DIMPOST
  1

  9
$DIMAPOST
  1

  9
$DIMALT
 70
     0
  9
$DIMALTD
 70
     3
  9
$DIMALTF
 40
0.0393700787
  9
$DIMLFAC
 40
1.0
  9
$DIMTOFL
 70
     1
  9
$DIMTVP
 40
0.0
  9
$DIMTIX
 70
     0
  9
$DIMSOXD
 70
     0
  9
$DIMSAH
 70
     0
  9
$DIMBLK1
  1

  9
$DIMBLK2
  1

  9
$DIMSTYLE
  2
ISO-25
  9
$DIMCLRD
 70
     0
  9
$DIMCLRE
 70
     0
  9
$DIMCLRT
 70
     0
  9
$DIMTFAC
 40
1.0
  9
$DIMGAP
 40
1.524
  9
$DIMJUST
 70
     0
  9
$DIMSD1
 70
     0
  9
$DIMSD2
 70
     0
  9
$DIMTOLJ
 70
     0
  9
$DIMTZIN
 70
     0
  9
$DIMALTZ
 70
     0
  9
$DIMALTTZ
 70
     0
  9
$DIMUPT
 70
     0
  9
$DIMDEC
 70
     2
  9
$DIMTDEC
 70
     2
  9
$DIMALTU
 70
     2
  9
$DIMALTTD
 70
     3
  9
$DIMTXSTY
  7
STANDARD
  9
$DIMAUNIT
 70
     0
  9
$DIMADEC
 70
     2
  9
$DIMALTRND
 40
0.0
  9
$DIMAZIN
 70
     0
  9
$DIMDSEP
 70
    44
  9
$DIMATFIT
 70
     3
  9
$DIMFRAC
 70
     0
  9
$DIMLDRBLK
  1

  9
$DIMLUNIT
 70
     2
  9
$DIMLWD
 70
    -2
  9
$DIMLWE
 70
    -2
  9
$DIMTMOVE
 70
     0
  9
$DIMFXL
 40
1.0
  9
$DIMFXLON
 70
     0
  9
$DIMJOGANG
 40
0.7853981634
  9
$DIMTFILL
 70
     0
  9
$DIMTFILLCLR
 70
     0
  9
$DIMARCSYM
 70
     0
  9
$DIMLTYPE
  6

  9
$DIMLTEX1
  6

  9
$DIMLTEX2
  6

  9
$DIMTXTDIRECTION
 70
     0
  9
$LUNITS
 70
     2
  9
$LUPREC
 70
     2
  9
$SKETCHINC
 40
1.0
  9
$FILLETRAD
 40
10.0
  9
$AUNITS
 70
     0
  9
$AUPREC
 70
     2
  9
$MENU
  1
.
  9
$ELEVATION
 40
0.0
  9
$PELEVATION
 40
0.0
  9
$THICKNESS
 40
0.0
  9
$LIMCHECK
 70
     0
  9
$CHAMFERA
 40
0.0
  9
$CHAMFERB
 40
0.0
  9
$CHAMFERC
 40
0.0
  9
$CHAMFERD
 40
0.0
  9
$SKPOLY
 70
     0
  9
$TDCREATE
 40
2459074.665003368
  9
$TDUCREATE
 40
2459074.581670035
  9
$TDUPDATE
 40
2459074.665003692
  9
$TDUUPDATE
 40
2459074.581670359
  9
$TDINDWG
 40
0.0000000116
  9
$TDUSRTIMER
 40
0.0000000116
  9
$USRTIMER
 70
     1
  9
$ANGBASE
 50
0.0
  9
$ANGDIR
 70
     0
  9
$PDMODE
 70
     0
  9
$PDSIZE
 40
-1.0
  9
$PLINEWID
 40
0.0
  9
$SPLFRAME
 70
     0
  9
$SPLINETYPE
 70
     6
  9
$SPLINESEGS
 70
     8
  9
$HANDSEED
  5
173
  9
$SURFTAB1
 70
     6
  9
$SURFTAB2
 70
     6
  9
$SURFTYPE
 70
     6
  9
$SURFU
 70
     6
  9
$SURFV
 70
     6
  9
$UCSBASE
  2

  9
$UCSNAME
  2

  9
$UCSORG
 10
0.0
 20
0.0
 30
0.0
  9
$UCSXDIR
 10
1.0
 20
0.0
 30
0.0
  9
$UCSYDIR
 10
0.0
 20
1.0
 30
0.0
  9
$UCSORTHOREF
  2

  9
$UCSORTHOVIEW
 70
     0
  9
$UCSORGTOP
 10
0.0
 20
0.0
 30
0.0
  9
$UCSORGBOTTOM
 10
0.0
 20
0.0
 30
0.0
  9
$UCSORGLEFT
 10
0.0
 20
0.0
 30
0.0
  9
$UCSORGRIGHT
 10
0.0
 20
0.0
 30
0.0
  9
$UCSORGFRONT
 10
0.0
 20
0.0
 30
0.0
  9
$UCSORGBACK
 10
0.0
 20
0.0
 30
0.0
  9
$PUCSBASE
  2

  9
$PUCSNAME
  2

  9
$PUCSORG
 10
0.0
 20
0.0
 30
0.0
  9
$PUCSXDIR
 10
1.0
 20
0.0
 30
0.0
  9
$PUCSYDIR
 10
0.0
 20
1.0
 30
0.0
  9
$PUCSORTHOREF
  2

  9
$PUCSORTHOVIEW
 70
     0
  9
$PUCSORGTOP
 10
0.0
 20
0.0
 30
0.0
  9
$PUCSORGBOTTOM
 10
0.0
 20
0.0
 30
0.0
  9
$PUCSORGLEFT
 10
0.0
 20
0.0
 30
0.0
  9
$PUCSORGRIGHT
 10
0.0
 20
0.0
 30
0.0
  9
$PUCSORGFRONT
 10
0.0
 20
0.0
 30
0.0
  9
$PUCSORGBACK
 10
0.0
 20
0.0
 30
0.0
  9
$USERI1
 70
     0
  9
$USERI2
 70
     0
  9
$USERI3
 70
     0
  9
$USERI4
 70
     0
  9
$USERI5
 70
     0
  9
$USERR1
 40
0.0
  9
$USERR2
 40
0.0
  9
$USERR3
 40
0.0
  9
$USERR4
 40
0.0
  9
$USERR5
 40
0.0
  9
$WORLDVIEW
 70
     1
  9
$SHADEDGE
 70
     3
  9
$SHADEDIF
 70
    70
  9
$TILEMODE
 70
     1
  9
$MAXACTVP
 70
    64
  9
$PINSBASE
 10
0.0
 20
0.0
 30
0.0
  9
$PLIMCHECK
 70
     0
  9
$PEXTMIN
 10
1.0000000000E+20
 20
1.0000000000E+20
 30
1.0000000000E+20
  9
$PEXTMAX
 10
-1.0000000000E+20
 20
-1.0000000000E+20
 30
-1.0000000000E+20
  9
$PLIMMIN
 10
0.0
 20
0.0
  9
$PLIMMAX
 10
420.0
 20
297.0
  9
$UNITMODE
 70
     0
  9
$VISRETAIN
 70
     1
  9
$PLINEGEN
 70
     0
  9
$PSLTSCALE
 70
     1
  9
$TREEDEPTH
 70
  3020
  9
$CMLSTYLE
  2
Standard
  9
$CMLJUST
 70
     0
  9
$CMLSCALE
 40
20.0
  9
$PROXYGRAPHICS
 70
     1
  9
$MEASUREMENT
 70
     1
  9
$CELWEIGHT
370
    -1
  9
$ENDCAPS
280
     0
  9
$JOINSTYLE
280
     0
  9
$LWDISPLAY
290
     1
  9
$INSUNITS
 70
     4
  9
$HYPERLINKBASE
  1

  9
$STYLESHEET
  1

  9
$XEDIT
290
     1
  9
$CEPSNTYPE
380
     0
  9
$PSTYLEMODE
290
     1
  9
$FINGERPRINTGUID
  2
{ddc56cc1-6642-4ae9-8938-26b57f2db139}
  9
$VERSIONGUID
  2
{FAEB1C32-E019-11D5-929B-00C0DF256EC4}
  9
$EXTNAMES
290
     1
  9
$PSVPSCALE
 40
0.0
  9
$OLESTARTUP
290
     0
  9
$SORTENTS
280
   127
  9
$INDEXCTL
280
     0
  9
$HIDETEXT
280
     1
  9
$XCLIPFRAME
280
     2
  9
$HALOGAP
280
     0
  9
$OBSCOLOR
 70
   257
  9
$OBSLTYPE
280
     0
  9
$INTERSECTIONDISPLAY
280
     0
  9
$INTERSECTIONCOLOR
 70
   257
  9
$DIMASSOC
280
     2
  9
$PROJECTNAME
  1

  9
$CAMERADISPLAY
290
     0
  9
$LENSLENGTH
 40
50.0
  9
$CAMERAHEIGHT
 40
0.0
  9
$STEPSPERSEC
 40
2.0
  9
$STEPSIZE
 40
6.0
  9
$3DDWFPREC
 40
2.0
  9
$PSOLWIDTH
 40
5.0
  9
$PSOLHEIGHT
 40
80.0
  9
$LOFTANG1
 40
1.5707963268
  9
$LOFTANG2
 40
1.5707963268
  9
$LOFTMAG1
 40
0.0
  9
$LOFTMAG2
 40
0.0
  9
$LOFTPARAM
 70
     7
  9
$LOFTNORMALS
280
     1
  9
$LATITUDE
 40
37.795
  9
$LONGITUDE
 40
-122.394
  9
$NORTHDIRECTION
 40
0.0
  9
$TIMEZONE
 70
 -8000
  9
$LIGHTGLYPHDISPLAY
280
     1
  9
$TILEMODELIGHTSYNCH
280
     1
  9
$CMATERIAL
347
44
  9
$SOLIDHIST
280
     0
  9
$SHOWHIST
280
     1
  9
$DWFFRAME
280
     2
  9
$DGNFRAME
280
     2
  9
$REALWORLDSCALE
290
     1
  9
$INTERFERECOLOR
 62
   256
  9
$CSHADOW
280
     0
  9
$SHADOWPLANELOCATION
 40
0.0
  0
ENDSEC
  0
SECTION
  2
CLASSES
  0
CLASS
  1
ACDBDICTIONARYWDFLT
  2
AcDbDictionaryWithDefault
  3
ObjectDBX Classes
 90
        0
 91
        3
280
     0
281
     0
  0
CLASS
  1
VISUALSTYLE
  2
AcDbVisualStyle
  3
ObjectDBX Classes
 90
     4095
 91
        3
280
     0
281
     0
  0
CLASS
  1
MATERIAL
  2
AcDbMaterial
  3
ObjectDBX Classes
 90
     1153
 91
        3
280
     0
281
     0
  0
CLASS
  1
SCALE
  2
AcDbScale
  3
ObjectDBX Classes
 90
     1153
 91
        3
280
     0
281
     0
  0
CLASS
  1
TABLESTYLE
  2
AcDbTableStyle
  3
ObjectDBX Classes
 90
     4095
 91
        3
280
     0
281
     0
  0
CLASS
  1
MLEADERSTYLE
  2
AcDbMLeaderStyle
  3
ACDB_MLEADERSTYLE_CLASS
 90
     4095
 91
        3
280
     0
281
     0
  0
CLASS
  1
SUN
  2
AcDbSun
  3
SCENEOE
 90
     1153
 91
        3
280
     0
281
     0
  0
CLASS
  1
DICTIONARYVAR
  2
AcDbDictionaryVar
  3
ObjectDBX Classes
 90
        0
 91
        3
280
     0
281
     0
  0
CLASS
  1
CELLSTYLEMAP
  2
AcDbCellStyleMap
  3
ObjectDBX Classes
 90
     1152
 91
        3
280
     0
281
     0
  0
ENDSEC
  0
SECTION
  2
TABLES
  0
TABLE
  2
VPORT
  5
8
330
0
100
AcDbSymbolTable
 70
     1
  0
VPORT
  5
29
330
8
100
AcDbSymbolTableRecord
100
AcDbViewportTableRecord
  2
*Active
 70
     0
 10
0.0
 20
0.0
 11
1.0
 21
1.0
 12
105.0
 22
148.5
 13
0.0
 23
0.0
 14
10.0
 24
10.0
 15
10.0
 25
10.0
 16
0.0
 26
0.0
 36
1.0
 17
0.0
 27
0.0
 37
0.0
 40
297.0
 41
0.7070707071
 42
50.0
 43
0.0
 44
0.0
 50
0.0
 51
0.0
 71
     0
 72
  2000
 73
     1
 74
     3
 75
     0
 76
     0
 77
     0
 78
     0
281
     0
 65
     1
110
0.0
120
0.0
130
0.0
111
1.0
121
0.0
131
0.0
112
0.0
122
1.0
132
0.0
 79
     0
146
0.0
348
2F
 60
     3
 61
     5
292
     1
282
     1
141
0.0
142
0.0
 63
   250
361
6D
  0
ENDTAB
  0
TABLE
  2
LTYPE
  5
5
330
0
100
AcDbSymbolTable
 70
     8
  0
LTYPE
  5
14
330
5
100
AcDbSymbolTableRecord
100
AcDbLinetypeTableRecord
  2
ByBlock
 70
     0
  3

 72
    65
 73
     0
 40
0.0
  0
LTYPE
  5
15
330
5
100
AcDbSymbolTableRecord
100
AcDbLinetypeTableRecord
  2
ByLayer
 70
     0
  3

 72
    65
 73
     0
 40
0.0
  0
LTYPE
  5
16
330
5
100
AcDbSymbolTableRecord
100
AcDbLinetypeTableRecord
  2
Continuous
 70
     0
  3
Solid line
 72
    65
 73
     0
 40
0.0
  0
LTYPE
  5
6E
330
5
100
AcDbSymbolTableRecord
100
AcDbLinetypeTableRecord
  2
SLD-Durchgehend
 70
     0
  3
SolidWorks Line Style
 72
    65
 73
     0
 40
0.0
  0
LTYPE
  5
6F
330
5
100
AcDbSymbolTableRecord
100
AcDbLinetypeTableRecord
  2
SLD-Gestrichelt
 70
     0
  3
SolidWorks Line Style
 72
    65
 73
     2
 40
1.905
 49
1.27
 74
     0
 49
-0.635
 74
     0
  0
LTYPE
  5
70
330
5
100
AcDbSymbolTableRecord
100
AcDbLinetypeTableRecord
  2
SLD-Phantom
 70
     0
  3
SolidWorks Line Style
 72
    65
 73
     6
 40
12.7
 49
6.35
 74
     0
 49
-1.27
 74
     0
 49
1.27
 74
     0
 49
-1.27
 74
     0
 49
1.27
 74
     0
 49
-1.27
 74
     0
  0
LTYPE
  5
71
330
5
100
AcDbSymbolTableRecord
100
AcDbLinetypeTableRecord
  2
SLD-Kette
 70
     0
  3
SolidWorks Line Style
 72
    65
 73
     4
 40
10.16
 49
6.35
 74
     0
 49
-1.27
 74
     0
 49
1.27
 74
     0
 49
-1.27
 74
     0
  0
LTYPE
  5
72
330
5
100
AcDbSymbolTableRecord
100
AcDbLinetypeTableRecord
  2
SLD-Punktstrich
 70
     0
  3
SolidWorks Line Style
 72
    65
 73
     4
 40
19.05
 49
15.24
 74
     0
 49
-1.27
 74
     0
 49
1.27
 74
     0
 49
-1.27
 74
     0
  0
LTYPE
  5
73
330
5
100
AcDbSymbolTableRecord
100
AcDbLinetypeTableRecord
  2
SLD-Naht
 70
     0
  3
SolidWorks Line Style
 72
    65
 73
     2
 40
0.635
 49
0.0
 74
     0
 49
-0.635
 74
     0
  0
LTYPE
  5
74
330
5
100
AcDbSymbolTableRecord
100
AcDbLinetypeTableRecord
  2
SLD-Dicke-Dünne-Kette
 70
     0
  3
SolidWorks Line Style
 72
    65
 73
     4
 40
10.16
 49
6.35
 74
     0
 49
-1.27
 74
     0
 49
1.27
 74
     0
 49
-1.27
 74
     0
  0
ENDTAB
  0
TABLE
  2
LAYER
  5
2
330
0
100
AcDbSymbolTable
 70
     4
  0
LAYER
  5
10
330
2
100
AcDbSymbolTableRecord
100
AcDbLayerTableRecord
  2
0
 70
     0
 62
     7
  6
Continuous
370
    -3
390
F
347
46
  0
LAYER
  5
75
330
2
100
AcDbSymbolTableRecord
100
AcDbLayerTableRecord
  2
RAHMEN
 70
     0
 62
   179
  6
SLD-Durchgehend
370
    -3
390
F
347
46
  0
LAYER
  5
76
330
2
100
AcDbSymbolTableRecord
100
AcDbLayerTableRecord
  2
KOPF
 70
     0
 62
     7
  6
SLD-Durchgehend
370
    -3
390
F
347
46
  0
LAYER
  5
77
330
2
100
AcDbSymbolTableRecord
100
AcDbLayerTableRecord
  2
ZEICHNUNG
 70
     0
 62
     7
  6
SLD-Durchgehend
370
    -3
390
F
347
46
  0
ENDTAB
  0
TABLE
  2
STYLE
  5
3
330
0
100
AcDbSymbolTable
 70
     1
  0
STYLE
  5
11
330
3
100
AcDbSymbolTableRecord
100
AcDbTextStyleTableRecord
  2
STANDARD
 70
     0
 40
0.0
 41
1.0
 50
0.0
 71
     0
 42
3.5
  3
GOTHIC.TTF
  4

1001
ACAD
1000
CENTURY GOTHIC
1071
       34
  0
ENDTAB
  0
TABLE
  2
VIEW
  5
6
330
0
100
AcDbSymbolTable
 70
     0
  0
ENDTAB
  0
TABLE
  2
UCS
  5
7
330
0
100
AcDbSymbolTable
 70
     0
  0
ENDTAB
  0
TABLE
  2
APPID
  5
9
330
0
100
AcDbSymbolTable
 70
     1
  0
APPID
  5
12
330
9
100
AcDbSymbolTableRecord
100
AcDbRegAppTableRecord
  2
ACAD
 70
     0
  0
ENDTAB
  0
TABLE
  2
DIMSTYLE
  5
A
330
0
100
AcDbSymbolTable
 70
     1
100
AcDbDimStyleTable
  0
DIMSTYLE
105
27
330
A
100
AcDbSymbolTableRecord
100
AcDbDimStyleTableRecord
  2
ISO-25
 70
     0
 41
2.5
 42
0.625
 43
3.75
 44
1.25
 73
     0
 74
     0
 77
     1
 78
     8
140
2.5
141
2.5
143
0.0393700787
147
0.625
171
     3
172
     1
178
     0
271
     2
272
     2
274
     3
278
    44
283
     0
284
     8
340
11
  0
ENDTAB
  0
TABLE
  2
BLOCK_RECORD
  5
1
330
0
100
AcDbSymbolTable
 70
     2
  0
BLOCK_RECORD
  5
1F
330
1
100
AcDbSymbolTableRecord
100
AcDbBlockTableRecord
  2
*Model_Space
340
22
 70
     0
280
     1
281
     0
  0
BLOCK_RECORD
  5
1B
330
1
100
AcDbSymbolTableRecord
100
AcDbBlockTableRecord
  2
*Paper_Space
340
1E
 70
     0
280
     1
281
     0
  0
BLOCK_RECORD
  5
23
330
1
100
AcDbSymbolTableRecord
100
AcDbBlockTableRecord
  2
*Paper_Space0
340
26
 70
     0
280
     1
281
     0
  0
BLOCK_RECORD
  5
78
330
1
100
AcDbSymbolTableRecord
100
AcDbBlockTableRecord
  2
Block2
340
0
 70
     0
280
     1
281
     0
  0
ENDTAB
  0
ENDSEC
  0
SECTION
  2
BLOCKS
  0
BLOCK
  5
20
330
1F
100
AcDbEntity
  8
0
100
AcDbBlockBegin
  2
*Model_Space
 70
     0
 10
0.0
 20
0.0
 30
0.0
  3
*Model_Space
  1

  0
ENDBLK
  5
21
330
1F
100
AcDbEntity
  8
0
100
AcDbBlockEnd
  0
BLOCK
  5
1C
330
1B
100
AcDbEntity
 67
     1
  8
0
100
AcDbBlockBegin
  2
*Paper_Space
 70
     0
 10
0.0
 20
0.0
 30
0.0
  3
*Paper_Space
  1

  0
ENDBLK
  5
1D
330
1B
100
AcDbEntity
 67
     1
  8
0
100
AcDbBlockEnd
  0
BLOCK
  5
24
330
23
100
AcDbEntity
  8
0
100
AcDbBlockBegin
  2
*Paper_Space0
 70
     0
 10
0.0
 20
0.0
 30
0.0
  3
*Paper_Space0
  1

  0
ENDBLK
  5
25
330
23
100
AcDbEntity
  8
0
100
AcDbBlockEnd
  0
BLOCK
  5
79
330
78
100
AcDbEntity
  8
0
100
AcDbBlockBegin
  2
Block2
 70
     0
 10
0.0
 20
0.0
 30
0.0
  3
Block2
  1

  0
LINE
  5
7B
330
78
100
AcDbEntity
  8
0
  6
SLD-Durchgehend
 62
     7
370
    18
100
AcDbLine
 10
232.946671374
 20
51.7797156982
 30
0.0
 11
232.9472759882
 21
51.7797156982
 31
0.0
  0
LINE
  5
7C
330
78
100
AcDbEntity
  8
0
  6
SLD-Durchgehend
 62
     7
370
    18
100
AcDbLine
 10
233.6727459183
 20
55.2624953613
 30
0.0
 11
232.946671374
 21
55.2624953613
 31
0.0
  0
LINE
  5
7D
330
78
100
AcDbEntity
  8
0
  6
SLD-Durchgehend
 62
     7
370
    18
100
AcDbLine
 10
253.2143962099
 20
49.5548695882
 30
0.0
 11
253.2143962099
 21
52.1631754964
 31
0.0
  0
LINE
  5
7E
330
78
100
AcDbEntity
  8
0
  6
SLD-Durchgehend
 62
     7
370
    18
100
AcDbLine
 10
264.9174441429
 20
55.2308538818
 30
0.0
 11
264.9174441429
 21
49.5548695882
 31
0.0
  0
LINE
  5
7F
330
78
100
AcDbEntity
  8
0
  6
SLD-Durchgehend
 62
     7
370
    18
100
AcDbLine
 10
252.5518733421
 20
49.5548695882
 30
0.0
 11
253.2143962099
 21
49.5548695882
 31
0.0
  0
LINE
  5
80
330
78
100
AcDbEntity
  8
0
  6
SLD-Durchgehend
 62
     7
370
    18
100
AcDbLine
 10
249.836685069
 20
49.4456359456
 30
0.0
 11
249.841521983
 21
49.4456359456
 31
0.0
  0
LINE
  5
81
330
78
100
AcDbEntity
  8
0
  6
SLD-Durchgehend
 62
     7
370
    18
100
AcDbLine
 10
259.9476493024
 20
53.0527646077
 30
0.0
 11
259.9116411643
 21
53.1341188151
 31
0.0
  0
LINE
  5
82
330
78
100
AcDbEntity
  8
0
  6
SLD-Durchgehend
 62
     7
370
    18
100
AcDbLine
 10
267.7771352236
 20
49.5548695882
 30
0.0
 11
268.4404642438
 21
49.5548695882
 31
0.0
  0
LINE
  5
83
330
78
100
AcDbEntity
  8
0
  6
SLD-Durchgehend
 62
     7
370
    18
100
AcDbLine
 10
233.6739551468
 20
51.7216727295
 30
0.0
 11
233.6727459183
 21
51.7216727295
 31
0.0
  0
LINE
  5
84
330
78
100
AcDbEntity
  8
0
  6
SLD-Durchgehend
 62
     7
370
    18
100
AcDbLine
 10
265.579832652
 20
49.5548695882
 30
0.0
 11
265.579832652
 21
52.1637129313
 31
0.0
  0
LINE
  5
85
330
78
100
AcDbEntity
  8
0
  6
SLD-Durchgehend
 62
     7
370
    18
100
AcDbLine
 10
251.7394061383
 20
50.8797809652
 30
0.0
 11
251.7625830182
 21
50.954350057
 31
0.0
  0
LINE
  5
86
330
78
100
AcDbEntity
  8
0
  6
SLD-Durchgehend
 62
     7
370
    18
100
AcDbLine
 10
259.2890228375
 20
53.0527646077
 30
0.0
 11
259.9476493024
 21
53.0527646077
 31
0.0
  0
LINE
  5
87
330
78
100
AcDbEntity
  8
0
  6
SLD-Durchgehend
 62
     7
370
    18
100
AcDbLine
 10
233.6727459183
 20
51.7216727295
 30
0.0
 11
233.6727459183
 21
55.2624953613
 31
0.0
  0
LINE
  5
88
330
78
100
AcDbEntity
  8
0
  6
SLD-Durchgehend
 62
     7
370
    18
100
AcDbLine
 10
232.946671374
 20
55.2624953613
 30
0.0
 11
232.946671374
 21
51.7797156982
 31
0.0
  0
LINE
  5
89
330
78
100
AcDbEntity
  8
0
  6
SLD-Durchgehend
 62
     7
370
    18
100
AcDbLine
 10
276.3746954633
 20
50.0044338772
 30
0.0
 11
276.3746599345
 21
49.5548695882
 31
0.0
  0
LINE
  5
8A
330
78
100
AcDbEntity
  8
0
  6
SLD-Durchgehend
 62
     7
370
    18
100
AcDbLine
 10
267.7771352236
 20
52.4097237549
 30
0.0
 11
267.7771352236
 21
49.5548695882
 31
0.0
  0
LINE
  5
8B
330
78
100
AcDbEntity
  8
0
  6
SLD-Durchgehend
 62
     7
370
    18
100
AcDbLine
 10
279.6434249755
 20
53.6669183209
 30
0.0
 11
279.6434249755
 21
54.0432571068
 31
0.0
  0
LINE
  5
8C
330
78
100
AcDbEntity
  8
0
  6
SLD-Durchgehend
 62
     7
370
    18
100
AcDbLine
 10
255.4121690371
 20
49.5548695882
 30
0.0
 11
256.0747590843
 21
49.5548695882
 31
0.0
  0
LINE
  5
8D
330
78
100
AcDbEntity
  8
0
  6
SLD-Durchgehend
 62
     7
370
    18
100
AcDbLine
 10
240.2502572939
 20
49.4456359456
 30
0.0
 11
240.252138316
 21
49.4456359456
 31
0.0
  0
LINE
  5
8E
330
78
100
AcDbEntity
  8
0
  6
SLD-Durchgehend
 62
     7
370
    18
100
AcDbLine
 10
247.024825694
 20
51.7258378499
 30
0.0
 11
247.0260349225
 21
51.7258378499
 31
0.0
  0
LINE
  5
8F
330
78
100
AcDbEntity
  8
0
  6
SLD-Durchgehend
 62
     7
370
    18
100
AcDbLine
 10
253.2143962099
 20
54.0432571208
 30
0.0
 11
252.5518733421
 21
54.0432571208
 31
0.0
  0
LINE
  5
90
330
78
100
AcDbEntity
  8
0
  6
SLD-Durchgehend
 62
     7
370
    18
100
AcDbLine
 10
258.3740399274
 20
54.1393236084
 30
0.0
 11
258.3170718284
 21
54.1387861735
 31
0.0
  0
LINE
  5
91
330
78
100
AcDbEntity
  8
0
  6
SLD-Durchgehend
 62
     7
370
    18
100
AcDbLine
 10
278.710930268
 20
53.4717792044
 30
0.0
 11
276.3746954633
 21
50.0044338772
 31
0.0
  0
LINE
  5
92
330
78
100
AcDbEntity
  8
0
  6
SLD-Durchgehend
 62
     7
370
    18
100
AcDbLine
 10
263.7180238141
 20
52.978397054
 30
0.0
 11
264.4359024762
 21
52.9736944987
 31
0.0
  0
LINE
  5
93
330
78
100
AcDbEntity
  8
0
  6
SLD-Durchgehend
 62
     7
370
    18
100
AcDbLine
 10
279.6776899522
 20
50.1267003034
 30
0.0
 11
277.2619165934
 21
50.1267003034
 31
0.0
  0
LINE
  5
94
330
78
100
AcDbEntity
  8
0
  6
SLD-Durchgehend
 62
     7
370
    18
100
AcDbLine
 10
244.9913735862
 20
49.4456359456
 30
0.0
 11
244.9984945986
 21
49.4456359456
 31
0.0
  0
LINE
  5
95
330
78
100
AcDbEntity
  8
0
  6
SLD-Durchgehend
 62
     7
370
    18
100
AcDbLine
 10
279.6434249755
 20
54.0432571068
 30
0.0
 11
276.3750146496
 21
54.0432571068
 31
0.0
  0
LINE
  5
96
330
78
100
AcDbEntity
  8
0
  6
SLD-Durchgehend
 62
     7
370
    18
100
AcDbLine
 10
279.6774157734
 20
49.5548695882
 30
0.0
 11
279.6776899522
 21
50.1267003034
 31
0.0
  0
LINE
  5
97
330
78
100
AcDbEntity
  8
0
  6
SLD-Durchgehend
 62
     7
370
    18
100
AcDbLine
 10
264.4359024762
 20
52.9736944987
 30
0.0
 11
264.4000286969
 21
53.055586141
 31
0.0
  0
LINE
  5
98
330
78
100
AcDbEntity
  8
0
  6
SLD-Durchgehend
 62
     7
370
    18
100
AcDbLine
 10
277.2619165934
 20
50.1267003034
 30
0.0
 11
279.6434249755
 21
53.6669183209
 31
0.0
  0
LINE
  5
99
330
78
100
AcDbEntity
  8
0
  6
SLD-Durchgehend
 62
     7
370
    18
100
AcDbLine
 10
276.3746599345
 20
49.5548695882
 30
0.0
 11
279.6774157734
 21
49.5548695882
 31
0.0
  0
LINE
  5
9A
330
78
100
AcDbEntity
  8
0
  6
SLD-Durchgehend
 62
     7
370
    18
100
AcDbLine
 10
253.2143962099
 20
53.5326939697
 30
0.0
 11
253.2143962099
 21
54.0432571208
 31
0.0
  0
LINE
  5
9B
330
78
100
AcDbEntity
  8
0
  6
SLD-Durchgehend
 62
     7
370
    18
100
AcDbLine
 10
276.3749694859
 20
53.4717792044
 30
0.0
 11
276.3750146496
 21
54.0432571068
 31
0.0
  0
LINE
  5
9C
330
78
100
AcDbEntity
  8
0
  6
SLD-Durchgehend
 62
     7
370
    18
100
AcDbLine
 10
264.9174441429
 20
49.5548695882
 30
0.0
 11
265.579832652
 21
49.5548695882
 31
0.0
  0
LINE
  5
9D
330
78
100
AcDbEntity
  8
0
  6
SLD-Durchgehend
 62
     7
370
    18
100
AcDbLine
 10
264.4688203636
 20
50.7029648844
 30
0.0
 11
264.4999915875
 21
50.7819678141
 31
0.0
  0
LINE
  5
9E
330
78
100
AcDbEntity
  8
0
  6
SLD-Durchgehend
 62
     7
370
    18
100
AcDbLine
 10
276.3749694859
 20
53.4717792044
 30
0.0
 11
278.710930268
 21
53.4717792044
 31
0.0
  0
LINE
  5
9F
330
78
100
AcDbEntity
  8
0
  6
SLD-Durchgehend
 62
     7
370
    18
100
AcDbLine
 10
259.272227997
 20
53.0812486572
 30
0.0
 11
259.2890228375
 21
53.0527646077
 31
0.0
  0
LINE
  5
A0
330
78
100
AcDbEntity
  8
0
  6
SLD-Durchgehend
 62
     7
370
    18
100
AcDbLine
 10
251.8036296083
 20
51.7591588135
 30
0.0
 11
251.8015470481
 21
51.8196202393
 31
0.0
  0
LINE
  5
A1
330
78
100
AcDbEntity
  8
0
  6
SLD-Durchgehend
 62
     7
370
    18
100
AcDbLine
 10
256.0747590843
 20
49.5548695882
 30
0.0
 11
256.0747590843
 21
52.5733055013
 31
0.0
  0
LINE
  5
A2
330
78
100
AcDbEntity
  8
0
  6
SLD-Durchgehend
 62
     7
370
    18
100
AcDbLine
 10
274.3795206485
 20
53.4714263916
 30
0.0
 11
274.3795206485
 21
50.2778538818
 31
0.0
  0
LINE
  5
A3
330
78
100
AcDbEntity
  8
0
  6
SLD-Durchgehend
 62
     7
370
    18
100
AcDbLine
 10
275.0414733219
 20
55.2308538818
 30
0.0
 11
274.3795206485
 21
55.2308538818
 31
0.0
  0
LINE
  5
A4
330
78
100
AcDbEntity
  8
0
  6
SLD-Durchgehend
 62
     7
370
    18
100
AcDbLine
 10
275.0421778775
 20
53.4714263997
 30
0.0
 11
275.7691929911
 21
53.4714263997
 31
0.0
  0
LINE
  5
A5
330
78
100
AcDbEntity
  8
0
  6
SLD-Durchgehend
 62
     7
370
    18
100
AcDbLine
 10
249.8141799827
 20
50.071881958
 30
0.0
 11
249.8012143658
 21
50.0721506755
 31
0.0
  0
LINE
  5
A6
330
78
100
AcDbEntity
  8
0
  6
SLD-Durchgehend
 62
     7
370
    18
100
AcDbLine
 10
256.6612349143
 20
50.8026590576
 30
0.0
 11
256.684747691
 21
50.7275525309
 31
0.0
  0
LINE
  5
A7
330
78
100
AcDbEntity
  8
0
  6
SLD-Durchgehend
 62
     7
370
    18
100
AcDbLine
 10
247.0260349225
 20
51.7258378499
 30
0.0
 11
247.0260349225
 21
55.2308538818
 31
0.0
  0
LINE
  5
A8
330
78
100
AcDbEntity
  8
0
  6
SLD-Durchgehend
 62
     7
370
    18
100
AcDbLine
 10
255.4121690371
 20
52.40918632
 30
0.0
 11
255.4121690371
 21
49.5548695882
 31
0.0
  0
LINE
  5
A9
330
78
100
AcDbEntity
  8
0
  6
SLD-Durchgehend
 62
     7
370
    18
100
AcDbLine
 10
263.7743201194
 20
50.7822365316
 30
0.0
 11
263.7591375836
 21
50.7491842855
 31
0.0
  0
LINE
  5
AA
330
78
100
AcDbEntity
  8
0
  6
SLD-Durchgehend
 62
     7
370
    18
100
AcDbLine
 10
265.579832652
 20
53.5253714193
 30
0.0
 11
265.579832652
 21
55.2308538818
 31
0.0
  0
LINE
  5
AB
330
78
100
AcDbEntity
  8
0
  6
SLD-Durchgehend
 62
     7
370
    18
100
AcDbLine
 10
275.0421778775
 20
50.6422347493
 30
0.0
 11
275.0421778775
 21
53.4714263997
 31
0.0
  0
LINE
  5
AC
330
78
100
AcDbEntity
  8
0
  6
SLD-Durchgehend
 62
     7
370
    18
100
AcDbLine
 10
251.0529674176
 20
52.3307208252
 30
0.0
 11
248.4766388857
 21
52.3307208252
 31
0.0
  0
LINE
  5
AD
330
78
100
AcDbEntity
  8
0
  6
SLD-Durchgehend
 62
     7
370
    18
100
AcDbLine
 10
265.579832652
 20
55.2308538818
 30
0.0
 11
264.9174441429
 21
55.2308538818
 31
0.0
  0
LINE
  5
AE
330
78
100
AcDbEntity
  8
0
  6
SLD-Durchgehend
 62
     7
370
    18
100
AcDbLine
 10
264.4999915875
 20
50.7819678141
 30
0.0
 11
263.7743201194
 21
50.7822365316
 31
0.0
  0
LINE
  5
AF
330
78
100
AcDbEntity
  8
0
  6
SLD-Durchgehend
 62
     7
370
    18
100
AcDbLine
 10
275.7691929394
 20
49.5336409268
 30
0.0
 11
275.7691929394
 21
50.0978132087
 31
0.0
  0
LINE
  5
B0
330
78
100
AcDbEntity
  8
0
  6
SLD-Durchgehend
 62
     7
370
    18
100
AcDbLine
 10
274.3795206485
 20
55.2308538818
 30
0.0
 11
274.3795206485
 21
54.0429884033
 31
0.0
  0
LINE
  5
B1
330
78
100
AcDbEntity
  8
0
  6
SLD-Durchgehend
 62
     7
370
    18
100
AcDbLine
 10
274.3795206485
 20
54.0429884033
 30
0.0
 11
273.7919506049
 21
54.0429884033
 31
0.0
  0
LINE
  5
B2
330
78
100
AcDbEntity
  8
0
  6
SLD-Durchgehend
 62
     7
370
    18
100
AcDbLine
 10
275.0419489884
 20
54.0430117619
 30
0.0
 11
275.0414733219
 21
55.2308538818
 31
0.0
  0
LINE
  5
B3
330
78
100
AcDbEntity
  8
0
  6
SLD-Durchgehend
 62
     7
370
    18
100
AcDbLine
 10
246.3676771751
 20
55.2308538818
 30
0.0
 11
246.3676771751
 21
53.54109139
 31
0.0
  0
LINE
  5
B4
330
78
100
AcDbEntity
  8
0
  6
SLD-Durchgehend
 62
     7
370
    18
100
AcDbLine
 10
248.4676368512
 20
51.7591588135
 30
0.0
 11
251.8036296083
 21
51.7591588135
 31
0.0
  0
LINE
  5
B5
330
78
100
AcDbEntity
  8
0
  6
SLD-Durchgehend
 62
     7
370
    18
100
AcDbLine
 10
273.7919506049
 20
53.4714263916
 30
0.0
 11
274.3795206485
 21
53.4714263916
 31
0.0
  0
LINE
  5
B6
330
78
100
AcDbEntity
  8
0
  6
SLD-Durchgehend
 62
     7
370
    18
100
AcDbLine
 10
273.7919506049
 20
54.0429884033
 30
0.0
 11
273.7919506049
 21
53.4714263916
 31
0.0
  0
LINE
  5
B7
330
78
100
AcDbEntity
  8
0
  6
SLD-Durchgehend
 62
     7
370
    18
100
AcDbLine
 10
251.0299248964
 20
50.954350057
 30
0.0
 11
251.0163546653
 21
50.9159234619
 31
0.0
  0
LINE
  5
B8
330
78
100
AcDbEntity
  8
0
  6
SLD-Durchgehend
 62
     7
370
    18
100
AcDbLine
 10
275.7691929911
 20
53.4714263997
 30
0.0
 11
275.7689641251
 21
54.0429543063
 31
0.0
  0
LINE
  5
B9
330
78
100
AcDbEntity
  8
0
  6
SLD-Durchgehend
 62
     7
370
    18
100
AcDbLine
 10
252.5518733421
 20
54.0432571208
 30
0.0
 11
252.5518733421
 21
49.5548695882
 31
0.0
  0
LINE
  5
BA
330
78
100
AcDbEntity
  8
0
  6
SLD-Durchgehend
 62
     7
370
    18
100
AcDbLine
 10
268.4404642438
 20
49.5548695882
 30
0.0
 11
268.4404642438
 21
52.5733055013
 31
0.0
  0
LINE
  5
BB
330
78
100
AcDbEntity
  8
0
  6
SLD-Durchgehend
 62
     7
370
    18
100
AcDbLine
 10
275.7689641251
 20
54.0429543063
 30
0.0
 11
275.0419489884
 21
54.0430117619
 31
0.0
  0
LINE
  5
BC
330
78
100
AcDbEntity
  8
0
  6
SLD-Durchgehend
 62
     7
370
    18
100
AcDbLine
 10
263.7028412783
 20
53.0121882731
 30
0.0
 11
263.7180238141
 21
52.978397054
 31
0.0
  0
LINE
  5
BD
330
78
100
AcDbEntity
  8
0
  6
SLD-Durchgehend
 62
     7
370
    18
100
AcDbLine
 10
258.3170718284
 20
54.1387861735
 30
0.0
 11
258.3170718284
 21
54.1375097656
 31
0.0
  0
LINE
  5
BE
330
78
100
AcDbEntity
  8
0
  6
SLD-Durchgehend
 62
     7
370
    18
100
AcDbLine
 10
257.3349095563
 20
50.8026590576
 30
0.0
 11
256.6612349143
 21
50.8026590576
 31
0.0
  0
LINE
  5
BF
330
78
100
AcDbEntity
  8
0
  6
SLD-Durchgehend
 62
     7
370
    18
100
AcDbLine
 10
257.3465987652
 20
50.7604704183
 30
0.0
 11
257.3349095563
 21
50.8026590576
 31
0.0
  0
LINE
  5
C0
330
78
100
AcDbEntity
  8
0
  6
SLD-Durchgehend
 62
     7
370
    18
100
AcDbLine
 10
271.1938845969
 20
49.4456359307
 30
0.0
 11
271.1949594667
 21
49.4456359307
 31
0.0
  0
LINE
  5
C1
330
78
100
AcDbEntity
  8
0
  6
SLD-Durchgehend
 62
     7
370
    18
100
AcDbLine
 10
262.5728844098
 20
49.4456359456
 30
0.0
 11
262.5853797711
 21
49.4456359456
 31
0.0
  0
LINE
  5
C2
330
78
100
AcDbEntity
  8
0
  6
SLD-Durchgehend
 62
     7
370
    18
100
AcDbLine
 10
247.0260349225
 20
55.2308538818
 30
0.0
 11
246.3676771751
 21
55.2308538818
 31
0.0
  0
LINE
  5
C3
330
78
100
AcDbEntity
  8
0
  6
SLD-Durchgehend
 62
     7
370
    18
100
AcDbLine
 10
258.3976870628
 20
49.4356934001
 30
0.0
 11
258.4476685081
 21
49.436230835
 31
0.0
  0
LINE
  5
C4
330
78
100
AcDbEntity
  8
0
  6
SLD-Durchgehend
 62
     7
370
    18
100
AcDbLine
 10
248.4677712099
 20
51.6989661051
 30
0.0
 11
248.4676368512
 21
51.7591588135
 31
0.0
  0
LINE
  5
C5
330
78
100
AcDbEntity
  8
0
  6
SLD-Durchgehend
 62
     7
370
    18
100
AcDbLine
 10
251.7625830182
 20
50.954350057
 30
0.0
 11
251.0299248964
 21
50.954350057
 31
0.0
  0
LINE
  5
C6
330
78
100
AcDbEntity
  8
0
  6
SLD-Durchgehend
 62
     7
370
    18
100
AcDbLine
 10
272.5521168952
 20
54.0432571195
 30
0.0
 11
272.5521168952
 21
53.6264091784
 31
0.0
  0
LINE
  5
C7
330
78
100
AcDbEntity
  8
0
  6
SLD-Durchgehend
 62
     7
370
    18
100
AcDbLine
 10
269.7885180068
 20
51.7991976678
 30
0.0
 11
269.7882492894
 21
51.7991976678
 31
0.0
  0
LINE
  5
C8
330
78
100
AcDbEntity
  8
0
  6
SLD-Durchgehend
 62
     7
370
    18
100
AcDbLine
 10
272.6762643972
 20
49.5548695882
 30
0.0
 11
273.2284787527
 21
49.5548695882
 31
0.0
  0
LINE
  5
C9
330
78
100
AcDbEntity
  8
0
  6
SLD-Durchgehend
 62
     7
370
    18
100
AcDbLine
 10
272.5890655808
 20
50.0075241284
 30
0.0
 11
272.6762643972
 21
49.5548695882
 31
0.0
  0
LINE
  5
CA
330
78
100
AcDbEntity
  8
0
  6
SLD-Durchgehend
 62
     7
370
    18
100
AcDbLine
 10
273.2284787527
 20
49.5548695882
 30
0.0
 11
273.2284787527
 21
54.0432571195
 31
0.0
  0
LINE
  5
CB
330
78
100
AcDbEntity
  8
0
  6
SLD-Durchgehend
 62
     7
370
    18
100
AcDbLine
 10
272.5521168952
 20
54.0432571195
 30
0.0
 11
273.2284787527
 21
54.0432571195
 31
0.0
  0
SPLINE
  5
CC
330
78
100
AcDbEntity
  8
0
  6
SLD-Durchgehend
 62
     8
420
  8421504
370
     0
100
AcDbSpline
210
0.0
220
0.0
230
1.0
 70
     8
 71
     3
 72
     8
 73
     4
 74
     0
 42
0.00000001
 43
0.00000001
 40
23.0
 40
23.0
 40
23.0
 40
23.0
 40
24.0
 40
24.0
 40
24.0
 40
24.0
 10
260.0939659527489
 20
50.82039440917971
 30
0.0
 10
260.0961156923323
 20
51.7381988525391
 30
0.0
 10
259.4008092958479
 20
51.98891223144533
 30
0.0
 10
258.7550812685041
 20
52.13281042480472
 30
0.0
  0
SPLINE
  5
CD
330
78
100
AcDbEntity
  8
0
  6
SLD-Durchgehend
 62
     8
420
  8421504
370
     0
100
AcDbSpline
210
0.0
220
0.0
230
1.0
 70
     8
 71
     3
 72
     8
 73
     4
 74
     0
 42
0.00000001
 43
0.00000001
 40
3.0
 40
3.0
 40
3.0
 40
3.0
 40
4.0
 40
4.0
 40
4.0
 40
4.0
 10
246.363243337189
 20
51.79919771321618
 30
0.0
 10
246.3701628114729
 20
50.59198457845055
 30
0.0
 10
245.7664218853661
 20
50.07403169759117
 30
0.0
 10
244.9913735862125
 20
50.07188195800784
 30
0.0
  0
SPLINE
  5
CE
330
78
100
AcDbEntity
  8
0
  6
SLD-Durchgehend
 62
     8
420
  8421504
370
     0
100
AcDbSpline
210
0.0
220
0.0
230
1.0
 70
     8
 71
     3
 72
     8
 73
     4
 74
     0
 42
0.00000001
 43
0.00000001
 40
1.0
 40
1.0
 40
1.0
 40
1.0
 40
2.0
 40
2.0
 40
2.0
 40
2.0
 10
249.7665498150536
 20
54.15289383951826
 30
0.0
 10
249.2061395774234
 20
54.15289383951826
 30
0.0
 10
248.694904632762
 20
53.94645166015629
 30
0.0
 10
248.3258883974104
 20
53.54626420084637
 30
0.0
  0
SPLINE
  5
CF
330
78
100
AcDbEntity
  8
0
  6
SLD-Durchgehend
 62
     8
420
  8421504
370
     0
100
AcDbSpline
210
0.0
220
0.0
230
1.0
 70
     8
 71
     3
 72
     8
 73
     4
 74
     0
 42
0.00000001
 43
0.00000001
 40
5.0
 40
5.0
 40
5.0
 40
5.0
 40
6.0
 40
6.0
 40
6.0
 40
6.0
 10
232.9472759882492
 20
51.77971569824223
 30
0.0
 10
232.9535908482752
 20
50.25501289876306
 30
0.0
 10
233.8585640334966
 20
49.43676826985681
 30
0.0
 10
234.9778393834315
 20
49.43676826985681
 30
0.0
  0
SPLINE
  5
D0
330
78
100
AcDbEntity
  8
0
  6
SLD-Durchgehend
 62
     8
420
  8421504
370
     0
100
AcDbSpline
210
0.0
220
0.0
230
1.0
 70
     8
 71
     3
 72
     8
 73
     4
 74
     0
 42
0.00000001
 43
0.00000001
 40
12.0
 40
12.0
 40
12.0
 40
12.0
 40
13.0
 40
13.0
 40
13.0
 40
13.0
 10
268.0578105979312
 20
53.71165979003909
 30
0.0
 10
267.7943331402489
 20
53.99354439290368
 30
0.0
 10
267.3903164573062
 20
54.15289383951826
 30
0.0
 10
266.842804657176
 20
54.15289383951826
 30
0.0
  0
SPLINE
  5
D1
330
78
100
AcDbEntity
  8
0
  6
SLD-Durchgehend
 62
     8
420
  8421504
370
     0
100
AcDbSpline
210
0.0
220
0.0
230
1.0
 70
     8
 71
     3
 72
     8
 73
     4
 74
     0
 42
0.00000001
 43
0.00000001
 40
9.0
 40
9.0
 40
9.0
 40
9.0
 40
10.0
 40
10.0
 40
10.0
 40
10.0
 10
260.5381558941552
 20
51.799735148112
 30
0.0
 10
260.5538758648583
 20
50.3993141682943
 30
0.0
 10
261.4438680523583
 20
49.44469543457033
 30
0.0
 10
262.5728844097802
 20
49.44563594563805
 30
0.0
  0
SPLINE
  5
D2
330
78
100
AcDbEntity
  8
0
  6
SLD-Durchgehend
 62
     8
420
  8421504
370
     0
100
AcDbSpline
210
0.0
220
0.0
230
1.0
 70
     8
 71
     3
 72
     8
 73
     4
 74
     0
 42
0.00000001
 43
0.00000001
 40
3.0
 40
3.0
 40
3.0
 40
3.0
 40
4.0
 40
4.0
 40
4.0
 40
4.0
 10
242.9563763531395
 20
51.79919771321618
 30
0.0
 10
242.9563763531395
 20
51.04101143391929
 30
0.0
 10
243.1810913189599
 20
50.45144535319012
 30
0.0
 10
243.5503762717593
 20
50.05172814941409
 30
0.0
  0
SPLINE
  5
D3
330
78
100
AcDbEntity
  8
0
  6
SLD-Durchgehend
 62
     8
420
  8421504
370
     0
100
AcDbSpline
210
0.0
220
0.0
230
1.0
 70
     8
 71
     3
 72
     8
 73
     4
 74
     0
 42
0.00000001
 43
0.00000001
 40
0.0
 40
0.0
 40
0.0
 40
0.0
 40
1.0
 40
1.0
 40
1.0
 40
1.0
 10
246.3676771750796
 20
53.54109138997399
 30
0.0
 10
246.0469629009911
 20
53.931269124349
 30
0.0
 10
245.5208141379703
 20
54.15289383951826
 30
0.0
 10
244.9913735862125
 20
54.15289383951826
 30
0.0
  0
SPLINE
  5
D4
330
78
100
AcDbEntity
  8
0
  6
SLD-Durchgehend
 62
     8
420
  8421504
370
     0
100
AcDbSpline
210
0.0
220
0.0
230
1.0
 70
     8
 71
     3
 72
    11
 73
     7
 74
     0
 42
0.00000001
 43
0.00000001
 40
1.0
 40
1.0
 40
1.0
 40
1.0
 40
2.0
 40
2.0
 40
2.0
 40
3.0
 40
3.0
 40
3.0
 40
3.0
 10
235.7273595250331
 20
53.54102421061203
 30
0.0
 10
236.3061097284836
 20
53.32248974609381
 30
0.0
 10
236.7050879592778
 20
52.70645499674485
 30
0.0
 10
236.7050879592778
 20
51.7957043863933
 30
0.0
 10
236.7050879592778
 20
50.87816866048182
 30
0.0
 10
236.3067815221034
 20
50.26656774902347
 30
0.0
 10
235.7287031122727
 20
50.04930969238286
 30
0.0
  0
SPLINE
  5
D5
330
78
100
AcDbEntity
  8
0
  6
SLD-Durchgehend
 62
     8
420
  8421504
370
     0
100
AcDbSpline
210
0.0
220
0.0
230
1.0
 70
     8
 71
     3
 72
     8
 73
     4
 74
     0
 42
0.00000001
 43
0.00000001
 40
1.0
 40
1.0
 40
1.0
 40
1.0
 40
2.0
 40
2.0
 40
2.0
 40
2.0
 10
249.7665498150536
 20
53.52637910970056
 30
0.0
 10
250.6097851666161
 20
53.52456526692713
 30
0.0
 10
250.922908172801
 20
52.93708174641929
 30
0.0
 10
251.0529674175927
 20
52.33072082519535
 30
0.0
  0
SPLINE
  5
D6
330
78
100
AcDbEntity
  8
0
  6
SLD-Durchgehend
 62
     8
420
  8421504
370
     0
100
AcDbSpline
210
0.0
220
0.0
230
1.0
 70
     8
 71
     3
 72
     8
 73
     4
 74
     0
 42
0.00000001
 43
0.00000001
 40
6.0
 40
6.0
 40
6.0
 40
6.0
 40
7.0
 40
7.0
 40
7.0
 40
7.0
 10
234.9778393834315
 20
49.43676826985681
 30
0.0
 10
235.0608058954758
 20
49.43676826985681
 30
0.0
 10
235.14377240752
 20
49.43985852050785
 30
0.0
 10
235.2267389195643
 20
49.44563594563805
 30
0.0
  0
SPLINE
  5
D7
330
78
100
AcDbEntity
  8
0
  6
SLD-Durchgehend
 62
     8
420
  8421504
370
     0
100
AcDbSpline
210
0.0
220
0.0
230
1.0
 70
     8
 71
     3
 72
     8
 73
     4
 74
     0
 42
0.00000001
 43
0.00000001
 40
6.0
 40
6.0
 40
6.0
 40
6.0
 40
7.0
 40
7.0
 40
7.0
 40
7.0
 10
241.6913217877099
 20
50.05172814941409
 30
0.0
 10
242.0604723817854
 20
50.45144535319012
 30
0.0
 10
242.2852545269677
 20
51.04101143391929
 30
0.0
 10
242.2852545269677
 20
51.79919771321618
 30
0.0
  0
SPLINE
  5
D8
330
78
100
AcDbEntity
  8
0
  6
SLD-Durchgehend
 62
     8
420
  8421504
370
     0
100
AcDbSpline
210
0.0
220
0.0
230
1.0
 70
     8
 71
     3
 72
     8
 73
     4
 74
     0
 42
0.00000001
 43
0.00000001
 40
5.0
 40
5.0
 40
5.0
 40
5.0
 40
6.0
 40
6.0
 40
6.0
 40
6.0
 10
237.4308937861008
 20
51.79570438639327
 30
0.0
 10
237.4271317418299
 20
52.92707202148441
 30
0.0
 10
236.8167400588872
 20
53.57031441243492
 30
0.0
 10
236.0195897496424
 20
53.57185953776045
 30
0.0
  0
SPLINE
  5
D9
330
78
100
AcDbEntity
  8
0
  6
SLD-Durchgehend
 62
     8
420
  8421504
370
     0
100
AcDbSpline
210
0.0
220
0.0
230
1.0
 70
     8
 71
     3
 72
     8
 73
     4
 74
     0
 42
0.00000001
 43
0.00000001
 40
3.0
 40
3.0
 40
3.0
 40
3.0
 40
4.0
 40
4.0
 40
4.0
 40
4.0
 10
235.7287031122727
 20
50.04930969238285
 30
0.0
 10
235.8220824254237
 20
50.029424601237
 30
0.0
 10
235.9193581415695
 20
50.01948205566409
 30
0.0
 10
236.0195897496424
 20
50.01907897949221
 30
0.0
  0
SPLINE
  5
DA
330
78
100
AcDbEntity
  8
0
  6
SLD-Durchgehend
 62
     8
420
  8421504
370
     0
100
AcDbSpline
210
0.0
220
0.0
230
1.0
 70
     8
 71
     3
 72
     8
 73
     4
 74
     0
 42
0.00000001
 43
0.00000001
 40
3.0
 40
3.0
 40
3.0
 40
3.0
 40
4.0
 40
4.0
 40
4.0
 40
4.0
 10
258.3858634950666
 20
53.56460416666669
 30
0.0
 10
258.8105714214989
 20
53.56124519856773
 30
0.0
 10
259.0927247418114
 20
53.38248091634117
 30
0.0
 10
259.2722279970197
 20
53.08124865722658
 30
0.0
  0
SPLINE
  5
DB
330
78
100
AcDbEntity
  8
0
  6
SLD-Durchgehend
 62
     8
420
  8421504
370
     0
100
AcDbSpline
210
0.0
220
0.0
230
1.0
 70
     8
 71
     3
 72
     8
 73
     4
 74
     0
 42
0.00000001
 43
0.00000001
 40
0.0
 40
0.0
 40
0.0
 40
0.0
 40
1.0
 40
1.0
 40
1.0
 40
1.0
 10
254.4773682151187
 20
54.1524235839844
 30
0.0
 10
254.0052316591292
 20
54.15369999186201
 30
0.0
 10
253.5150910341292
 20
53.98333312988284
 30
0.0
 10
253.2143962099104
 20
53.53269396972657
 30
0.0
  0
SPLINE
  5
DC
330
78
100
AcDbEntity
  8
0
  6
SLD-Durchgehend
 62
     8
420
  8421504
370
     0
100
AcDbSpline
210
0.0
220
0.0
230
1.0
 70
     8
 71
     3
 72
     8
 73
     4
 74
     0
 42
0.00000001
 43
0.00000001
 40
4.0
 40
4.0
 40
4.0
 40
4.0
 40
5.0
 40
5.0
 40
5.0
 40
5.0
 10
236.0195897496424
 20
50.01907897949221
 30
0.0
 10
236.8172103144211
 20
50.02109436035159
 30
0.0
 10
237.4267286656581
 20
50.65526753743492
 30
0.0
 10
237.4308937861008
 20
51.79570438639327
 30
0.0
  0
SPLINE
  5
DD
330
78
100
AcDbEntity
  8
0
  6
SLD-Durchgehend
 62
     8
420
  8421504
370
     0
100
AcDbSpline
210
0.0
220
0.0
230
1.0
 70
     8
 71
     3
 72
     8
 73
     4
 74
     0
 42
0.00000001
 43
0.00000001
 40
13.0
 40
13.0
 40
13.0
 40
13.0
 40
14.0
 40
14.0
 40
14.0
 40
14.0
 10
258.1843254091291
 20
51.63823596191408
 30
0.0
 10
258.5088017274885
 20
51.5730719807943
 30
0.0
 10
258.8295160015771
 20
51.52094079589845
 30
0.0
 10
259.0598068544416
 20
51.40996048990888
 30
0.0
  0
SPLINE
  5
DE
330
78
100
AcDbEntity
  8
0
  6
SLD-Durchgehend
 62
     8
420
  8421504
370
     0
100
AcDbSpline
210
0.0
220
0.0
230
1.0
 70
     8
 71
     3
 72
     8
 73
     4
 74
     0
 42
0.00000001
 43
0.00000001
 40
11.0
 40
11.0
 40
11.0
 40
11.0
 40
12.0
 40
12.0
 40
12.0
 40
12.0
 10
256.0747590842593
 20
52.5733055013021
 30
0.0
 10
256.0747590842593
 20
53.03361848958336
 30
0.0
 10
255.9559859722802
 20
53.43037980143232
 30
0.0
 10
255.6924413352359
 20
53.71165979003909
 30
0.0
  0
SPLINE
  5
DF
330
78
100
AcDbEntity
  8
0
  6
SLD-Durchgehend
 62
     8
420
  8421504
370
     0
100
AcDbSpline
210
0.0
220
0.0
230
1.0
 70
     8
 71
     3
 72
     8
 73
     4
 74
     0
 42
0.00000001
 43
0.00000001
 40
0.0
 40
0.0
 40
0.0
 40
0.0
 40
1.0
 40
1.0
 40
1.0
 40
1.0
 10
248.4766388856916
 20
52.33072082519535
 30
0.0
 10
248.5873504742333
 20
53.00748571777345
 30
0.0
 10
249.0482008974104
 20
53.52537141927086
 30
0.0
 10
249.7665498150536
 20
53.52637910970056
 30
0.0
  0
SPLINE
  5
E0
330
78
100
AcDbEntity
  8
0
  6
SLD-Durchgehend
 62
     8
420
  8421504
370
     0
100
AcDbSpline
210
0.0
220
0.0
230
1.0
 70
     8
 71
     3
 72
     8
 73
     4
 74
     0
 42
0.00000001
 43
0.00000001
 40
14.0
 40
14.0
 40
14.0
 40
14.0
 40
15.0
 40
15.0
 40
15.0
 40
15.0
 10
259.0598068544416
 20
51.40996048990888
 30
0.0
 10
259.2900977073062
 20
51.29615865071617
 30
0.0
 10
259.4282184755354
 20
51.14339278157556
 30
0.0
 10
259.4309056500146
 20
50.83866719563805
 30
0.0
  0
SPLINE
  5
E1
330
78
100
AcDbEntity
  8
0
  6
SLD-Durchgehend
 62
     8
420
  8421504
370
     0
100
AcDbSpline
210
0.0
220
0.0
230
1.0
 70
     8
 71
     3
 72
     8
 73
     4
 74
     0
 42
0.00000001
 43
0.00000001
 40
7.0
 40
7.0
 40
7.0
 40
7.0
 40
8.0
 40
8.0
 40
8.0
 40
8.0
 10
235.2267389195643
 20
49.44563594563805
 30
0.0
 10
234.3484359410487
 20
49.66813399251304
 30
0.0
 10
233.6945792109055
 20
50.4570884195964
 30
0.0
 10
233.6739551467778
 20
51.72167272949222
 30
0.0
  0
SPLINE
  5
E2
330
78
100
AcDbEntity
  8
0
  6
SLD-Durchgehend
 62
     8
420
  8421504
370
     0
100
AcDbSpline
210
0.0
220
0.0
230
1.0
 70
     8
 71
     3
 72
     8
 73
     4
 74
     0
 42
0.00000001
 43
0.00000001
 40
7.0
 40
7.0
 40
7.0
 40
7.0
 40
8.0
 40
8.0
 40
8.0
 40
8.0
 10
242.2852545269677
 20
51.79919771321618
 30
0.0
 10
242.2852545269677
 20
52.55704809570316
 30
0.0
 10
242.0604723817854
 20
53.14695007324222
 30
0.0
 10
241.6913217877099
 20
53.54626420084637
 30
0.0
  0
SPLINE
  5
E3
330
78
100
AcDbEntity
  8
0
  6
SLD-Durchgehend
 62
     8
420
  8421504
370
     0
100
AcDbSpline
210
0.0
220
0.0
230
1.0
 70
     8
 71
     3
 72
     8
 73
     4
 74
     0
 42
0.00000001
 43
0.00000001
 40
0.0
 40
0.0
 40
0.0
 40
0.0
 40
1.0
 40
1.0
 40
1.0
 40
1.0
 10
236.0195897496424
 20
53.57185953776045
 30
0.0
 10
235.9188207066737
 20
53.57159082031254
 30
0.0
 10
235.8212090937179
 20
53.56117801920577
 30
0.0
 10
235.7273595250331
 20
53.54102421061203
 30
0.0
  0
SPLINE
  5
E4
330
78
100
AcDbEntity
  8
0
  6
SLD-Durchgehend
 62
     8
420
  8421504
370
     0
100
AcDbSpline
210
0.0
220
0.0
230
1.0
 70
     8
 71
     3
 72
     8
 73
     4
 74
     0
 42
0.00000001
 43
0.00000001
 40
12.0
 40
12.0
 40
12.0
 40
12.0
 40
13.0
 40
13.0
 40
13.0
 40
13.0
 10
251.016354665314
 20
50.9159234619141
 30
0.0
 10
250.8335596213687
 20
50.40294185384116
 30
0.0
 10
250.4579598085432
 20
50.0826306559245
 30
0.0
 10
249.8141799826968
 20
50.07188195800784
 30
0.0
  0
SPLINE
  5
E5
330
78
100
AcDbEntity
  8
0
  6
SLD-Durchgehend
 62
     8
420
  8421504
370
     0
100
AcDbSpline
210
0.0
220
0.0
230
1.0
 70
     8
 71
     3
 72
     8
 73
     4
 74
     0
 42
0.00000001
 43
0.00000001
 40
21.0
 40
21.0
 40
21.0
 40
21.0
 40
22.0
 40
22.0
 40
22.0
 40
22.0
 10
274.6302340347482
 20
49.67283655090634
 30
0.0
 10
274.7848809273797
 20
49.56158752935308
 30
0.0
 10
274.9834631217241
 20
49.53417835208514
 30
0.0
 10
275.1847324902169
 20
49.53390963708953
 30
0.0
  0
SPLINE
  5
E6
330
78
100
AcDbEntity
  8
0
  6
SLD-Durchgehend
 62
     8
420
  8421504
370
     0
100
AcDbSpline
210
0.0
220
0.0
230
1.0
 70
     8
 71
     3
 72
     8
 73
     4
 74
     0
 42
0.00000001
 43
0.00000001
 40
6.0
 40
6.0
 40
6.0
 40
6.0
 40
7.0
 40
7.0
 40
7.0
 40
7.0
 10
244.9984945985823
 20
49.44563594563805
 30
0.0
 10
245.9458579612125
 20
49.44563594563805
 30
0.0
 10
246.7583251649885
 20
50.01303283691409
 30
0.0
 10
246.9688652854312
 20
51.13371895345053
 30
0.0
  0
SPLINE
  5
E7
330
78
100
AcDbEntity
  8
0
  6
SLD-Durchgehend
 62
     8
420
  8421504
370
     0
100
AcDbSpline
210
0.0
220
0.0
230
1.0
 70
     8
 71
     3
 72
     8
 73
     4
 74
     0
 42
0.00000001
 43
0.00000001
 40
7.0
 40
7.0
 40
7.0
 40
7.0
 40
8.0
 40
8.0
 40
8.0
 40
8.0
 10
264.4000286968895
 20
53.05558614095054
 30
0.0
 10
263.9996396994937
 20
53.97654801432294
 30
0.0
 10
263.2563672385562
 20
54.15558101399741
 30
0.0
 10
262.6999877626448
 20
54.1524235839844
 30
0.0
  0
SPLINE
  5
E8
330
78
100
AcDbEntity
  8
0
  6
SLD-Durchgehend
 62
     8
420
  8421504
370
     0
100
AcDbSpline
210
0.0
220
0.0
230
1.0
 70
     8
 71
     3
 72
     8
 73
     4
 74
     0
 42
0.00000001
 43
0.00000001
 40
3.0
 40
3.0
 40
3.0
 40
3.0
 40
4.0
 40
4.0
 40
4.0
 40
4.0
 10
262.6275684104312
 20
53.52637910970056
 30
0.0
 10
263.1397438661604
 20
53.52456526692713
 30
0.0
 10
263.5299216005354
 20
53.37381477864585
 30
0.0
 10
263.7028412782698
 20
53.01218827311202
 30
0.0
  0
SPLINE
  5
E9
330
78
100
AcDbEntity
  8
0
  6
SLD-Durchgehend
 62
     8
420
  8421504
370
     0
100
AcDbSpline
210
0.0
220
0.0
230
1.0
 70
     8
 71
     3
 72
     8
 73
     4
 74
     0
 42
0.00000001
 43
0.00000001
 40
20.0
 40
20.0
 40
20.0
 40
20.0
 40
21.0
 40
21.0
 40
21.0
 40
21.0
 10
256.6847476910302
 20
50.7275525309245
 30
0.0
 10
256.9378795269677
 20
49.9117263590495
 30
0.0
 10
257.6850483909
 20
49.45960925292972
 30
0.0
 10
258.397687062775
 20
49.43569340006511
 30
0.0
  0
SPLINE
  5
EA
330
78
100
AcDbEntity
  8
0
  6
SLD-Durchgehend
 62
     8
420
  8421504
370
     0
100
AcDbSpline
210
0.0
220
0.0
230
1.0
 70
     8
 71
     3
 72
     8
 73
     4
 74
     0
 42
0.00000001
 43
0.00000001
 40
0.0
 40
0.0
 40
0.0
 40
0.0
 40
1.0
 40
1.0
 40
1.0
 40
1.0
 10
251.8015470481265
 20
51.81962023925784
 30
0.0
 10
251.7605004579573
 20
53.12733369954429
 30
0.0
 10
251.0964324647933
 20
54.1553122965495
 30
0.0
 10
249.7665498150536
 20
54.15289383951826
 30
0.0
  0
SPLINE
  5
EB
330
78
100
AcDbEntity
  8
0
  6
SLD-Durchgehend
 62
     8
420
  8421504
370
     0
100
AcDbSpline
210
0.0
220
0.0
230
1.0
 70
     8
 71
     3
 72
     8
 73
     4
 74
     0
 42
0.00000001
 43
0.00000001
 40
12.0
 40
12.0
 40
12.0
 40
12.0
 40
13.0
 40
13.0
 40
13.0
 40
13.0
 10
256.8442314963687
 20
52.87897159830732
 30
0.0
 10
256.8418130393375
 20
51.96848970540368
 30
0.0
 10
257.5411501975406
 20
51.76144291178387
 30
0.0
 10
258.1843254091291
 20
51.63823596191408
 30
0.0
  0
SPLINE
  5
EC
330
78
100
AcDbEntity
  8
0
  6
SLD-Durchgehend
 62
     8
420
  8421504
370
     0
100
AcDbSpline
210
0.0
220
0.0
230
1.0
 70
     8
 71
     3
 72
     8
 73
     4
 74
     0
 42
0.00000001
 43
0.00000001
 40
15.0
 40
15.0
 40
15.0
 40
15.0
 40
16.0
 40
16.0
 40
16.0
 40
16.0
 10
259.4309056500146
 20
50.83866719563805
 30
0.0
 10
259.4306369325666
 20
50.17480074055992
 30
0.0
 10
258.8938738303531
 20
50.022975382487
 30
0.0
 10
258.4449813336083
 20
50.00443387858074
 30
0.0
  0
SPLINE
  5
ED
330
78
100
AcDbEntity
  8
0
  6
SLD-Durchgehend
 62
     8
420
  8421504
370
     0
100
AcDbSpline
210
0.0
220
0.0
230
1.0
 70
     8
 71
     3
 72
     8
 73
     4
 74
     0
 42
0.00000001
 43
0.00000001
 40
6.0
 40
6.0
 40
6.0
 40
6.0
 40
7.0
 40
7.0
 40
7.0
 40
7.0
 10
249.8010128277489
 20
49.44644209798179
 30
0.0
 10
249.8100148622541
 20
49.44644209798179
 30
0.0
 10
249.8223086854963
 20
49.44563594563805
 30
0.0
 10
249.8366850689599
 20
49.44563594563805
 30
0.0
  0
SPLINE
  5
EE
330
78
100
AcDbEntity
  8
0
  6
SLD-Durchgehend
 62
     8
420
  8421504
370
     0
100
AcDbSpline
210
0.0
220
0.0
230
1.0
 70
     8
 71
     3
 72
     8
 73
     4
 74
     0
 42
0.00000001
 43
0.00000001
 40
2.0
 40
2.0
 40
2.0
 40
2.0
 40
3.0
 40
3.0
 40
3.0
 40
3.0
 10
261.2008131207177
 20
51.79919771321618
 30
0.0
 10
261.2039033713687
 20
52.97658321126303
 30
0.0
 10
261.9115707704573
 20
53.52355757649742
 30
0.0
 10
262.6275684104312
 20
53.52637910970056
 30
0.0
  0
SPLINE
  5
EF
330
78
100
AcDbEntity
  8
0
  6
SLD-Durchgehend
 62
     8
420
  8421504
370
     0
100
AcDbSpline
210
0.0
220
0.0
230
1.0
 70
     8
 71
     3
 72
     8
 73
     4
 74
     0
 42
0.00000001
 43
0.00000001
 40
1.0
 40
1.0
 40
1.0
 40
1.0
 40
2.0
 40
2.0
 40
2.0
 40
2.0
 10
257.8763752138166
 20
52.36605716959637
 30
0.0
 10
257.6433971864729
 20
52.47173030598961
 30
0.0
 10
257.5089041037905
 20
52.6036705729167
 30
0.0
 10
257.5067543642073
 20
52.86090034993494
 30
0.0
  0
SPLINE
  5
F0
330
78
100
AcDbEntity
  8
0
  6
SLD-Durchgehend
 62
     8
420
  8421504
370
     0
100
AcDbSpline
210
0.0
220
0.0
230
1.0
 70
     8
 71
     3
 72
     8
 73
     4
 74
     0
 42
0.00000001
 43
0.00000001
 40
7.0
 40
7.0
 40
7.0
 40
7.0
 40
8.0
 40
8.0
 40
8.0
 40
8.0
 10
254.4043442486473
 20
53.52637910970056
 30
0.0
 10
255.0787578635562
 20
53.51542887369794
 30
0.0
 10
255.4008829042463
 20
53.27620316569013
 30
0.0
 10
255.4121690370588
 20
52.409186319987
 30
0.0
  0
SPLINE
  5
F1
330
78
100
AcDbEntity
  8
0
  6
SLD-Durchgehend
 62
     8
420
  8421504
370
     0
100
AcDbSpline
210
0.0
220
0.0
230
1.0
 70
     8
 71
     3
 72
     8
 73
     4
 74
     0
 42
0.00000001
 43
0.00000001
 40
1.0
 40
1.0
 40
1.0
 40
1.0
 40
2.0
 40
2.0
 40
2.0
 40
2.0
 10
238.8781860048323
 20
51.79919771321618
 30
0.0
 10
238.8819480491031
 20
52.89966284179692
 30
0.0
 10
239.475746429637
 20
53.52456526692712
 30
0.0
 10
240.2502572938948
 20
53.52637910970054
 30
0.0
  0
SPLINE
  5
F2
330
78
100
AcDbEntity
  8
0
  6
SLD-Durchgehend
 62
     8
420
  8421504
370
     0
100
AcDbSpline
210
0.0
220
0.0
230
1.0
 70
     8
 71
     3
 72
     8
 73
     4
 74
     0
 42
0.00000001
 43
0.00000001
 40
8.0
 40
8.0
 40
8.0
 40
8.0
 40
9.0
 40
9.0
 40
9.0
 40
9.0
 10
249.8415219830224
 20
49.44563594563805
 30
0.0
 10
250.7082029319156
 20
49.44563594563805
 30
0.0
 10
251.4525502626448
 20
49.94867500813804
 30
0.0
 10
251.7394061382958
 20
50.87978096516928
 30
0.0
  0
SPLINE
  5
F3
330
78
100
AcDbEntity
  8
0
  6
SLD-Durchgehend
 62
     8
420
  8421504
370
     0
100
AcDbSpline
210
0.0
220
0.0
230
1.0
 70
     8
 71
     3
 72
     8
 73
     4
 74
     0
 42
0.00000001
 43
0.00000001
 40
8.0
 40
8.0
 40
8.0
 40
8.0
 40
9.0
 40
9.0
 40
9.0
 40
9.0
 10
258.4156911317854
 20
54.14039847819013
 30
0.0
 10
258.3994337261864
 20
54.14039847819013
 30
0.0
 10
258.3858634950666
 20
54.13932360839846
 30
0.0
 10
258.3740399273583
 20
54.13932360839846
 30
0.0
  0
SPLINE
  5
F4
330
78
100
AcDbEntity
  8
0
  6
SLD-Durchgehend
 62
     8
420
  8421504
370
     0
100
AcDbSpline
210
0.0
220
0.0
230
1.0
 70
     8
 71
     3
 72
     8
 73
     4
 74
     0
 42
0.00000001
 43
0.00000001
 40
20.0
 40
20.0
 40
20.0
 40
20.0
 40
21.0
 40
21.0
 40
21.0
 40
21.0
 10
274.3795206484703
 20
50.27785388183599
 30
0.0
 10
274.3784457823096
 20
49.9798462320833
 30
0.0
 10
274.474780989773
 20
49.78408557244977
 30
0.0
 10
274.6302340347482
 20
49.67283655090634
 30
0.0
  0
SPLINE
  5
F5
330
78
100
AcDbEntity
  8
0
  6
SLD-Durchgehend
 62
     8
420
  8421504
370
     0
100
AcDbSpline
210
0.0
220
0.0
230
1.0
 70
     8
 71
     3
 72
     8
 73
     4
 74
     0
 42
0.00000001
 43
0.00000001
 40
2.0
 40
2.0
 40
2.0
 40
2.0
 40
3.0
 40
3.0
 40
3.0
 40
3.0
 10
238.2156631369937
 20
51.79919771321618
 30
0.0
 10
238.2155287782698
 20
51.04101143391929
 30
0.0
 10
238.440310923452
 20
50.45144535319012
 30
0.0
 10
238.8093271588036
 20
50.05172814941409
 30
0.0
  0
SPLINE
  5
F6
330
78
100
AcDbEntity
  8
0
  6
SLD-Durchgehend
 62
     8
420
  8421504
370
     0
100
AcDbSpline
210
0.0
220
0.0
230
1.0
 70
     8
 71
     3
 72
     8
 73
     4
 74
     0
 42
0.00000001
 43
0.00000001
 40
8.0
 40
8.0
 40
8.0
 40
8.0
 40
9.0
 40
9.0
 40
9.0
 40
9.0
 10
262.6999877626448
 20
54.1524235839844
 30
0.0
 10
261.4113532411604
 20
54.15558101399741
 30
0.0
 10
260.5522635601708
 20
53.19773767089846
 30
0.0
 10
260.5381558941552
 20
51.799735148112
 30
0.0
  0
SPLINE
  5
F7
330
78
100
AcDbEntity
  8
0
  6
SLD-Durchgehend
 62
     8
420
  8421504
370
     0
100
AcDbSpline
210
0.0
220
0.0
230
1.0
 70
     8
 71
     3
 72
     8
 73
     4
 74
     0
 42
0.00000001
 43
0.00000001
 40
14.0
 40
14.0
 40
14.0
 40
14.0
 40
15.0
 40
15.0
 40
15.0
 40
15.0
 10
249.8012143658349
 20
50.07215067545575
 30
0.0
 10
248.8709145611474
 20
50.08155578613283
 30
0.0
 10
248.4738845318505
 20
50.74166019694015
 30
0.0
 10
248.4677712099104
 20
51.69896610514325
 30
0.0
  0
SPLINE
  5
F8
330
78
100
AcDbEntity
  8
0
  6
SLD-Durchgehend
 62
     8
420
  8421504
370
     0
100
AcDbSpline
210
0.0
220
0.0
230
1.0
 70
     8
 71
     3
 72
     8
 73
     4
 74
     0
 42
0.00000001
 43
0.00000001
 40
2.0
 40
2.0
 40
2.0
 40
2.0
 40
3.0
 40
3.0
 40
3.0
 40
3.0
 10
248.3258883974104
 20
53.54626420084637
 30
0.0
 10
247.9568721620588
 20
53.14695007324222
 30
0.0
 10
247.7316869407047
 20
52.55704809570316
 30
0.0
 10
247.7320900168766
 20
51.79866027832033
 30
0.0
  0
SPLINE
  5
F9
330
78
100
AcDbEntity
  8
0
  6
SLD-Durchgehend
 62
     8
420
  8421504
370
     0
100
AcDbSpline
210
0.0
220
0.0
230
1.0
 70
    24
 71
     2
 72
     6
 73
     3
 74
     0
 42
0.00000001
 43
0.00000001
 40
24.0
 40
24.0
 40
24.0
 40
25.0
 40
25.0
 40
25.0
 10
275.769192939439
 20
50.09781320866384
 30
0.0
 10
275.5543533398296
 20
50.09781320604619
 30
0.0
 10
275.3033712434755
 20
50.09781320298818
 30
0.0
  0
SPLINE
  5
FA
330
78
100
AcDbEntity
  8
0
  6
SLD-Durchgehend
 62
     8
420
  8421504
370
     0
100
AcDbSpline
210
0.0
220
0.0
230
1.0
 70
     8
 71
     3
 72
     8
 73
     4
 74
     0
 42
0.00000001
 43
0.00000001
 40
2.0
 40
2.0
 40
2.0
 40
2.0
 40
3.0
 40
3.0
 40
3.0
 40
3.0
 10
257.5067543642073
 20
52.86090034993494
 30
0.0
 10
257.5157563987125
 20
53.25866935221357
 30
0.0
 10
257.6615356142073
 20
53.52980525716148
 30
0.0
 10
258.3858634950666
 20
53.56460416666669
 30
0.0
  0
SPLINE
  5
FB
330
78
100
AcDbEntity
  8
0
  6
SLD-Durchgehend
 62
     8
420
  8421504
370
     0
100
AcDbSpline
210
0.0
220
0.0
230
1.0
 70
     8
 71
     3
 72
     8
 73
     4
 74
     0
 42
0.00000001
 43
0.00000001
 40
3.0
 40
3.0
 40
3.0
 40
3.0
 40
4.0
 40
4.0
 40
4.0
 40
4.0
 10
241.6222614035953
 20
51.79919771321618
 30
0.0
 10
241.6187008974104
 20
50.68979772949221
 30
0.0
 10
241.0255743104963
 20
50.07403169759117
 30
0.0
 10
240.2502572938948
 20
50.07161324055993
 30
0.0
  0
SPLINE
  5
FC
330
78
100
AcDbEntity
  8
0
  6
SLD-Durchgehend
 62
     8
420
  8421504
370
     0
100
AcDbSpline
210
0.0
220
0.0
230
1.0
 70
     8
 71
     3
 72
     8
 73
     4
 74
     0
 42
0.00000001
 43
0.00000001
 40
0.0
 40
0.0
 40
0.0
 40
0.0
 40
1.0
 40
1.0
 40
1.0
 40
1.0
 10
263.7591375836083
 20
50.74918428548179
 30
0.0
 10
263.573050750926
 20
50.36532141113282
 30
0.0
 10
263.234735483999
 20
50.0743004150391
 30
0.0
 10
262.5728844097802
 20
50.07161324055993
 30
0.0
  0
SPLINE
  5
FD
330
78
100
AcDbEntity
  8
0
  6
SLD-Durchgehend
 62
     8
420
  8421504
370
     0
100
AcDbSpline
210
0.0
220
0.0
230
1.0
 70
     8
 71
     3
 72
     8
 73
     4
 74
     0
 42
0.00000001
 43
0.00000001
 40
0.0
 40
0.0
 40
0.0
 40
0.0
 40
1.0
 40
1.0
 40
1.0
 40
1.0
 10
240.2502572938948
 20
50.07161324055993
 30
0.0
 10
239.4752761741031
 20
50.07403169759117
 30
0.0
 10
238.882216766551
 20
50.68979772949221
 30
0.0
 10
238.8781860048323
 20
51.79919771321618
 30
0.0
  0
SPLINE
  5
FE
330
78
100
AcDbEntity
  8
0
  6
SLD-Durchgehend
 62
     8
420
  8421504
370
     0
100
AcDbSpline
210
0.0
220
0.0
230
1.0
 70
     8
 71
     3
 72
     8
 73
     4
 74
     0
 42
0.00000001
 43
0.00000001
 40
7.0
 40
7.0
 40
7.0
 40
7.0
 40
8.0
 40
8.0
 40
8.0
 40
8.0
 10
246.9688652854312
 20
51.13371895345053
 30
0.0
 10
247.0101805930484
 20
51.35352982584638
 30
0.0
 10
247.0248256939599
 20
51.60007808430993
 30
0.0
 10
247.0248256939599
 20
51.7258378499349
 30
0.0
  0
SPLINE
  5
FF
330
78
100
AcDbEntity
  8
0
  6
SLD-Durchgehend
 62
     8
420
  8421504
370
     0
100
AcDbSpline
210
0.0
220
0.0
230
1.0
 70
     8
 71
     3
 72
     8
 73
     4
 74
     0
 42
0.00000001
 43
0.00000001
 40
7.0
 40
7.0
 40
7.0
 40
7.0
 40
8.0
 40
8.0
 40
8.0
 40
8.0
 10
259.9116411643375
 20
53.13411881510418
 30
0.0
 10
259.6226355491031
 20
53.78965502929691
 30
0.0
 10
259.0584632672021
 20
54.14140616861981
 30
0.0
 10
258.4156911317854
 20
54.14039847819013
 30
0.0
  0
SPLINE
  5
100
330
78
100
AcDbEntity
  8
0
  6
SLD-Durchgehend
 62
     8
420
  8421504
370
     0
100
AcDbSpline
210
0.0
220
0.0
230
1.0
 70
     8
 71
     3
 72
     8
 73
     4
 74
     0
 42
0.00000001
 43
0.00000001
 40
1.0
 40
1.0
 40
1.0
 40
1.0
 40
2.0
 40
2.0
 40
2.0
 40
2.0
 10
238.8093271588036
 20
53.54626420084637
 30
0.0
 10
238.440310923452
 20
53.14695007324222
 30
0.0
 10
238.2155287782698
 20
52.55704809570316
 30
0.0
 10
238.2156631369937
 20
51.79919771321618
 30
0.0
  0
SPLINE
  5
101
330
78
100
AcDbEntity
  8
0
  6
SLD-Durchgehend
 62
     8
420
  8421504
370
     0
100
AcDbSpline
210
0.0
220
0.0
230
1.0
 70
     8
 71
     3
 72
     8
 73
     4
 74
     0
 42
0.00000001
 43
0.00000001
 40
0.0
 40
0.0
 40
0.0
 40
0.0
 40
1.0
 40
1.0
 40
1.0
 40
1.0
 10
258.7550812685041
 20
52.13281042480472
 30
0.0
 10
258.4303362326968
 20
52.20764823404951
 30
0.0
 10
258.1084127300927
 20
52.26286966959638
 30
0.0
 10
257.8763752138166
 20
52.36605716959637
 30
0.0
  0
SPLINE
  5
102
330
78
100
AcDbEntity
  8
0
  6
SLD-Durchgehend
 62
     8
420
  8421504
370
     0
100
AcDbSpline
210
0.0
220
0.0
230
1.0
 70
     8
 71
     3
 72
     8
 73
     4
 74
     0
 42
0.00000001
 43
0.00000001
 40
7.0
 40
7.0
 40
7.0
 40
7.0
 40
8.0
 40
8.0
 40
8.0
 40
8.0
 10
266.7699822287906
 20
53.52637910970056
 30
0.0
 10
267.4439255881656
 20
53.51516015625004
 30
0.0
 10
267.7661178082177
 20
53.27620316569013
 30
0.0
 10
267.7771352235823
 20
52.40972375488285
 30
0.0
  0
SPLINE
  5
103
330
78
100
AcDbEntity
  8
0
  6
SLD-Durchgehend
 62
     8
420
  8421504
370
     0
100
AcDbSpline
210
0.0
220
0.0
230
1.0
 70
     8
 71
     3
 72
     8
 73
     4
 74
     0
 42
0.00000001
 43
0.00000001
 40
25.0
 40
25.0
 40
25.0
 40
25.0
 40
26.0
 40
26.0
 40
26.0
 40
26.0
 10
275.3033712434755
 20
50.09781320298818
 30
0.0
 10
275.1656535513739
 20
50.1014408868571
 30
0.0
 10
275.1203746608532
 20
50.1463167001075
 30
0.0
 10
275.0822167821244
 20
50.23862114300191
 30
0.0
  0
SPLINE
  5
104
330
78
100
AcDbEntity
  8
0
  6
SLD-Durchgehend
 62
     8
420
  8421504
370
     0
100
AcDbSpline
210
0.0
220
0.0
230
1.0
 70
     8
 71
     3
 72
     8
 73
     4
 74
     0
 42
0.00000001
 43
0.00000001
 40
4.0
 40
4.0
 40
4.0
 40
4.0
 40
5.0
 40
5.0
 40
5.0
 40
5.0
 10
248.3258883974104
 20
50.05172814941409
 30
0.0
 10
248.6946359153141
 20
49.65241402180991
 30
0.0
 10
249.2061395774234
 20
49.44536722819013
 30
0.0
 10
249.7665498150536
 20
49.44563594563805
 30
0.0
  0
SPLINE
  5
105
330
78
100
AcDbEntity
  8
0
  6
SLD-Durchgehend
 62
     8
420
  8421504
370
     0
100
AcDbSpline
210
0.0
220
0.0
230
1.0
 70
     8
 71
     3
 72
     8
 73
     4
 74
     0
 42
0.00000001
 43
0.00000001
 40
1.0
 40
1.0
 40
1.0
 40
1.0
 40
2.0
 40
2.0
 40
2.0
 40
2.0
 10
244.9913735862125
 20
54.15289383951826
 30
0.0
 10
244.4305602724104
 20
54.15289383951826
 30
0.0
 10
243.919190969025
 20
53.94645166015629
 30
0.0
 10
243.5503762717593
 20
53.54626420084637
 30
0.0
  0
SPLINE
  5
106
330
78
100
AcDbEntity
  8
0
  6
SLD-Durchgehend
 62
     8
420
  8421504
370
     0
100
AcDbSpline
210
0.0
220
0.0
230
1.0
 70
     8
 71
     3
 72
     8
 73
     4
 74
     0
 42
0.00000001
 43
0.00000001
 40
1.0
 40
1.0
 40
1.0
 40
1.0
 40
2.0
 40
2.0
 40
2.0
 40
2.0
 10
262.5728844097802
 20
50.07161324055993
 30
0.0
 10
261.9138548687646
 20
50.07376298014326
 30
0.0
 10
261.203097219025
 20
50.62154349772136
 30
0.0
 10
261.2008131207177
 20
51.79919771321618
 30
0.0
  0
SPLINE
  5
107
330
78
100
AcDbEntity
  8
0
  6
SLD-Durchgehend
 62
     8
420
  8421504
370
     0
100
AcDbSpline
210
0.0
220
0.0
230
1.0
 70
     8
 71
     2
 72
     6
 73
     3
 74
     0
 42
0.00000001
 43
0.00000001
 40
22.0
 40
22.0
 40
22.0
 40
23.0
 40
23.0
 40
23.0
 10
275.1847324902169
 20
49.53390963708953
 30
0.0
 10
275.2214124218576
 20
49.53390963753644
 30
0.0
 10
275.769192939439
 20
49.53364092676277
 30
0.0
  0
SPLINE
  5
108
330
78
100
AcDbEntity
  8
0
  6
SLD-Durchgehend
 62
     8
420
  8421504
370
     0
100
AcDbSpline
210
0.0
220
0.0
230
1.0
 70
     8
 71
     3
 72
     8
 73
     4
 74
     0
 42
0.00000001
 43
0.00000001
 40
26.0
 40
26.0
 40
26.0
 40
26.0
 40
27.0
 40
27.0
 40
27.0
 40
27.0
 10
275.0822167821244
 20
50.23862114300191
 30
0.0
 10
275.0460742842386
 20
50.33226917316051
 30
0.0
 10
275.0419091620066
 20
50.47912325839622
 30
0.0
 10
275.0421778774671
 20
50.64223474928492
 30
0.0
  0
SPLINE
  5
109
330
78
100
AcDbEntity
  8
0
  6
SLD-Durchgehend
 62
     8
420
  8421504
370
     0
100
AcDbSpline
210
0.0
220
0.0
230
1.0
 70
     8
 71
     3
 72
     8
 73
     4
 74
     0
 42
0.00000001
 43
0.00000001
 40
12.0
 40
12.0
 40
12.0
 40
12.0
 40
13.0
 40
13.0
 40
13.0
 40
13.0
 10
255.6924413352359
 20
53.71165979003909
 30
0.0
 10
255.4291654156395
 20
53.99381311035158
 30
0.0
 10
255.0250815533349
 20
54.15316255696617
 30
0.0
 10
254.4773682151187
 20
54.1524235839844
 30
0.0
  0
SPLINE
  5
10A
330
78
100
AcDbEntity
  8
0
  6
SLD-Durchgehend
 62
     8
420
  8421504
370
     0
100
AcDbSpline
210
0.0
220
0.0
230
1.0
 70
     8
 71
     3
 72
     8
 73
     4
 74
     0
 42
0.00000001
 43
0.00000001
 40
3.0
 40
3.0
 40
3.0
 40
3.0
 40
4.0
 40
4.0
 40
4.0
 40
4.0
 10
247.7320900168766
 20
51.79866027832033
 30
0.0
 10
247.7316869407047
 20
51.04101143391929
 30
0.0
 10
247.9568721620588
 20
50.45144535319012
 30
0.0
 10
248.3258883974104
 20
50.05172814941409
 30
0.0
  0
SPLINE
  5
10B
330
78
100
AcDbEntity
  8
0
  6
SLD-Durchgehend
 62
     8
420
  8421504
370
     0
100
AcDbSpline
210
0.0
220
0.0
230
1.0
 70
     8
 71
     3
 72
     8
 73
     4
 74
     0
 42
0.00000001
 43
0.00000001
 40
0.0
 40
0.0
 40
0.0
 40
0.0
 40
1.0
 40
1.0
 40
1.0
 40
1.0
 10
244.9913735862125
 20
50.07188195800785
 30
0.0
 10
244.215855031525
 20
50.07403169759117
 30
0.0
 10
243.6230643414208
 20
50.68979772949222
 30
0.0
 10
243.6193022971499
 20
51.79919771321618
 30
0.0
  0
SPLINE
  5
10C
330
78
100
AcDbEntity
  8
0
  6
SLD-Durchgehend
 62
     8
420
  8421504
370
     0
100
AcDbSpline
210
0.0
220
0.0
230
1.0
 70
     8
 71
     3
 72
     8
 73
     4
 74
     0
 42
0.00000001
 43
0.00000001
 40
1.0
 40
1.0
 40
1.0
 40
1.0
 40
2.0
 40
2.0
 40
2.0
 40
2.0
 10
243.61930229715
 20
51.79919771321617
 30
0.0
 10
243.6228628033349
 20
52.89966284179692
 30
0.0
 10
244.2162581076968
 20
53.52456526692713
 30
0.0
 10
244.9913735862125
 20
53.52637910970056
 30
0.0
  0
SPLINE
  5
10D
330
78
100
AcDbEntity
  8
0
  6
SLD-Durchgehend
 62
     8
420
  8421504
370
     0
100
AcDbSpline
210
0.0
220
0.0
230
1.0
 70
     8
 71
     3
 72
     8
 73
     4
 74
     0
 42
0.00000001
 43
0.00000001
 40
0.0
 40
0.0
 40
0.0
 40
0.0
 40
1.0
 40
1.0
 40
1.0
 40
1.0
 10
240.2502572938948
 20
54.1524235839844
 30
0.0
 10
239.6897126975406
 20
54.15289383951826
 30
0.0
 10
239.1780746767073
 20
53.94645166015629
 30
0.0
 10
238.8093271588036
 20
53.54626420084637
 30
0.0
  0
SPLINE
  5
10E
330
78
100
AcDbEntity
  8
0
  6
SLD-Durchgehend
 62
     8
420
  8421504
370
     0
100
AcDbSpline
210
0.0
220
0.0
230
1.0
 70
     8
 71
     3
 72
     8
 73
     4
 74
     0
 42
0.00000001
 43
0.00000001
 40
12.0
 40
12.0
 40
12.0
 40
12.0
 40
13.0
 40
13.0
 40
13.0
 40
13.0
 10
269.7527529176072
 20
50.05172811989913
 30
0.0
 10
270.1217019776297
 20
49.65241399602138
 30
0.0
 10
270.6333400005543
 20
49.4453672075692
 30
0.0
 10
271.1938845969058
 20
49.44563593067868
 30
0.0
  0
SPLINE
  5
10F
330
78
100
AcDbEntity
  8
0
  6
SLD-Durchgehend
 62
     8
420
  8421504
370
     0
100
AcDbSpline
210
0.0
220
0.0
230
1.0
 70
     8
 71
     3
 72
     8
 73
     4
 74
     0
 42
0.00000001
 43
0.00000001
 40
2.0
 40
2.0
 40
2.0
 40
2.0
 40
3.0
 40
3.0
 40
3.0
 40
3.0
 10
269.7882492893593
 20
51.79919766776327
 30
0.0
 10
269.7921456922359
 20
52.89966279634443
 30
0.0
 10
270.3860112520646
 20
53.52456522153849
 30
0.0
 10
271.1605892956841
 20
53.52637906439517
 30
0.0
  0
SPLINE
  5
110
330
78
100
AcDbEntity
  8
0
  6
SLD-Durchgehend
 62
     8
420
  8421504
370
     0
100
AcDbSpline
210
0.0
220
0.0
230
1.0
 70
     8
 71
     3
 72
     8
 73
     4
 74
     0
 42
0.00000001
 43
0.00000001
 40
0.0
 40
0.0
 40
0.0
 40
0.0
 40
1.0
 40
1.0
 40
1.0
 40
1.0
 10
271.1605892960555
 20
50.07188191270246
 30
0.0
 10
270.3854738175397
 20
50.07403165220246
 30
0.0
 10
269.7921456924734
 20
50.68979768403972
 30
0.0
 10
269.7885180068072
 20
51.79919766776329
 30
0.0
  0
SPLINE
  5
111
330
78
100
AcDbEntity
  8
0
  6
SLD-Durchgehend
 62
     8
420
  8421504
370
     0
100
AcDbSpline
210
0.0
220
0.0
230
1.0
 70
     8
 71
     3
 72
     8
 73
     4
 74
     0
 42
0.00000001
 43
0.00000001
 40
8.0
 40
8.0
 40
8.0
 40
8.0
 40
9.0
 40
9.0
 40
9.0
 40
9.0
 10
241.6913217877099
 20
53.54626420084637
 30
0.0
 10
241.3222383729963
 20
53.94645166015629
 30
0.0
 10
240.8108690696109
 20
54.15289383951826
 30
0.0
 10
240.2502572938948
 20
54.1524235839844
 30
0.0
  0
SPLINE
  5
112
330
78
100
AcDbEntity
  8
0
  6
SLD-Durchgehend
 62
     8
420
  8421504
370
     0
100
AcDbSpline
210
0.0
220
0.0
230
1.0
 70
     8
 71
     3
 72
     8
 73
     4
 74
     0
 42
0.00000001
 43
0.00000001
 40
10.0
 40
10.0
 40
10.0
 40
10.0
 40
11.0
 40
11.0
 40
11.0
 40
11.0
 10
269.7527528823119
 20
53.54626417133141
 30
0.0
 10
269.3842069065273
 20
53.14695004000491
 30
0.0
 10
269.1588873324072
 20
52.55704806019009
 30
0.0
 10
269.1588873400616
 20
51.79919767770311
 30
0.0
  0
SPLINE
  5
113
330
78
100
AcDbEntity
  8
0
  6
SLD-Durchgehend
 62
     8
420
  8421504
370
     0
100
AcDbSpline
210
0.0
220
0.0
230
1.0
 70
     8
 71
     3
 72
     8
 73
     4
 74
     0
 42
0.00000001
 43
0.00000001
 40
2.0
 40
2.0
 40
2.0
 40
2.0
 40
3.0
 40
3.0
 40
3.0
 40
3.0
 10
243.5503762717593
 20
53.54626420084637
 30
0.0
 10
243.1810913189599
 20
53.14695007324222
 30
0.0
 10
242.9563763531395
 20
52.55704809570316
 30
0.0
 10
242.9563763531395
 20
51.79919771321618
 30
0.0
  0
SPLINE
  5
114
330
78
100
AcDbEntity
  8
0
  6
SLD-Durchgehend
 62
     8
420
  8421504
370
     0
100
AcDbSpline
210
0.0
220
0.0
230
1.0
 70
     8
 71
     3
 72
     8
 73
     4
 74
     0
 42
0.00000001
 43
0.00000001
 40
8.0
 40
8.0
 40
8.0
 40
8.0
 40
9.0
 40
9.0
 40
9.0
 40
9.0
 10
272.5521168951743
 20
53.62640917844642
 30
0.0
 10
272.1912293591284
 20
53.97231570963218
 30
0.0
 10
271.7145246047004
 20
54.1528938298174
 30
0.0
 10
271.1938845493668
 20
54.15242356902503
 30
0.0
  0
SPLINE
  5
115
330
78
100
AcDbEntity
  8
0
  6
SLD-Durchgehend
 62
     8
420
  8421504
370
     0
100
AcDbSpline
210
0.0
220
0.0
230
1.0
 70
     8
 71
     3
 72
     8
 73
     4
 74
     0
 42
0.00000001
 43
0.00000001
 40
5.0
 40
5.0
 40
5.0
 40
5.0
 40
6.0
 40
6.0
 40
6.0
 40
6.0
 10
240.2521383160301
 20
49.44563594563805
 30
0.0
 10
240.8120111187646
 20
49.44563594563805
 30
0.0
 10
241.3224399110823
 20
49.65241402180991
 30
0.0
 10
241.6913217877099
 20
50.05172814941409
 30
0.0
  0
SPLINE
  5
116
330
78
100
AcDbEntity
  8
0
  6
SLD-Durchgehend
 62
     8
420
  8421504
370
     0
100
AcDbSpline
210
0.0
220
0.0
230
1.0
 70
     8
 71
     3
 72
     8
 73
     4
 74
     0
 42
0.00000001
 43
0.00000001
 40
0.0
 40
0.0
 40
0.0
 40
0.0
 40
1.0
 40
1.0
 40
1.0
 40
1.0
 10
266.842804657176
 20
54.15289383951826
 30
0.0
 10
266.3709368186343
 20
54.15369999186201
 30
0.0
 10
265.8797213238427
 20
53.98306441243492
 30
0.0
 10
265.5798326519676
 20
53.52537141927086
 30
0.0
  0
SPLINE
  5
117
330
78
100
AcDbEntity
  8
0
  6
SLD-Durchgehend
 62
     8
420
  8421504
370
     0
100
AcDbSpline
210
0.0
220
0.0
230
1.0
 70
     8
 71
     3
 72
     8
 73
     4
 74
     0
 42
0.00000001
 43
0.00000001
 40
5.0
 40
5.0
 40
5.0
 40
5.0
 40
6.0
 40
6.0
 40
6.0
 40
6.0
 10
249.7665498150536
 20
49.44563594563805
 30
0.0
 10
249.7813292746891
 20
49.44563594563805
 30
0.0
 10
249.7922123313296
 20
49.44644209798179
 30
0.0
 10
249.8010128277489
 20
49.44644209798179
 30
0.0
  0
SPLINE
  5
118
330
78
100
AcDbEntity
  8
0
  6
SLD-Durchgehend
 62
     8
420
  8421504
370
     0
100
AcDbSpline
210
0.0
220
0.0
230
1.0
 70
     8
 71
     3
 72
     8
 73
     4
 74
     0
 42
0.00000001
 43
0.00000001
 40
3.0
 40
3.0
 40
3.0
 40
3.0
 40
4.0
 40
4.0
 40
4.0
 40
4.0
 10
238.8093271588036
 20
50.05172814941409
 30
0.0
 10
239.1780746767073
 20
49.65241402180991
 30
0.0
 10
239.6897126975406
 20
49.44536722819013
 30
0.0
 10
240.2502572938948
 20
49.44563594563805
 30
0.0
  0
SPLINE
  5
119
330
78
100
AcDbEntity
  8
0
  6
SLD-Durchgehend
 62
     8
420
  8421504
370
     0
100
AcDbSpline
210
0.0
220
0.0
230
1.0
 70
     8
 71
     3
 72
     8
 73
     4
 74
     0
 42
0.00000001
 43
0.00000001
 40
16.0
 40
16.0
 40
16.0
 40
16.0
 40
17.0
 40
17.0
 40
17.0
 40
17.0
 10
258.4449813336083
 20
50.00443387858074
 30
0.0
 10
258.0674333192854
 20
50.01249540201825
 30
0.0
 10
257.526908172801
 20
50.1397331136068
 30
0.0
 10
257.3465987652489
 20
50.7604704182943
 30
0.0
  0
SPLINE
  5
11A
330
78
100
AcDbEntity
  8
0
  6
SLD-Durchgehend
 62
     8
420
  8421504
370
     0
100
AcDbSpline
210
0.0
220
0.0
230
1.0
 70
     8
 71
     3
 72
     8
 73
     4
 74
     0
 42
0.00000001
 43
0.00000001
 40
2.0
 40
2.0
 40
2.0
 40
2.0
 40
3.0
 40
3.0
 40
3.0
 40
3.0
 10
244.9913735862125
 20
53.52637910970056
 30
0.0
 10
245.7659516298322
 20
53.52456526692713
 30
0.0
 10
246.363243337189
 20
52.96791707356772
 30
0.0
 10
246.363243337189
 20
51.79919771321618
 30
0.0
  0
SPLINE
  5
11B
330
78
100
AcDbEntity
  8
0
  6
SLD-Durchgehend
 62
     8
420
  8421504
370
     0
100
AcDbSpline
210
0.0
220
0.0
230
1.0
 70
     8
 71
     3
 72
     8
 73
     4
 74
     0
 42
0.00000001
 43
0.00000001
 40
6.0
 40
6.0
 40
6.0
 40
6.0
 40
7.0
 40
7.0
 40
7.0
 40
7.0
 10
253.2143962099104
 20
52.16317549641928
 30
0.0
 10
253.219098765249
 20
53.12182499186201
 30
0.0
 10
253.7753438824364
 20
53.52167655436201
 30
0.0
 10
254.4043442486473
 20
53.52637910970056
 30
0.0
  0
SPLINE
  5
11C
330
78
100
AcDbEntity
  8
0
  6
SLD-Durchgehend
 62
     8
420
  8421504
370
     0
100
AcDbSpline
210
0.0
220
0.0
230
1.0
 70
     8
 71
     3
 72
     8
 73
     4
 74
     0
 42
0.00000001
 43
0.00000001
 40
9.0
 40
9.0
 40
9.0
 40
9.0
 40
10.0
 40
10.0
 40
10.0
 40
10.0
 10
271.1938845493668
 20
54.15242356902503
 30
0.0
 10
270.6333399530077
 20
54.15289381889733
 30
0.0
 10
270.1217019342595
 20
53.94645163436776
 30
0.0
 10
269.7527528823119
 20
53.54626417133141
 30
0.0
  0
SPLINE
  5
11D
330
78
100
AcDbEntity
  8
0
  6
SLD-Durchgehend
 62
     8
420
  8421504
370
     0
100
AcDbSpline
210
0.0
220
0.0
230
1.0
 70
     8
 71
     3
 72
     8
 73
     4
 74
     0
 42
0.00000001
 43
0.00000001
 40
3.0
 40
3.0
 40
3.0
 40
3.0
 40
4.0
 40
4.0
 40
4.0
 40
4.0
 10
271.1605892956841
 20
53.52637906439517
 30
0.0
 10
271.9350329805802
 20
53.524565221705
 30
0.0
 10
272.5287641818192
 20
52.89966279663861
 30
0.0
 10
272.5327949436563
 20
51.7991976680583
 30
0.0
  0
SPLINE
  5
11E
330
78
100
AcDbEntity
  8
0
  6
SLD-Durchgehend
 62
     8
420
  8421504
370
     0
100
AcDbSpline
210
0.0
220
0.0
230
1.0
 70
     8
 71
     3
 72
     8
 73
     4
 74
     0
 42
0.00000001
 43
0.00000001
 40
4.0
 40
4.0
 40
4.0
 40
4.0
 40
5.0
 40
5.0
 40
5.0
 40
5.0
 10
272.5327949436563
 20
51.7991976680583
 30
0.0
 10
272.5287641820568
 20
50.6897976843339
 30
0.0
 10
271.9355704158469
 20
50.07403165236909
 30
0.0
 10
271.1605892960555
 20
50.07188191270246
 30
0.0
  0
SPLINE
  5
11F
330
78
100
AcDbEntity
  8
0
  6
SLD-Durchgehend
 62
     8
420
  8421504
370
     0
100
AcDbSpline
210
0.0
220
0.0
230
1.0
 70
     8
 71
     3
 72
     8
 73
     4
 74
     0
 42
0.00000001
 43
0.00000001
 40
11.0
 40
11.0
 40
11.0
 40
11.0
 40
12.0
 40
12.0
 40
12.0
 40
12.0
 10
262.5853797711083
 20
49.44563594563805
 30
0.0
 10
263.5398641461083
 20
49.44563594563805
 30
0.0
 10
264.1459563498844
 20
49.87115002441409
 30
0.0
 10
264.4688203635562
 20
50.70296488444013
 30
0.0
  0
SPLINE
  5
120
330
78
100
AcDbEntity
  8
0
  6
SLD-Durchgehend
 62
     8
420
  8421504
370
     0
100
AcDbSpline
210
0.0
220
0.0
230
1.0
 70
     8
 71
     3
 72
     8
 73
     4
 74
     0
 42
0.00000001
 43
0.00000001
 40
14.0
 40
14.0
 40
14.0
 40
14.0
 40
15.0
 40
15.0
 40
15.0
 40
15.0
 10
271.1949594666974
 20
49.44563593067868
 30
0.0
 10
271.7330661561506
 20
49.44563593611291
 30
0.0
 10
272.2242816489937
 20
49.63857506867777
 30
0.0
 10
272.5890655808147
 20
50.00752412835124
 30
0.0
  0
SPLINE
  5
121
330
78
100
AcDbEntity
  8
0
  6
SLD-Durchgehend
 62
     8
420
  8421504
370
     0
100
AcDbSpline
210
0.0
220
0.0
230
1.0
 70
     8
 71
     3
 72
     8
 73
     4
 74
     0
 42
0.00000001
 43
0.00000001
 40
22.0
 40
22.0
 40
22.0
 40
22.0
 40
23.0
 40
23.0
 40
23.0
 40
23.0
 10
258.4476685080875
 20
49.43623083496097
 30
0.0
 10
259.4949947613427
 20
49.47237333170574
 30
0.0
 10
260.0955782574364
 20
50.09028910319014
 30
0.0
 10
260.0939659527489
 20
50.82039440917971
 30
0.0
  0
SPLINE
  5
122
330
78
100
AcDbEntity
  8
0
  6
SLD-Durchgehend
 62
     8
420
  8421504
370
     0
100
AcDbSpline
210
0.0
220
0.0
230
1.0
 70
     8
 71
     3
 72
     8
 73
     4
 74
     0
 42
0.00000001
 43
0.00000001
 40
2.0
 40
2.0
 40
2.0
 40
2.0
 40
3.0
 40
3.0
 40
3.0
 40
3.0
 10
240.2502572938948
 20
53.52637910970054
 30
0.0
 10
241.0251712343245
 20
53.52456526692713
 30
0.0
 10
241.6187008974104
 20
52.89966284179692
 30
0.0
 10
241.6222614035953
 20
51.79919771321618
 30
0.0
  0
SPLINE
  5
123
330
78
100
AcDbEntity
  8
0
  6
SLD-Durchgehend
 62
     8
420
  8421504
370
     0
100
AcDbSpline
210
0.0
220
0.0
230
1.0
 70
     8
 71
     3
 72
     8
 73
     4
 74
     0
 42
0.00000001
 43
0.00000001
 40
6.0
 40
6.0
 40
6.0
 40
6.0
 40
7.0
 40
7.0
 40
7.0
 40
7.0
 10
265.5798326519676
 20
52.16371293131513
 30
0.0
 10
265.5845352073062
 20
53.12182499186201
 30
0.0
 10
266.1406459657697
 20
53.52167655436201
 30
0.0
 10
266.7699822287906
 20
53.52637910970056
 30
0.0
  0
SPLINE
  5
124
330
78
100
AcDbEntity
  8
0
  6
SLD-Durchgehend
 62
     8
420
  8421504
370
     0
100
AcDbSpline
210
0.0
220
0.0
230
1.0
 70
     8
 71
     3
 72
     8
 73
     4
 74
     0
 42
0.00000001
 43
0.00000001
 40
11.0
 40
11.0
 40
11.0
 40
11.0
 40
12.0
 40
12.0
 40
12.0
 40
12.0
 10
258.3170718283999
 20
54.13750976562503
 30
0.0
 10
257.3694397483218
 20
54.10976468912763
 30
0.0
 10
256.8420817567854
 20
53.52429654947919
 30
0.0
 10
256.8442314963687
 20
52.87897159830732
 30
0.0
  0
SPLINE
  5
125
330
78
100
AcDbEntity
  8
0
  6
SLD-Durchgehend
 62
     8
420
  8421504
370
     0
100
AcDbSpline
210
0.0
220
0.0
230
1.0
 70
     8
 71
     3
 72
     8
 73
     4
 74
     0
 42
0.00000001
 43
0.00000001
 40
4.0
 40
4.0
 40
4.0
 40
4.0
 40
5.0
 40
5.0
 40
5.0
 40
5.0
 10
243.5503762717593
 20
50.05172814941409
 30
0.0
 10
243.919190969025
 20
49.65241402180991
 30
0.0
 10
244.4305602724104
 20
49.44536722819013
 30
0.0
 10
244.9913735862125
 20
49.44563594563805
 30
0.0
  0
SPLINE
  5
126
330
78
100
AcDbEntity
  8
0
  6
SLD-Durchgehend
 62
     8
420
  8421504
370
     0
100
AcDbSpline
210
0.0
220
0.0
230
1.0
 70
     8
 71
     3
 72
     8
 73
     4
 74
     0
 42
0.00000001
 43
0.00000001
 40
11.0
 40
11.0
 40
11.0
 40
11.0
 40
12.0
 40
12.0
 40
12.0
 40
12.0
 10
269.1588873400616
 20
51.79919767770311
 30
0.0
 10
269.1588873477193
 20
51.04101139840623
 30
0.0
 10
269.3842069337522
 20
50.4514453199528
 30
0.0
 10
269.7527529176072
 20
50.05172811989913
 30
0.0
  0
SPLINE
  5
127
330
78
100
AcDbEntity
  8
0
  6
SLD-Durchgehend
 62
     8
420
  8421504
370
     0
100
AcDbSpline
210
0.0
220
0.0
230
1.0
 70
     8
 71
     3
 72
     8
 73
     4
 74
     0
 42
0.00000001
 43
0.00000001
 40
11.0
 40
11.0
 40
11.0
 40
11.0
 40
12.0
 40
12.0
 40
12.0
 40
12.0
 10
268.4404642437646
 20
52.5733055013021
 30
0.0
 10
268.4404642437646
 20
53.03361848958336
 30
0.0
 10
268.3216911317854
 20
53.43037980143232
 30
0.0
 10
268.0578105979312
 20
53.71165979003909
 30
0.0
  0
HATCH
  5
128
330
78
100
AcDbEntity
  8
0
  6
Continuous
 62
     7
100
AcDbHatch
 10
0.0
 20
0.0
 30
0.0
210
0.0
220
0.0
230
1.0
  2
SOLID
 70
     1
 71
     0
 91
        2
 92
        0
 93
       12
 72
     4
 94
        3
 73
     1
 74
     0
 95
        8
 96
        4
 40
4.0
 40
4.0
 40
4.0
 40
4.0
 40
5.0
 40
5.0
 40
5.0
 40
5.0
 10
243.5503762717593
 20
50.05172814941409
 42
1.0
 10
243.919190969025
 20
49.65241402180991
 42
1.0
 10
244.4305602724104
 20
49.44536722819013
 42
1.0
 10
244.9913735862125
 20
49.44563594563805
 42
1.0
 97
        0
 72
     1
 10
244.9913735862125
 20
49.44563594563805
 11
244.9984945985823
 21
49.44563594563805
 72
     4
 94
        3
 73
     1
 74
     0
 95
        8
 96
        4
 40
6.0
 40
6.0
 40
6.0
 40
6.0
 40
7.0
 40
7.0
 40
7.0
 40
7.0
 10
244.9984945985823
 20
49.44563594563805
 42
1.0
 10
245.9458579612125
 20
49.44563594563805
 42
1.0
 10
246.7583251649885
 20
50.01303283691409
 42
1.0
 10
246.9688652854312
 20
51.13371895345053
 42
1.0
 97
        0
 72
     4
 94
        3
 73
     1
 74
     0
 95
        8
 96
        4
 40
7.0
 40
7.0
 40
7.0
 40
7.0
 40
8.0
 40
8.0
 40
8.0
 40
8.0
 10
246.9688652854312
 20
51.13371895345053
 42
1.0
 10
247.0101805930484
 20
51.35352982584638
 42
1.0
 10
247.0248256939599
 20
51.60007808430993
 42
1.0
 10
247.0248256939599
 20
51.7258378499349
 42
1.0
 97
        0
 72
     1
 10
247.0248256939599
 20
51.7258378499349
 11
247.0260349224755
 21
51.7258378499349
 72
     1
 10
247.0260349224755
 20
51.7258378499349
 11
247.0260349224755
 21
55.23085388183598
 72
     1
 10
247.0260349224755
 20
55.23085388183598
 11
246.3676771750796
 21
55.23085388183598
 72
     1
 10
246.3676771750796
 20
55.23085388183598
 11
246.3676771750796
 21
53.54109138997399
 72
     4
 94
        3
 73
     1
 74
     0
 95
        8
 96
        4
 40
0.0
 40
0.0
 40
0.0
 40
0.0
 40
1.0
 40
1.0
 40
1.0
 40
1.0
 10
246.3676771750796
 20
53.54109138997399
 42
1.0
 10
246.0469629009911
 20
53.931269124349
 42
1.0
 10
245.5208141379703
 20
54.15289383951826
 42
1.0
 10
244.9913735862125
 20
54.15289383951826
 42
1.0
 97
        0
 72
     4
 94
        3
 73
     1
 74
     0
 95
        8
 96
        4
 40
1.0
 40
1.0
 40
1.0
 40
1.0
 40
2.0
 40
2.0
 40
2.0
 40
2.0
 10
244.9913735862125
 20
54.15289383951826
 42
1.0
 10
244.4305602724104
 20
54.15289383951826
 42
1.0
 10
243.919190969025
 20
53.94645166015629
 42
1.0
 10
243.5503762717593
 20
53.54626420084637
 42
1.0
 97
        0
 72
     4
 94
        3
 73
     1
 74
     0
 95
        8
 96
        4
 40
2.0
 40
2.0
 40
2.0
 40
2.0
 40
3.0
 40
3.0
 40
3.0
 40
3.0
 10
243.5503762717593
 20
53.54626420084637
 42
1.0
 10
243.1810913189599
 20
53.14695007324222
 42
1.0
 10
242.9563763531395
 20
52.55704809570316
 42
1.0
 10
242.9563763531395
 20
51.79919771321618
 42
1.0
 97
        0
 72
     4
 94
        3
 73
     1
 74
     0
 95
        8
 96
        4
 40
3.0
 40
3.0
 40
3.0
 40
3.0
 40
4.0
 40
4.0
 40
4.0
 40
4.0
 10
242.9563763531395
 20
51.79919771321618
 42
1.0
 10
242.9563763531395
 20
51.04101143391929
 42
1.0
 10
243.1810913189599
 20
50.45144535319012
 42
1.0
 10
243.5503762717593
 20
50.05172814941409
 42
1.0
 97
        0
 97
        0
 92
        0
 93
        4
 72
     4
 94
        3
 73
     1
 74
     0
 95
        8
 96
        4
 40
1.0
 40
1.0
 40
1.0
 40
1.0
 40
2.0
 40
2.0
 40
2.0
 40
2.0
 10
243.61930229715
 20
51.79919771321617
 42
1.0
 10
243.6228628033349
 20
52.89966284179692
 42
1.0
 10
244.2162581076968
 20
53.52456526692713
 42
1.0
 10
244.9913735862125
 20
53.52637910970056
 42
1.0
 97
        0
 72
     4
 94
        3
 73
     1
 74
     0
 95
        8
 96
        4
 40
2.0
 40
2.0
 40
2.0
 40
2.0
 40
3.0
 40
3.0
 40
3.0
 40
3.0
 10
244.9913735862125
 20
53.52637910970056
 42
1.0
 10
245.7659516298322
 20
53.52456526692713
 42
1.0
 10
246.363243337189
 20
52.96791707356772
 42
1.0
 10
246.363243337189
 20
51.79919771321618
 42
1.0
 97
        0
 72
     4
 94
        3
 73
     1
 74
     0
 95
        8
 96
        4
 40
3.0
 40
3.0
 40
3.0
 40
3.0
 40
4.0
 40
4.0
 40
4.0
 40
4.0
 10
246.363243337189
 20
51.79919771321618
 42
1.0
 10
246.3701628114729
 20
50.59198457845055
 42
1.0
 10
245.7664218853661
 20
50.07403169759117
 42
1.0
 10
244.9913735862125
 20
50.07188195800784
 42
1.0
 97
        0
 72
     4
 94
        3
 73
     1
 74
     0
 95
        8
 96
        4
 40
0.0
 40
0.0
 40
0.0
 40
0.0
 40
1.0
 40
1.0
 40
1.0
 40
1.0
 10
244.9913735862125
 20
50.07188195800785
 42
1.0
 10
244.215855031525
 20
50.07403169759117
 42
1.0
 10
243.6230643414208
 20
50.68979772949222
 42
1.0
 10
243.6193022971499
 20
51.79919771321618
 42
1.0
 97
        0
 97
        0
 75
     0
 76
     1
 98
        1
 10
0.0
 20
0.0
  0
HATCH
  5
129
330
78
100
AcDbEntity
  8
0
  6
Continuous
 62
     7
100
AcDbHatch
 10
0.0
 20
0.0
 30
0.0
210
0.0
220
0.0
230
1.0
  2
SOLID
 70
     1
 71
     0
 91
        1
 92
        0
 93
        8
 72
     4
 94
        3
 73
     1
 74
     0
 95
        8
 96
        4
 40
7.0
 40
7.0
 40
7.0
 40
7.0
 40
8.0
 40
8.0
 40
8.0
 40
8.0
 10
235.2267389195643
 20
49.44563594563805
 42
1.0
 10
234.3484359410487
 20
49.66813399251304
 42
1.0
 10
233.6945792109055
 20
50.4570884195964
 42
1.0
 10
233.6739551467778
 20
51.72167272949222
 42
1.0
 97
        0
 72
     1
 10
233.6739551467778
 20
51.72167272949222
 11
233.6727459182622
 21
51.72167272949222
 72
     1
 10
233.6727459182622
 20
51.72167272949222
 11
233.6727459182622
 21
55.26249536132816
 72
     1
 10
233.6727459182622
 20
55.26249536132816
 11
232.9466713739914
 21
55.26249536132816
 72
     1
 10
232.9466713739914
 20
55.26249536132816
 11
232.9466713739914
 21
51.77971569824223
 72
     1
 10
232.9466713739914
 20
51.77971569824223
 11
232.9472759882492
 21
51.77971569824223
 72
     4
 94
        3
 73
     1
 74
     0
 95
        8
 96
        4
 40
5.0
 40
5.0
 40
5.0
 40
5.0
 40
6.0
 40
6.0
 40
6.0
 40
6.0
 10
232.9472759882492
 20
51.77971569824223
 42
1.0
 10
232.9535908482752
 20
50.25501289876306
 42
1.0
 10
233.8585640334966
 20
49.43676826985681
 42
1.0
 10
234.9778393834315
 20
49.43676826985681
 42
1.0
 97
        0
 72
     4
 94
        3
 73
     1
 74
     0
 95
        8
 96
        4
 40
6.0
 40
6.0
 40
6.0
 40
6.0
 40
7.0
 40
7.0
 40
7.0
 40
7.0
 10
234.9778393834315
 20
49.43676826985681
 42
1.0
 10
235.0608058954758
 20
49.43676826985681
 42
1.0
 10
235.14377240752
 20
49.43985852050785
 42
1.0
 10
235.2267389195643
 20
49.44563594563805
 42
1.0
 97
        0
 97
        0
 75
     0
 76
     1
 98
        1
 10
0.0
 20
0.0
  0
HATCH
  5
12A
330
78
100
AcDbEntity
  8
0
  6
Continuous
 62
     7
100
AcDbHatch
 10
0.0
 20
0.0
 30
0.0
210
0.0
220
0.0
230
1.0
  2
SOLID
 70
     1
 71
     0
 91
        2
 92
        0
 93
        9
 72
     4
 94
        3
 73
     1
 74
     0
 95
        8
 96
        4
 40
3.0
 40
3.0
 40
3.0
 40
3.0
 40
4.0
 40
4.0
 40
4.0
 40
4.0
 10
238.8093271588036
 20
50.05172814941409
 42
1.0
 10
239.1780746767073
 20
49.65241402180991
 42
1.0
 10
239.6897126975406
 20
49.44536722819013
 42
1.0
 10
240.2502572938948
 20
49.44563594563805
 42
1.0
 97
        0
 72
     1
 10
240.2502572938948
 20
49.44563594563805
 11
240.2521383160301
 21
49.44563594563805
 72
     4
 94
        3
 73
     1
 74
     0
 95
        8
 96
        4
 40
5.0
 40
5.0
 40
5.0
 40
5.0
 40
6.0
 40
6.0
 40
6.0
 40
6.0
 10
240.2521383160301
 20
49.44563594563805
 42
1.0
 10
240.8120111187646
 20
49.44563594563805
 42
1.0
 10
241.3224399110823
 20
49.65241402180991
 42
1.0
 10
241.6913217877099
 20
50.05172814941409
 42
1.0
 97
        0
 72
     4
 94
        3
 73
     1
 74
     0
 95
        8
 96
        4
 40
6.0
 40
6.0
 40
6.0
 40
6.0
 40
7.0
 40
7.0
 40
7.0
 40
7.0
 10
241.6913217877099
 20
50.05172814941409
 42
1.0
 10
242.0604723817854
 20
50.45144535319012
 42
1.0
 10
242.2852545269677
 20
51.04101143391929
 42
1.0
 10
242.2852545269677
 20
51.79919771321618
 42
1.0
 97
        0
 72
     4
 94
        3
 73
     1
 74
     0
 95
        8
 96
        4
 40
7.0
 40
7.0
 40
7.0
 40
7.0
 40
8.0
 40
8.0
 40
8.0
 40
8.0
 10
242.2852545269677
 20
51.79919771321618
 42
1.0
 10
242.2852545269677
 20
52.55704809570316
 42
1.0
 10
242.0604723817854
 20
53.14695007324222
 42
1.0
 10
241.6913217877099
 20
53.54626420084637
 42
1.0
 97
        0
 72
     4
 94
        3
 73
     1
 74
     0
 95
        8
 96
        4
 40
8.0
 40
8.0
 40
8.0
 40
8.0
 40
9.0
 40
9.0
 40
9.0
 40
9.0
 10
241.6913217877099
 20
53.54626420084637
 42
1.0
 10
241.3222383729963
 20
53.94645166015629
 42
1.0
 10
240.8108690696109
 20
54.15289383951826
 42
1.0
 10
240.2502572938948
 20
54.1524235839844
 42
1.0
 97
        0
 72
     4
 94
        3
 73
     1
 74
     0
 95
        8
 96
        4
 40
0.0
 40
0.0
 40
0.0
 40
0.0
 40
1.0
 40
1.0
 40
1.0
 40
1.0
 10
240.2502572938948
 20
54.1524235839844
 42
1.0
 10
239.6897126975406
 20
54.15289383951826
 42
1.0
 10
239.1780746767073
 20
53.94645166015629
 42
1.0
 10
238.8093271588036
 20
53.54626420084637
 42
1.0
 97
        0
 72
     4
 94
        3
 73
     1
 74
     0
 95
        8
 96
        4
 40
1.0
 40
1.0
 40
1.0
 40
1.0
 40
2.0
 40
2.0
 40
2.0
 40
2.0
 10
238.8093271588036
 20
53.54626420084637
 42
1.0
 10
238.440310923452
 20
53.14695007324222
 42
1.0
 10
238.2155287782698
 20
52.55704809570316
 42
1.0
 10
238.2156631369937
 20
51.79919771321618
 42
1.0
 97
        0
 72
     4
 94
        3
 73
     1
 74
     0
 95
        8
 96
        4
 40
2.0
 40
2.0
 40
2.0
 40
2.0
 40
3.0
 40
3.0
 40
3.0
 40
3.0
 10
238.2156631369937
 20
51.79919771321618
 42
1.0
 10
238.2155287782698
 20
51.04101143391929
 42
1.0
 10
238.440310923452
 20
50.45144535319012
 42
1.0
 10
238.8093271588036
 20
50.05172814941409
 42
1.0
 97
        0
 97
        0
 92
        0
 93
        4
 72
     4
 94
        3
 73
     1
 74
     0
 95
        8
 96
        4
 40
1.0
 40
1.0
 40
1.0
 40
1.0
 40
2.0
 40
2.0
 40
2.0
 40
2.0
 10
238.8781860048323
 20
51.79919771321618
 42
1.0
 10
238.8819480491031
 20
52.89966284179692
 42
1.0
 10
239.475746429637
 20
53.52456526692712
 42
1.0
 10
240.2502572938948
 20
53.52637910970054
 42
1.0
 97
        0
 72
     4
 94
        3
 73
     1
 74
     0
 95
        8
 96
        4
 40
2.0
 40
2.0
 40
2.0
 40
2.0
 40
3.0
 40
3.0
 40
3.0
 40
3.0
 10
240.2502572938948
 20
53.52637910970054
 42
1.0
 10
241.0251712343245
 20
53.52456526692713
 42
1.0
 10
241.6187008974104
 20
52.89966284179692
 42
1.0
 10
241.6222614035953
 20
51.79919771321618
 42
1.0
 97
        0
 72
     4
 94
        3
 73
     1
 74
     0
 95
        8
 96
        4
 40
3.0
 40
3.0
 40
3.0
 40
3.0
 40
4.0
 40
4.0
 40
4.0
 40
4.0
 10
241.6222614035953
 20
51.79919771321618
 42
1.0
 10
241.6187008974104
 20
50.68979772949221
 42
1.0
 10
241.0255743104963
 20
50.07403169759117
 42
1.0
 10
240.2502572938948
 20
50.07161324055993
 42
1.0
 97
        0
 72
     4
 94
        3
 73
     1
 74
     0
 95
        8
 96
        4
 40
0.0
 40
0.0
 40
0.0
 40
0.0
 40
1.0
 40
1.0
 40
1.0
 40
1.0
 10
240.2502572938948
 20
50.07161324055993
 42
1.0
 10
239.4752761741031
 20
50.07403169759117
 42
1.0
 10
238.882216766551
 20
50.68979772949221
 42
1.0
 10
238.8781860048323
 20
51.79919771321618
 42
1.0
 97
        0
 97
        0
 75
     0
 76
     1
 98
        1
 10
0.0
 20
0.0
  0
HATCH
  5
12B
330
78
100
AcDbEntity
  8
0
  6
Continuous
 62
     7
100
AcDbHatch
 10
0.0
 20
0.0
 30
0.0
210
0.0
220
0.0
230
1.0
  2
SOLID
 70
     1
 71
     0
 91
        1
 92
        0
 93
        5
 72
     4
 94
        3
 73
     1
 74
     0
 95
        8
 96
        4
 40
0.0
 40
0.0
 40
0.0
 40
0.0
 40
1.0
 40
1.0
 40
1.0
 40
1.0
 10
236.0195897496424
 20
53.57185953776045
 42
1.0
 10
235.9188207066737
 20
53.57159082031254
 42
1.0
 10
235.8212090937179
 20
53.56117801920577
 42
1.0
 10
235.7273595250331
 20
53.54102421061203
 42
1.0
 97
        0
 72
     4
 94
        3
 73
     1
 74
     0
 95
       11
 96
        7
 40
1.0
 40
1.0
 40
1.0
 40
1.0
 40
2.0
 40
2.0
 40
2.0
 40
3.0
 40
3.0
 40
3.0
 40
3.0
 10
235.7273595250331
 20
53.54102421061203
 42
1.0
 10
236.3061097284836
 20
53.32248974609381
 42
1.0
 10
236.7050879592778
 20
52.70645499674485
 42
1.0
 10
236.7050879592778
 20
51.7957043863933
 42
1.0
 10
236.7050879592778
 20
50.87816866048182
 42
1.0
 10
236.3067815221034
 20
50.26656774902347
 42
1.0
 10
235.7287031122727
 20
50.04930969238286
 42
1.0
 97
        0
 72
     4
 94
        3
 73
     1
 74
     0
 95
        8
 96
        4
 40
3.0
 40
3.0
 40
3.0
 40
3.0
 40
4.0
 40
4.0
 40
4.0
 40
4.0
 10
235.7287031122727
 20
50.04930969238285
 42
1.0
 10
235.8220824254237
 20
50.029424601237
 42
1.0
 10
235.9193581415695
 20
50.01948205566409
 42
1.0
 10
236.0195897496424
 20
50.01907897949221
 42
1.0
 97
        0
 72
     4
 94
        3
 73
     1
 74
     0
 95
        8
 96
        4
 40
4.0
 40
4.0
 40
4.0
 40
4.0
 40
5.0
 40
5.0
 40
5.0
 40
5.0
 10
236.0195897496424
 20
50.01907897949221
 42
1.0
 10
236.8172103144211
 20
50.02109436035159
 42
1.0
 10
237.4267286656581
 20
50.65526753743492
 42
1.0
 10
237.4308937861008
 20
51.79570438639327
 42
1.0
 97
        0
 72
     4
 94
        3
 73
     1
 74
     0
 95
        8
 96
        4
 40
5.0
 40
5.0
 40
5.0
 40
5.0
 40
6.0
 40
6.0
 40
6.0
 40
6.0
 10
237.4308937861008
 20
51.79570438639327
 42
1.0
 10
237.4271317418299
 20
52.92707202148441
 42
1.0
 10
236.8167400588872
 20
53.57031441243492
 42
1.0
 10
236.0195897496424
 20
53.57185953776045
 42
1.0
 97
        0
 97
        0
 75
     0
 76
     1
 98
        1
 10
0.0
 20
0.0
  0
HATCH
  5
12C
330
78
100
AcDbEntity
  8
0
  6
Continuous
 62
     7
100
AcDbHatch
 10
0.0
 20
0.0
 30
0.0
210
0.0
220
0.0
230
1.0
  2
SOLID
 70
     1
 71
     0
 91
        2
 92
        0
 93
       18
 72
     4
 94
        3
 73
     1
 74
     0
 95
        8
 96
        4
 40
5.0
 40
5.0
 40
5.0
 40
5.0
 40
6.0
 40
6.0
 40
6.0
 40
6.0
 10
249.7665498150536
 20
49.44563594563805
 42
1.0
 10
249.7813292746891
 20
49.44563594563805
 42
1.0
 10
249.7922123313296
 20
49.44644209798179
 42
1.0
 10
249.8010128277489
 20
49.44644209798179
 42
1.0
 97
        0
 72
     4
 94
        3
 73
     1
 74
     0
 95
        8
 96
        4
 40
6.0
 40
6.0
 40
6.0
 40
6.0
 40
7.0
 40
7.0
 40
7.0
 40
7.0
 10
249.8010128277489
 20
49.44644209798179
 42
1.0
 10
249.8100148622541
 20
49.44644209798179
 42
1.0
 10
249.8223086854963
 20
49.44563594563805
 42
1.0
 10
249.8366850689599
 20
49.44563594563805
 42
1.0
 97
        0
 72
     1
 10
249.8366850689599
 20
49.44563594563805
 11
249.8415219830224
 21
49.44563594563805
 72
     4
 94
        3
 73
     1
 74
     0
 95
        8
 96
        4
 40
8.0
 40
8.0
 40
8.0
 40
8.0
 40
9.0
 40
9.0
 40
9.0
 40
9.0
 10
249.8415219830224
 20
49.44563594563805
 42
1.0
 10
250.7082029319156
 20
49.44563594563805
 42
1.0
 10
251.4525502626448
 20
49.94867500813804
 42
1.0
 10
251.7394061382958
 20
50.87978096516928
 42
1.0
 97
        0
 72
     1
 10
251.7394061382958
 20
50.87978096516928
 11
251.7625830181786
 21
50.95435005696617
 72
     1
 10
251.7625830181786
 20
50.95435005696617
 11
251.0299248964338
 21
50.95435005696617
 72
     1
 10
251.0299248964338
 20
50.95435005696617
 11
251.016354665314
 21
50.9159234619141
 72
     4
 94
        3
 73
     1
 74
     0
 95
        8
 96
        4
 40
12.0
 40
12.0
 40
12.0
 40
12.0
 40
13.0
 40
13.0
 40
13.0
 40
13.0
 10
251.016354665314
 20
50.9159234619141
 42
1.0
 10
250.8335596213687
 20
50.40294185384116
 42
1.0
 10
250.4579598085432
 20
50.0826306559245
 42
1.0
 10
249.8141799826968
 20
50.07188195800784
 42
1.0
 97
        0
 72
     1
 10
249.8141799826968
 20
50.07188195800784
 11
249.8012143658349
 21
50.07215067545575
 72
     4
 94
        3
 73
     1
 74
     0
 95
        8
 96
        4
 40
14.0
 40
14.0
 40
14.0
 40
14.0
 40
15.0
 40
15.0
 40
15.0
 40
15.0
 10
249.8012143658349
 20
50.07215067545575
 42
1.0
 10
248.8709145611474
 20
50.08155578613283
 42
1.0
 10
248.4738845318505
 20
50.74166019694015
 42
1.0
 10
248.4677712099104
 20
51.69896610514325
 42
1.0
 97
        0
 72
     1
 10
248.4677712099104
 20
51.69896610514325
 11
248.4676368511865
 21
51.75915881347657
 72
     1
 10
248.4676368511865
 20
51.75915881347657
 11
251.8036296083479
 21
51.75915881347657
 72
     1
 10
251.8036296083479
 20
51.75915881347657
 11
251.8015470481265
 21
51.81962023925784
 72
     4
 94
        3
 73
     1
 74
     0
 95
        8
 96
        4
 40
0.0
 40
0.0
 40
0.0
 40
0.0
 40
1.0
 40
1.0
 40
1.0
 40
1.0
 10
251.8015470481265
 20
51.81962023925784
 42
1.0
 10
251.7605004579573
 20
53.12733369954429
 42
1.0
 10
251.0964324647933
 20
54.1553122965495
 42
1.0
 10
249.7665498150536
 20
54.15289383951826
 42
1.0
 97
        0
 72
     4
 94
        3
 73
     1
 74
     0
 95
        8
 96
        4
 40
1.0
 40
1.0
 40
1.0
 40
1.0
 40
2.0
 40
2.0
 40
2.0
 40
2.0
 10
249.7665498150536
 20
54.15289383951826
 42
1.0
 10
249.2061395774234
 20
54.15289383951826
 42
1.0
 10
248.694904632762
 20
53.94645166015629
 42
1.0
 10
248.3258883974104
 20
53.54626420084637
 42
1.0
 97
        0
 72
     4
 94
        3
 73
     1
 74
     0
 95
        8
 96
        4
 40
2.0
 40
2.0
 40
2.0
 40
2.0
 40
3.0
 40
3.0
 40
3.0
 40
3.0
 10
248.3258883974104
 20
53.54626420084637
 42
1.0
 10
247.9568721620588
 20
53.14695007324222
 42
1.0
 10
247.7316869407047
 20
52.55704809570316
 42
1.0
 10
247.7320900168766
 20
51.79866027832033
 42
1.0
 97
        0
 72
     4
 94
        3
 73
     1
 74
     0
 95
        8
 96
        4
 40
3.0
 40
3.0
 40
3.0
 40
3.0
 40
4.0
 40
4.0
 40
4.0
 40
4.0
 10
247.7320900168766
 20
51.79866027832033
 42
1.0
 10
247.7316869407047
 20
51.04101143391929
 42
1.0
 10
247.9568721620588
 20
50.45144535319012
 42
1.0
 10
248.3258883974104
 20
50.05172814941409
 42
1.0
 97
        0
 72
     4
 94
        3
 73
     1
 74
     0
 95
        8
 96
        4
 40
4.0
 40
4.0
 40
4.0
 40
4.0
 40
5.0
 40
5.0
 40
5.0
 40
5.0
 10
248.3258883974104
 20
50.05172814941409
 42
1.0
 10
248.6946359153141
 20
49.65241402180991
 42
1.0
 10
249.2061395774234
 20
49.44536722819013
 42
1.0
 10
249.7665498150536
 20
49.44563594563805
 42
1.0
 97
        0
 97
        0
 92
        0
 93
        3
 72
     1
 10
251.0529674175927
 20
52.33072082519535
 11
248.4766388856916
 21
52.33072082519535
 72
     4
 94
        3
 73
     1
 74
     0
 95
        8
 96
        4
 40
0.0
 40
0.0
 40
0.0
 40
0.0
 40
1.0
 40
1.0
 40
1.0
 40
1.0
 10
248.4766388856916
 20
52.33072082519535
 42
1.0
 10
248.5873504742333
 20
53.00748571777345
 42
1.0
 10
249.0482008974104
 20
53.52537141927086
 42
1.0
 10
249.7665498150536
 20
53.52637910970056
 42
1.0
 97
        0
 72
     4
 94
        3
 73
     1
 74
     0
 95
        8
 96
        4
 40
1.0
 40
1.0
 40
1.0
 40
1.0
 40
2.0
 40
2.0
 40
2.0
 40
2.0
 10
249.7665498150536
 20
53.52637910970056
 42
1.0
 10
250.6097851666161
 20
53.52456526692713
 42
1.0
 10
250.922908172801
 20
52.93708174641929
 42
1.0
 10
251.0529674175927
 20
52.33072082519535
 42
1.0
 97
        0
 97
        0
 75
     0
 76
     1
 98
        1
 10
0.0
 20
0.0
  0
HATCH
  5
12D
330
78
100
AcDbEntity
  8
0
  6
Continuous
 62
     7
100
AcDbHatch
 10
0.0
 20
0.0
 30
0.0
210
0.0
220
0.0
230
1.0
  2
SOLID
 70
     1
 71
     0
 91
        1
 92
        0
 93
       13
 72
     4
 94
        3
 73
     1
 74
     0
 95
        8
 96
        4
 40
6.0
 40
6.0
 40
6.0
 40
6.0
 40
7.0
 40
7.0
 40
7.0
 40
7.0
 10
253.2143962099104
 20
52.16317549641928
 42
1.0
 10
253.219098765249
 20
53.12182499186201
 42
1.0
 10
253.7753438824364
 20
53.52167655436201
 42
1.0
 10
254.4043442486473
 20
53.52637910970056
 42
1.0
 97
        0
 72
     4
 94
        3
 73
     1
 74
     0
 95
        8
 96
        4
 40
7.0
 40
7.0
 40
7.0
 40
7.0
 40
8.0
 40
8.0
 40
8.0
 40
8.0
 10
254.4043442486473
 20
53.52637910970056
 42
1.0
 10
255.0787578635562
 20
53.51542887369794
 42
1.0
 10
255.4008829042463
 20
53.27620316569013
 42
1.0
 10
255.4121690370588
 20
52.409186319987
 42
1.0
 97
        0
 72
     1
 10
255.4121690370588
 20
52.409186319987
 11
255.4121690370588
 21
49.55486958821616
 72
     1
 10
255.4121690370588
 20
49.55486958821616
 11
256.0747590842593
 21
49.55486958821616
 72
     1
 10
256.0747590842593
 20
49.55486958821616
 11
256.0747590842593
 21
52.5733055013021
 72
     4
 94
        3
 73
     1
 74
     0
 95
        8
 96
        4
 40
11.0
 40
11.0
 40
11.0
 40
11.0
 40
12.0
 40
12.0
 40
12.0
 40
12.0
 10
256.0747590842593
 20
52.5733055013021
 42
1.0
 10
256.0747590842593
 20
53.03361848958336
 42
1.0
 10
255.9559859722802
 20
53.43037980143232
 42
1.0
 10
255.6924413352359
 20
53.71165979003909
 42
1.0
 97
        0
 72
     4
 94
        3
 73
     1
 74
     0
 95
        8
 96
        4
 40
12.0
 40
12.0
 40
12.0
 40
12.0
 40
13.0
 40
13.0
 40
13.0
 40
13.0
 10
255.6924413352359
 20
53.71165979003909
 42
1.0
 10
255.4291654156395
 20
53.99381311035158
 42
1.0
 10
255.0250815533349
 20
54.15316255696617
 42
1.0
 10
254.4773682151187
 20
54.1524235839844
 42
1.0
 97
        0
 72
     4
 94
        3
 73
     1
 74
     0
 95
        8
 96
        4
 40
0.0
 40
0.0
 40
0.0
 40
0.0
 40
1.0
 40
1.0
 40
1.0
 40
1.0
 10
254.4773682151187
 20
54.1524235839844
 42
1.0
 10
254.0052316591292
 20
54.15369999186201
 42
1.0
 10
253.5150910341292
 20
53.98333312988284
 42
1.0
 10
253.2143962099104
 20
53.53269396972657
 42
1.0
 97
        0
 72
     1
 10
253.2143962099104
 20
53.53269396972657
 11
253.2143962099104
 21
54.04325712076826
 72
     1
 10
253.2143962099104
 20
54.04325712076826
 11
252.5518733420718
 21
54.04325712076826
 72
     1
 10
252.5518733420718
 20
54.04325712076826
 11
252.5518733420718
 21
49.55486958821616
 72
     1
 10
252.5518733420718
 20
49.55486958821616
 11
253.2143962099104
 21
49.55486958821616
 72
     1
 10
253.2143962099104
 20
49.55486958821616
 11
253.2143962099104
 21
52.16317549641928
 97
        0
 75
     0
 76
     1
 98
        1
 10
0.0
 20
0.0
  0
HATCH
  5
12E
330
78
100
AcDbEntity
  8
0
  6
Continuous
 62
     7
100
AcDbHatch
 10
0.0
 20
0.0
 30
0.0
210
0.0
220
0.0
230
1.0
  2
SOLID
 70
     1
 71
     0
 91
        1
 92
        0
 93
       24
 72
     4
 94
        3
 73
     1
 74
     0
 95
        8
 96
        4
 40
11.0
 40
11.0
 40
11.0
 40
11.0
 40
12.0
 40
12.0
 40
12.0
 40
12.0
 10
258.3170718283999
 20
54.13750976562503
 42
1.0
 10
257.3694397483218
 20
54.10976468912763
 42
1.0
 10
256.8420817567854
 20
53.52429654947919
 42
1.0
 10
256.8442314963687
 20
52.87897159830732
 42
1.0
 97
        0
 72
     4
 94
        3
 73
     1
 74
     0
 95
        8
 96
        4
 40
12.0
 40
12.0
 40
12.0
 40
12.0
 40
13.0
 40
13.0
 40
13.0
 40
13.0
 10
256.8442314963687
 20
52.87897159830732
 42
1.0
 10
256.8418130393375
 20
51.96848970540368
 42
1.0
 10
257.5411501975406
 20
51.76144291178387
 42
1.0
 10
258.1843254091291
 20
51.63823596191408
 42
1.0
 97
        0
 72
     4
 94
        3
 73
     1
 74
     0
 95
        8
 96
        4
 40
13.0
 40
13.0
 40
13.0
 40
13.0
 40
14.0
 40
14.0
 40
14.0
 40
14.0
 10
258.1843254091291
 20
51.63823596191408
 42
1.0
 10
258.5088017274885
 20
51.5730719807943
 42
1.0
 10
258.8295160015771
 20
51.52094079589845
 42
1.0
 10
259.0598068544416
 20
51.40996048990888
 42
1.0
 97
        0
 72
     4
 94
        3
 73
     1
 74
     0
 95
        8
 96
        4
 40
14.0
 40
14.0
 40
14.0
 40
14.0
 40
15.0
 40
15.0
 40
15.0
 40
15.0
 10
259.0598068544416
 20
51.40996048990888
 42
1.0
 10
259.2900977073062
 20
51.29615865071617
 42
1.0
 10
259.4282184755354
 20
51.14339278157556
 42
1.0
 10
259.4309056500146
 20
50.83866719563805
 42
1.0
 97
        0
 72
     4
 94
        3
 73
     1
 74
     0
 95
        8
 96
        4
 40
15.0
 40
15.0
 40
15.0
 40
15.0
 40
16.0
 40
16.0
 40
16.0
 40
16.0
 10
259.4309056500146
 20
50.83866719563805
 42
1.0
 10
259.4306369325666
 20
50.17480074055992
 42
1.0
 10
258.8938738303531
 20
50.022975382487
 42
1.0
 10
258.4449813336083
 20
50.00443387858074
 42
1.0
 97
        0
 72
     4
 94
        3
 73
     1
 74
     0
 95
        8
 96
        4
 40
16.0
 40
16.0
 40
16.0
 40
16.0
 40
17.0
 40
17.0
 40
17.0
 40
17.0
 10
258.4449813336083
 20
50.00443387858074
 42
1.0
 10
258.0674333192854
 20
50.01249540201825
 42
1.0
 10
257.526908172801
 20
50.1397331136068
 42
1.0
 10
257.3465987652489
 20
50.7604704182943
 42
1.0
 97
        0
 72
     1
 10
257.3465987652489
 20
50.7604704182943
 11
257.3349095562646
 21
50.80265905761723
 72
     1
 10
257.3349095562646
 20
50.80265905761723
 11
256.6612349143375
 21
50.80265905761723
 72
     1
 10
256.6612349143375
 20
50.80265905761723
 11
256.6847476910302
 21
50.7275525309245
 72
     4
 94
        3
 73
     1
 74
     0
 95
        8
 96
        4
 40
20.0
 40
20.0
 40
20.0
 40
20.0
 40
21.0
 40
21.0
 40
21.0
 40
21.0
 10
256.6847476910302
 20
50.7275525309245
 42
1.0
 10
256.9378795269677
 20
49.9117263590495
 42
1.0
 10
257.6850483909
 20
49.45960925292972
 42
1.0
 10
258.397687062775
 20
49.43569340006511
 42
1.0
 97
        0
 72
     1
 10
258.397687062775
 20
49.43569340006511
 11
258.4476685080875
 21
49.43623083496097
 72
     4
 94
        3
 73
     1
 74
     0
 95
        8
 96
        4
 40
22.0
 40
22.0
 40
22.0
 40
22.0
 40
23.0
 40
23.0
 40
23.0
 40
23.0
 10
258.4476685080875
 20
49.43623083496097
 42
1.0
 10
259.4949947613427
 20
49.47237333170574
 42
1.0
 10
260.0955782574364
 20
50.09028910319014
 42
1.0
 10
260.0939659527489
 20
50.82039440917971
 42
1.0
 97
        0
 72
     4
 94
        3
 73
     1
 74
     0
 95
        8
 96
        4
 40
23.0
 40
23.0
 40
23.0
 40
23.0
 40
24.0
 40
24.0
 40
24.0
 40
24.0
 10
260.0939659527489
 20
50.82039440917971
 42
1.0
 10
260.0961156923323
 20
51.7381988525391
 42
1.0
 10
259.4008092958479
 20
51.98891223144533
 42
1.0
 10
258.7550812685041
 20
52.13281042480472
 42
1.0
 97
        0
 72
     4
 94
        3
 73
     1
 74
     0
 95
        8
 96
        4
 40
0.0
 40
0.0
 40
0.0
 40
0.0
 40
1.0
 40
1.0
 40
1.0
 40
1.0
 10
258.7550812685041
 20
52.13281042480472
 42
1.0
 10
258.4303362326968
 20
52.20764823404951
 42
1.0
 10
258.1084127300927
 20
52.26286966959638
 42
1.0
 10
257.8763752138166
 20
52.36605716959637
 42
1.0
 97
        0
 72
     4
 94
        3
 73
     1
 74
     0
 95
        8
 96
        4
 40
1.0
 40
1.0
 40
1.0
 40
1.0
 40
2.0
 40
2.0
 40
2.0
 40
2.0
 10
257.8763752138166
 20
52.36605716959637
 42
1.0
 10
257.6433971864729
 20
52.47173030598961
 42
1.0
 10
257.5089041037905
 20
52.6036705729167
 42
1.0
 10
257.5067543642073
 20
52.86090034993494
 42
1.0
 97
        0
 72
     4
 94
        3
 73
     1
 74
     0
 95
        8
 96
        4
 40
2.0
 40
2.0
 40
2.0
 40
2.0
 40
3.0
 40
3.0
 40
3.0
 40
3.0
 10
257.5067543642073
 20
52.86090034993494
 42
1.0
 10
257.5157563987125
 20
53.25866935221357
 42
1.0
 10
257.6615356142073
 20
53.52980525716148
 42
1.0
 10
258.3858634950666
 20
53.56460416666669
 42
1.0
 97
        0
 72
     4
 94
        3
 73
     1
 74
     0
 95
        8
 96
        4
 40
3.0
 40
3.0
 40
3.0
 40
3.0
 40
4.0
 40
4.0
 40
4.0
 40
4.0
 10
258.3858634950666
 20
53.56460416666669
 42
1.0
 10
258.8105714214989
 20
53.56124519856773
 42
1.0
 10
259.0927247418114
 20
53.38248091634117
 42
1.0
 10
259.2722279970197
 20
53.08124865722658
 42
1.0
 97
        0
 72
     1
 10
259.2722279970197
 20
53.08124865722658
 11
259.2890228375146
 21
53.05276460774744
 72
     1
 10
259.2890228375146
 20
53.05276460774744
 11
259.9476493023583
 21
53.05276460774744
 72
     1
 10
259.9476493023583
 20
53.05276460774744
 11
259.9116411643375
 21
53.13411881510418
 72
     4
 94
        3
 73
     1
 74
     0
 95
        8
 96
        4
 40
7.0
 40
7.0
 40
7.0
 40
7.0
 40
8.0
 40
8.0
 40
8.0
 40
8.0
 10
259.9116411643375
 20
53.13411881510418
 42
1.0
 10
259.6226355491031
 20
53.78965502929691
 42
1.0
 10
259.0584632672021
 20
54.14140616861981
 42
1.0
 10
258.4156911317854
 20
54.14039847819013
 42
1.0
 97
        0
 72
     4
 94
        3
 73
     1
 74
     0
 95
        8
 96
        4
 40
8.0
 40
8.0
 40
8.0
 40
8.0
 40
9.0
 40
9.0
 40
9.0
 40
9.0
 10
258.4156911317854
 20
54.14039847819013
 42
1.0
 10
258.3994337261864
 20
54.14039847819013
 42
1.0
 10
258.3858634950666
 20
54.13932360839846
 42
1.0
 10
258.3740399273583
 20
54.13932360839846
 42
1.0
 97
        0
 72
     1
 10
258.3740399273583
 20
54.13932360839846
 11
258.3170718283999
 21
54.13878617350262
 72
     1
 10
258.3170718283999
 20
54.13878617350262
 11
258.3170718283999
 21
54.13750976562503
 97
        0
 75
     0
 76
     1
 98
        1
 10
0.0
 20
0.0
  0
HATCH
  5
12F
330
78
100
AcDbEntity
  8
0
  6
Continuous
 62
     7
100
AcDbHatch
 10
0.0
 20
0.0
 30
0.0
210
0.0
220
0.0
230
1.0
  2
SOLID
 70
     1
 71
     0
 91
        1
 92
        0
 93
       15
 72
     4
 94
        3
 73
     1
 74
     0
 95
        8
 96
        4
 40
11.0
 40
11.0
 40
11.0
 40
11.0
 40
12.0
 40
12.0
 40
12.0
 40
12.0
 10
262.5853797711083
 20
49.44563594563805
 42
1.0
 10
263.5398641461083
 20
49.44563594563805
 42
1.0
 10
264.1459563498844
 20
49.87115002441409
 42
1.0
 10
264.4688203635562
 20
50.70296488444013
 42
1.0
 97
        0
 72
     1
 10
264.4688203635562
 20
50.70296488444013
 11
264.4999915875146
 21
50.78196781412763
 72
     1
 10
264.4999915875146
 20
50.78196781412763
 11
263.7743201194156
 21
50.78223653157553
 72
     1
 10
263.7743201194156
 20
50.78223653157553
 11
263.7591375836083
 21
50.74918428548179
 72
     4
 94
        3
 73
     1
 74
     0
 95
        8
 96
        4
 40
0.0
 40
0.0
 40
0.0
 40
0.0
 40
1.0
 40
1.0
 40
1.0
 40
1.0
 10
263.7591375836083
 20
50.74918428548179
 42
1.0
 10
263.573050750926
 20
50.36532141113282
 42
1.0
 10
263.234735483999
 20
50.0743004150391
 42
1.0
 10
262.5728844097802
 20
50.07161324055993
 42
1.0
 97
        0
 72
     4
 94
        3
 73
     1
 74
     0
 95
        8
 96
        4
 40
1.0
 40
1.0
 40
1.0
 40
1.0
 40
2.0
 40
2.0
 40
2.0
 40
2.0
 10
262.5728844097802
 20
50.07161324055993
 42
1.0
 10
261.9138548687646
 20
50.07376298014326
 42
1.0
 10
261.203097219025
 20
50.62154349772136
 42
1.0
 10
261.2008131207177
 20
51.79919771321618
 42
1.0
 97
        0
 72
     4
 94
        3
 73
     1
 74
     0
 95
        8
 96
        4
 40
2.0
 40
2.0
 40
2.0
 40
2.0
 40
3.0
 40
3.0
 40
3.0
 40
3.0
 10
261.2008131207177
 20
51.79919771321618
 42
1.0
 10
261.2039033713687
 20
52.97658321126303
 42
1.0
 10
261.9115707704573
 20
53.52355757649742
 42
1.0
 10
262.6275684104312
 20
53.52637910970056
 42
1.0
 97
        0
 72
     4
 94
        3
 73
     1
 74
     0
 95
        8
 96
        4
 40
3.0
 40
3.0
 40
3.0
 40
3.0
 40
4.0
 40
4.0
 40
4.0
 40
4.0
 10
262.6275684104312
 20
53.52637910970056
 42
1.0
 10
263.1397438661604
 20
53.52456526692713
 42
1.0
 10
263.5299216005354
 20
53.37381477864585
 42
1.0
 10
263.7028412782698
 20
53.01218827311202
 42
1.0
 97
        0
 72
     1
 10
263.7028412782698
 20
53.01218827311202
 11
263.7180238140771
 21
52.97839705403647
 72
     1
 10
263.7180238140771
 20
52.97839705403647
 11
264.4359024761864
 21
52.97369449869794
 72
     1
 10
264.4359024761864
 20
52.97369449869794
 11
264.4000286968895
 21
53.05558614095054
 72
     4
 94
        3
 73
     1
 74
     0
 95
        8
 96
        4
 40
7.0
 40
7.0
 40
7.0
 40
7.0
 40
8.0
 40
8.0
 40
8.0
 40
8.0
 10
264.4000286968895
 20
53.05558614095054
 42
1.0
 10
263.9996396994937
 20
53.97654801432294
 42
1.0
 10
263.2563672385562
 20
54.15558101399741
 42
1.0
 10
262.6999877626448
 20
54.1524235839844
 42
1.0
 97
        0
 72
     4
 94
        3
 73
     1
 74
     0
 95
        8
 96
        4
 40
8.0
 40
8.0
 40
8.0
 40
8.0
 40
9.0
 40
9.0
 40
9.0
 40
9.0
 10
262.6999877626448
 20
54.1524235839844
 42
1.0
 10
261.4113532411604
 20
54.15558101399741
 42
1.0
 10
260.5522635601708
 20
53.19773767089846
 42
1.0
 10
260.5381558941552
 20
51.799735148112
 42
1.0
 97
        0
 72
     4
 94
        3
 73
     1
 74
     0
 95
        8
 96
        4
 40
9.0
 40
9.0
 40
9.0
 40
9.0
 40
10.0
 40
10.0
 40
10.0
 40
10.0
 10
260.5381558941552
 20
51.799735148112
 42
1.0
 10
260.5538758648583
 20
50.3993141682943
 42
1.0
 10
261.4438680523583
 20
49.44469543457033
 42
1.0
 10
262.5728844097802
 20
49.44563594563805
 42
1.0
 97
        0
 72
     1
 10
262.5728844097802
 20
49.44563594563805
 11
262.5853797711083
 21
49.44563594563805
 97
        0
 75
     0
 76
     1
 98
        1
 10
0.0
 20
0.0
  0
HATCH
  5
130
330
78
100
AcDbEntity
  8
0
  6
Continuous
 62
     7
100
AcDbHatch
 10
0.0
 20
0.0
 30
0.0
210
0.0
220
0.0
230
1.0
  2
SOLID
 70
     1
 71
     0
 91
        1
 92
        0
 93
       13
 72
     4
 94
        3
 73
     1
 74
     0
 95
        8
 96
        4
 40
11.0
 40
11.0
 40
11.0
 40
11.0
 40
12.0
 40
12.0
 40
12.0
 40
12.0
 10
268.4404642437646
 20
52.5733055013021
 42
1.0
 10
268.4404642437646
 20
53.03361848958336
 42
1.0
 10
268.3216911317854
 20
53.43037980143232
 42
1.0
 10
268.0578105979312
 20
53.71165979003909
 42
1.0
 97
        0
 72
     4
 94
        3
 73
     1
 74
     0
 95
        8
 96
        4
 40
12.0
 40
12.0
 40
12.0
 40
12.0
 40
13.0
 40
13.0
 40
13.0
 40
13.0
 10
268.0578105979312
 20
53.71165979003909
 42
1.0
 10
267.7943331402489
 20
53.99354439290368
 42
1.0
 10
267.3903164573062
 20
54.15289383951826
 42
1.0
 10
266.842804657176
 20
54.15289383951826
 42
1.0
 97
        0
 72
     4
 94
        3
 73
     1
 74
     0
 95
        8
 96
        4
 40
0.0
 40
0.0
 40
0.0
 40
0.0
 40
1.0
 40
1.0
 40
1.0
 40
1.0
 10
266.842804657176
 20
54.15289383951826
 42
1.0
 10
266.3709368186343
 20
54.15369999186201
 42
1.0
 10
265.8797213238427
 20
53.98306441243492
 42
1.0
 10
265.5798326519676
 20
53.52537141927086
 42
1.0
 97
        0
 72
     1
 10
265.5798326519676
 20
53.52537141927086
 11
265.5798326519676
 21
55.23085388183598
 72
     1
 10
265.5798326519676
 20
55.23085388183598
 11
264.9174441428531
 21
55.23085388183598
 72
     1
 10
264.9174441428531
 20
55.23085388183598
 11
264.9174441428531
 21
49.55486958821616
 72
     1
 10
264.9174441428531
 20
49.55486958821616
 11
265.5798326519676
 21
49.55486958821616
 72
     1
 10
265.5798326519676
 20
49.55486958821616
 11
265.5798326519676
 21
52.16371293131513
 72
     4
 94
        3
 73
     1
 74
     0
 95
        8
 96
        4
 40
6.0
 40
6.0
 40
6.0
 40
6.0
 40
7.0
 40
7.0
 40
7.0
 40
7.0
 10
265.5798326519676
 20
52.16371293131513
 42
1.0
 10
265.5845352073062
 20
53.12182499186201
 42
1.0
 10
266.1406459657697
 20
53.52167655436201
 42
1.0
 10
266.7699822287906
 20
53.52637910970056
 42
1.0
 97
        0
 72
     4
 94
        3
 73
     1
 74
     0
 95
        8
 96
        4
 40
7.0
 40
7.0
 40
7.0
 40
7.0
 40
8.0
 40
8.0
 40
8.0
 40
8.0
 10
266.7699822287906
 20
53.52637910970056
 42
1.0
 10
267.4439255881656
 20
53.51516015625004
 42
1.0
 10
267.7661178082177
 20
53.27620316569013
 42
1.0
 10
267.7771352235823
 20
52.40972375488285
 42
1.0
 97
        0
 72
     1
 10
267.7771352235823
 20
52.40972375488285
 11
267.7771352235823
 21
49.55486958821616
 72
     1
 10
267.7771352235823
 20
49.55486958821616
 11
268.4404642437646
 21
49.55486958821616
 72
     1
 10
268.4404642437646
 20
49.55486958821616
 11
268.4404642437646
 21
52.5733055013021
 97
        0
 75
     0
 76
     1
 98
        1
 10
0.0
 20
0.0
  0
HATCH
  5
131
330
78
100
AcDbEntity
  8
0
  6
Continuous
 62
     7
100
AcDbHatch
 10
0.0
 20
0.0
 30
0.0
210
0.0
220
0.0
230
1.0
  2
SOLID
 70
     1
 71
     0
 91
        1
 92
        0
 93
       10
 72
     1
 10
277.2619165933788
 20
50.12670030336879
 11
279.6434249755404
 21
53.66691832094693
 72
     1
 10
279.6434249755404
 20
53.66691832094693
 11
279.6434249755404
 21
54.04325710675423
 72
     1
 10
279.6434249755404
 20
54.04325710675423
 11
276.3750146495663
 21
54.04325710675421
 72
     1
 10
276.3750146495663
 20
54.04325710675421
 11
276.3749694859434
 21
53.47177920441256
 72
     1
 10
276.3749694859434
 20
53.47177920441256
 11
278.7109302679779
 21
53.47177920441256
 72
     1
 10
278.7109302679779
 20
53.47177920441256
 11
276.374695463315
 21
50.00443387717682
 72
     1
 10
276.374695463315
 20
50.00443387717682
 11
276.3746599344662
 21
49.55486958821617
 72
     1
 10
276.3746599344662
 20
49.55486958821617
 11
279.6774157734232
 21
49.55486958821617
 72
     1
 10
279.6774157734232
 20
49.55486958821617
 11
279.6776899522288
 21
50.12670030336879
 72
     1
 10
279.6776899522288
 20
50.12670030336879
 11
277.2619165933788
 21
50.12670030336879
 97
        0
 75
     0
 76
     1
 98
        1
 10
0.0
 20
0.0
  0
HATCH
  5
132
330
78
100
AcDbEntity
  8
0
  6
Continuous
 62
     7
100
AcDbHatch
 10
0.0
 20
0.0
 30
0.0
210
0.0
220
0.0
230
1.0
  2
SOLID
 70
     1
 71
     0
 91
        1
 92
        0
 93
       18
 72
     4
 94
        3
 73
     1
 74
     0
 95
        8
 96
        4
 40
25.0
 40
25.0
 40
25.0
 40
25.0
 40
26.0
 40
26.0
 40
26.0
 40
26.0
 10
275.3033712434755
 20
50.09781320298818
 42
1.0
 10
275.1656535513739
 20
50.1014408868571
 42
1.0
 10
275.1203746608532
 20
50.1463167001075
 42
1.0
 10
275.0822167821244
 20
50.23862114300191
 42
1.0
 97
        0
 72
     4
 94
        3
 73
     1
 74
     0
 95
        8
 96
        4
 40
26.0
 40
26.0
 40
26.0
 40
26.0
 40
27.0
 40
27.0
 40
27.0
 40
27.0
 10
275.0822167821244
 20
50.23862114300191
 42
1.0
 10
275.0460742842386
 20
50.33226917316051
 42
1.0
 10
275.0419091620066
 20
50.47912325839622
 42
1.0
 10
275.0421778774671
 20
50.64223474928492
 42
1.0
 97
        0
 72
     1
 10
275.0421778774671
 20
50.64223474928492
 11
275.0421778774671
 21
53.47142639967554
 72
     1
 10
275.0421778774671
 20
53.47142639967554
 11
275.7691929911002
 21
53.47142639967554
 72
     1
 10
275.7691929911002
 20
53.47142639967554
 11
275.7689641250673
 21
54.0429543062504
 72
     1
 10
275.7689641250673
 20
54.0429543062504
 11
275.0419489884256
 21
54.04301176190589
 72
     1
 10
275.0419489884256
 20
54.04301176190589
 11
275.041473321865
 21
55.23085388183598
 72
     1
 10
275.041473321865
 20
55.23085388183598
 11
274.3795206484703
 21
55.23085388183598
 72
     1
 10
274.3795206484703
 20
55.23085388183598
 11
274.3795206484703
 21
54.04298840332037
 72
     1
 10
274.3795206484703
 20
54.04298840332037
 11
273.7919506048935
 21
54.04298840332037
 72
     1
 10
273.7919506048935
 20
54.04298840332037
 11
273.7919506048935
 21
53.47142639160163
 72
     1
 10
273.7919506048935
 20
53.47142639160163
 11
274.3795206484703
 21
53.47142639160163
 72
     1
 10
274.3795206484703
 20
53.47142639160163
 11
274.3795206484703
 21
50.27785388183599
 72
     4
 94
        3
 73
     1
 74
     0
 95
        8
 96
        4
 40
20.0
 40
20.0
 40
20.0
 40
20.0
 40
21.0
 40
21.0
 40
21.0
 40
21.0
 10
274.3795206484703
 20
50.27785388183599
 42
1.0
 10
274.3784457823096
 20
49.9798462320833
 42
1.0
 10
274.474780989773
 20
49.78408557244977
 42
1.0
 10
274.6302340347482
 20
49.67283655090634
 42
1.0
 97
        0
 72
     4
 94
        3
 73
     1
 74
     0
 95
        8
 96
        4
 40
21.0
 40
21.0
 40
21.0
 40
21.0
 40
22.0
 40
22.0
 40
22.0
 40
22.0
 10
274.6302340347482
 20
49.67283655090634
 42
1.0
 10
274.7848809273797
 20
49.56158752935308
 42
1.0
 10
274.9834631217241
 20
49.53417835208514
 42
1.0
 10
275.1847324902169
 20
49.53390963708953
 42
1.0
 97
        0
 72
     4
 94
        2
 73
     1
 74
     0
 95
        6
 96
        3
 40
22.0
 40
22.0
 40
22.0
 40
23.0
 40
23.0
 40
23.0
 10
275.1847324902169
 20
49.53390963708953
 42
1.0
 10
275.2214124218576
 20
49.53390963753644
 42
1.0
 10
275.769192939439
 20
49.53364092676277
 42
1.0
 97
        0
 72
     1
 10
275.769192939439
 20
49.53364092676277
 11
275.769192939439
 21
50.09781320866384
 72
     1
 10
275.769192939439
 20
50.09781320866384
 11
275.3033712434755
 21
50.09781320298818
 97
        0
 75
     0
 76
     1
 98
        1
 10
0.0
 20
0.0
  0
HATCH
  5
133
330
78
100
AcDbEntity
  8
0
  6
Continuous
 62
     7
100
AcDbHatch
 10
0.0
 20
0.0
 30
0.0
210
0.0
220
0.0
230
1.0
  2
SOLID
 70
     1
 71
     0
 91
        2
 92
        0
 93
       12
 72
     4
 94
        3
 73
     1
 74
     0
 95
        8
 96
        4
 40
10.0
 40
10.0
 40
10.0
 40
10.0
 40
11.0
 40
11.0
 40
11.0
 40
11.0
 10
269.7527528823119
 20
53.54626417133141
 42
1.0
 10
269.3842069065273
 20
53.14695004000491
 42
1.0
 10
269.1588873324072
 20
52.55704806019009
 42
1.0
 10
269.1588873400616
 20
51.79919767770311
 42
1.0
 97
        0
 72
     4
 94
        3
 73
     1
 74
     0
 95
        8
 96
        4
 40
11.0
 40
11.0
 40
11.0
 40
11.0
 40
12.0
 40
12.0
 40
12.0
 40
12.0
 10
269.1588873400616
 20
51.79919767770311
 42
1.0
 10
269.1588873477193
 20
51.04101139840623
 42
1.0
 10
269.3842069337522
 20
50.4514453199528
 42
1.0
 10
269.7527529176072
 20
50.05172811989913
 42
1.0
 97
        0
 72
     4
 94
        3
 73
     1
 74
     0
 95
        8
 96
        4
 40
12.0
 40
12.0
 40
12.0
 40
12.0
 40
13.0
 40
13.0
 40
13.0
 40
13.0
 10
269.7527529176072
 20
50.05172811989913
 42
1.0
 10
270.1217019776297
 20
49.65241399602138
 42
1.0
 10
270.6333400005543
 20
49.4453672075692
 42
1.0
 10
271.1938845969058
 20
49.44563593067868
 42
1.0
 97
        0
 72
     1
 10
271.1938845969058
 20
49.44563593067868
 11
271.1949594666974
 21
49.44563593067868
 72
     4
 94
        3
 73
     1
 74
     0
 95
        8
 96
        4
 40
14.0
 40
14.0
 40
14.0
 40
14.0
 40
15.0
 40
15.0
 40
15.0
 40
15.0
 10
271.1949594666974
 20
49.44563593067868
 42
1.0
 10
271.7330661561506
 20
49.44563593611291
 42
1.0
 10
272.2242816489937
 20
49.63857506867777
 42
1.0
 10
272.5890655808147
 20
50.00752412835124
 42
1.0
 97
        0
 72
     1
 10
272.5890655808147
 20
50.00752412835124
 11
272.6762643972355
 21
49.55486958821616
 72
     1
 10
272.6762643972355
 20
49.55486958821616
 11
273.2284787527034
 21
49.55486958821616
 72
     1
 10
273.2284787527034
 20
49.55486958821616
 11
273.2284787527034
 21
54.04325711952716
 72
     1
 10
273.2284787527034
 20
54.04325711952716
 11
272.5521168951743
 21
54.04325711952716
 72
     1
 10
272.5521168951743
 20
54.04325711952716
 11
272.5521168951743
 21
53.62640917844642
 72
     4
 94
        3
 73
     1
 74
     0
 95
        8
 96
        4
 40
8.0
 40
8.0
 40
8.0
 40
8.0
 40
9.0
 40
9.0
 40
9.0
 40
9.0
 10
272.5521168951743
 20
53.62640917844642
 42
1.0
 10
272.1912293591284
 20
53.97231570963218
 42
1.0
 10
271.7145246047004
 20
54.1528938298174
 42
1.0
 10
271.1938845493668
 20
54.15242356902503
 42
1.0
 97
        0
 72
     4
 94
        3
 73
     1
 74
     0
 95
        8
 96
        4
 40
9.0
 40
9.0
 40
9.0
 40
9.0
 40
10.0
 40
10.0
 40
10.0
 40
10.0
 10
271.1938845493668
 20
54.15242356902503
 42
1.0
 10
270.6333399530077
 20
54.15289381889733
 42
1.0
 10
270.1217019342595
 20
53.94645163436776
 42
1.0
 10
269.7527528823119
 20
53.54626417133141
 42
1.0
 97
        0
 97
        0
 92
        0
 93
        5
 72
     4
 94
        3
 73
     1
 74
     0
 95
        8
 96
        4
 40
3.0
 40
3.0
 40
3.0
 40
3.0
 40
4.0
 40
4.0
 40
4.0
 40
4.0
 10
271.1605892956841
 20
53.52637906439517
 42
1.0
 10
271.9350329805802
 20
53.524565221705
 42
1.0
 10
272.5287641818192
 20
52.89966279663861
 42
1.0
 10
272.5327949436563
 20
51.7991976680583
 42
1.0
 97
        0
 72
     4
 94
        3
 73
     1
 74
     0
 95
        8
 96
        4
 40
4.0
 40
4.0
 40
4.0
 40
4.0
 40
5.0
 40
5.0
 40
5.0
 40
5.0
 10
272.5327949436563
 20
51.7991976680583
 42
1.0
 10
272.5287641820568
 20
50.6897976843339
 42
1.0
 10
271.9355704158469
 20
50.07403165236909
 42
1.0
 10
271.1605892960555
 20
50.07188191270246
 42
1.0
 97
        0
 72
     4
 94
        3
 73
     1
 74
     0
 95
        8
 96
        4
 40
0.0
 40
0.0
 40
0.0
 40
0.0
 40
1.0
 40
1.0
 40
1.0
 40
1.0
 10
271.1605892960555
 20
50.07188191270246
 42
1.0
 10
270.3854738175397
 20
50.07403165220246
 42
1.0
 10
269.7921456924734
 20
50.68979768403972
 42
1.0
 10
269.7885180068072
 20
51.79919766776329
 42
1.0
 97
        0
 72
     1
 10
269.7885180068072
 20
51.79919766776329
 11
269.7882492893593
 21
51.79919766776327
 72
     4
 94
        3
 73
     1
 74
     0
 95
        8
 96
        4
 40
2.0
 40
2.0
 40
2.0
 40
2.0
 40
3.0
 40
3.0
 40
3.0
 40
3.0
 10
269.7882492893593
 20
51.79919766776327
 42
1.0
 10
269.7921456922359
 20
52.89966279634443
 42
1.0
 10
270.3860112520646
 20
53.52456522153849
 42
1.0
 10
271.1605892956841
 20
53.52637906439517
 42
1.0
 97
        0
 97
        0
 75
     0
 76
     1
 98
        1
 10
0.0
 20
0.0
  0
ENDBLK
  5
7A
330
78
100
AcDbEntity
  8
0
100
AcDbBlockEnd
  0
ENDSEC
  0
SECTION
  2
ENTITIES
  0
LINE
  5
134
330
1F
100
AcDbEntity
  8
0
  6
SLD-Durchgehend
 62
     7
370
    25
100
AcDbLine
 10
110.2101125124
 20
190.3708609262
 30
0.0
 11
110.1747571733
 21
190.391271129
 31
0.0
  0
SPLINE
  5
135
330
1F
100
AcDbEntity
  8
0
  6
SLD-Durchgehend
 62
     7
370
    25
100
AcDbSpline
210
0.0
220
0.0
230
1.0
 70
     8
 71
     3
 72
    29
 73
    25
 74
     0
 42
0.00000001
 43
0.00000001
 40
0.0
 40
0.0
 40
0.0
 40
0.0
 40
0.0144525221407359
 40
0.0632491332494505
 40
0.1121305005240432
 40
0.1611007142014909
 40
0.2101557198380729
 40
0.2592856998894515
 40
0.3084776741402959
 40
0.3577177503400499
 40
0.4069927422889432
 40
0.4562911224303836
 40
0.5056034264512377
 40
0.5549222801981535
 40
0.6042413069808941
 40
0.6535565592895602
 40
0.702865839223934
 40
0.7521678700662454
 40
0.801462065342267
 40
0.8507483439900857
 40
0.9000269873200739
 40
0.9492985312301097
 40
0.998563686816116
 40
0.9999999999999999
 40
0.9999999999999999
 40
0.9999999999999999
 40
0.9999999999999999
 10
104.004975067419
 20
151.1444123404904
 30
0.0
 10
104.0667719959353
 20
151.1297192898585
 30
0.0
 10
104.337216291268
 20
151.0654175224431
 30
0.0
 10
104.838586980099
 20
151.0040924498526
 30
0.0
 10
105.507476588261
 20
150.9619033146099
 30
0.0
 10
106.1965661755402
 20
150.976114272334
 30
0.0
 10
106.9018044159474
 20
151.0418536632461
 30
0.0
 10
107.6216932215634
 20
151.1603224487551
 30
0.0
 10
108.3539483830478
 20
151.3308615874909
 30
0.0
 10
109.0964282740118
 20
151.553078736889
 30
0.0
 10
109.8469138372854
 20
151.826283110183
 30
0.0
 10
110.6031910211938
 20
152.14964937155
 30
0.0
 10
111.3630451524336
 20
152.5221879659308
 30
0.0
 10
112.1242682728374
 20
152.9427645811319
 30
0.0
 10
112.8846671000499
 20
153.4101066844544
 30
0.0
 10
113.6420670794064
 20
153.9228159882059
 30
0.0
 10
114.3943255399437
 20
154.4793686986353
 30
0.0
 10
115.1393048562257
 20
155.0781552892441
 30
0.0
 10
115.8749648868323
 20
155.7173463587797
 30
0.0
 10
116.5990228677203
 20
156.395407056656
 30
0.0
 10
117.3102404227029
 20
157.1091979834029
 30
0.0
 10
118.003641717204
 20
157.8610821775258
 30
0.0
 10
118.46681390719
 20
158.3828402135008
 30
0.0
 10
118.692541172407
 20
158.6613658374528
 30
0.0
 10
118.6989357612594
 20
158.669256141924
 30
0.0
  0
SPLINE
  5
136
330
1F
100
AcDbEntity
  8
0
  6
SLD-Durchgehend
 62
     7
370
    25
100
AcDbSpline
210
0.0
220
0.0
230
1.0
 70
     8
 71
     3
 72
    29
 73
    25
 74
     0
 42
0.00000001
 43
0.00000001
 40
0.0
 40
0.0
 40
0.0
 40
0.0
 40
0.0009399632769941
 40
0.049873672682126
 40
0.0988134980997879
 40
0.1477603882133801
 40
0.1967152214058298
 40
0.245678764640433
 40
0.2946516150207966
 40
0.3436341185446206
 40
0.3926262595102127
 40
0.4416275132939682
 40
0.4906366553748389
 40
0.5396515215606176
 40
0.588668185967575
 40
0.6376802190694977
 40
0.6866801247074679
 40
0.7356582092354751
 40
0.7846025716912471
 40
0.8334994745406004
 40
0.8823342778245422
 40
0.9310930711825479
 40
0.9797649840016496
 40
0.9999999999999999
 40
0.9999999999999999
 40
0.9999999999999999
 40
0.9999999999999999
 10
124.4734658893743
 20
168.6716958057112
 30
0.0
 10
124.4758620492331
 20
168.6779434890552
 30
0.0
 10
124.603000306034
 20
169.0094403908431
 30
0.0
 10
124.8222191250317
 20
169.668185450648
 30
0.0
 10
125.1270034233542
 20
170.6446152131598
 30
0.0
 10
125.389829928439
 20
171.6174620255081
 30
0.0
 10
125.6153278731867
 20
172.5835960235649
 30
0.0
 10
125.801372451937
 20
173.5403873309024
 30
0.0
 10
125.9477814398117
 20
174.4851036024483
 30
0.0
 10
126.0539857105034
 20
175.4150797175305
 30
0.0
 10
126.1196546808439
 20
176.3276798337275
 30
0.0
 10
126.1445297344069
 20
177.2203142477829
 30
0.0
 10
126.1284702029786
 20
178.0904406764613
 30
0.0
 10
126.0714430688948
 20
178.9355654944575
 30
0.0
 10
125.9735306512487
 20
179.7532422850268
 30
0.0
 10
125.8349336407676
 20
180.5410785259317
 30
0.0
 10
125.6559832011553
 20
181.2967498586483
 30
0.0
 10
125.4371250602494
 20
182.0179800768389
 30
0.0
 10
125.1790113996028
 20
182.7026541960804
 30
0.0
 10
124.8822036860663
 20
183.3484234243492
 30
0.0
 10
124.548319752397
 20
183.9542451420927
 30
0.0
 10
124.1757851732045
 20
184.5147409248769
 30
0.0
 10
123.8533222862355
 20
184.9390940337749
 30
0.0
 10
123.6431824017867
 20
185.1597112737521
 30
0.0
 10
123.5814733110365
 20
185.2244971154237
 30
0.0
  0
LINE
  5
137
330
1F
100
AcDbEntity
  8
0
  6
SLD-Durchgehend
 62
     7
370
    25
100
AcDbLine
 10
98.5646411114
 20
153.8673107753
 30
0.0
 11
101.923398322
 21
151.9283415097
 31
0.0
  0
LINE
  5
138
330
1F
100
AcDbEntity
  8
0
  6
SLD-Durchgehend
 62
     7
370
    25
100
AcDbLine
 10
121.9217729747
 20
186.5702960049
 30
0.0
 11
118.5630157641
 21
188.5092652705
 31
0.0
  0
LINE
  5
139
330
1F
100
AcDbEntity
  8
0
  6
SLD-Durchgehend
 62
     7
370
    25
100
AcDbLine
 10
120.9388809107
 20
159.1866940285
 30
0.0
 11
121.2923768389
 21
159.3908292288
 31
0.0
  0
LINE
  5
13A
330
1F
100
AcDbEntity
  8
0
  6
SLD-Durchgehend
 62
     7
370
    25
100
AcDbLine
 10
125.1454824565
 20
166.0653271212
 30
0.0
 11
125.1454824565
 21
166.4735311771
 31
0.0
  0
LINE
  5
13B
330
1F
100
AcDbEntity
  8
0
  6
SLD-Durchgehend
 62
     7
370
    25
100
AcDbLine
 10
113.8975748871
 20
161.2388996348
 30
0.0
 11
117.9634388789
 21
158.8917263133
 31
0.0
  0
LINE
  5
13C
330
1F
100
AcDbEntity
  8
0
  6
SLD-Durchgehend
 62
     7
370
    25
100
AcDbLine
 10
109.2660254703
 20
163.912636201
 30
0.0
 11
111.1398584404
 21
162.8308954528
 31
0.0
  0
LINE
  5
13D
330
1F
100
AcDbEntity
  8
0
  6
SLD-Durchgehend
 62
     7
370
    25
100
AcDbLine
 10
123.9129553381
 20
169.1977077756
 30
0.0
 11
115.2155419295
 21
174.2186176633
 31
0.0
  0
LWPOLYLINE
  5
13E
330
1F
100
AcDbEntity
  8
0
  6
SLD-Durchgehend
 62
     7
370
    25
100
AcDbPolyline
 90
       25
 70
   128
 43
0.0
 10
105.3818479224
 20
185.273849253
 10
105.4060455085
 20
185.714138074
 10
105.4782242396
 20
186.1748313695
 10
105.5971491174
 20
186.6480465495
 10
105.7607853043
 20
187.1256867711
 10
105.9663329399
 20
187.5995794775
 10
106.2102750471
 20
188.0616162333
 10
106.4884377088
 20
188.5038914614
 10
106.7960614847
 20
188.9188377101
 10
107.1278828468
 20
189.299355134
 10
107.4782242396
 20
189.6389329745
 10
107.8410912246
 20
189.9317609606
 10
108.2102750471
 20
190.1728287242
 10
108.5794588697
 20
190.3580115291
 10
108.9423258547
 20
190.4841408462
 10
109.2926672474
 20
190.5490585678
 10
109.6244886095
 20
190.5516539338
 10
109.9321123854
 20
190.4918825367
 10
110.2102750471
 20
190.3707670816
 10
110.4542171543
 20
190.1903798877
 10
110.6597647899
 20
189.9538074298
 10
110.8234009769
 20
189.6650975283
 10
110.9423258547
 20
189.3291900896
 10
111.0145045857
 20
188.951832583
 10
111.0354327231
 20
188.6945915649
  0
LWPOLYLINE
  5
13F
330
1F
100
AcDbEntity
  8
0
  6
SLD-Durchgehend
 62
     7
370
    25
100
AcDbPolyline
 90
       19
 70
   128
 43
0.0
 10
105.3464925833
 20
185.2942594558
 10
105.3706901695
 20
185.7345482768
 10
105.4428689005
 20
186.1952415723
 10
105.5617937783
 20
186.6684567523
 10
105.7254299653
 20
187.1460969739
 10
105.9309776009
 20
187.6199896803
 10
106.1749197081
 20
188.0820264361
 10
106.4530823698
 20
188.5243016642
 10
106.7607061457
 20
188.9392479129
 10
107.0925275078
 20
189.3197653368
 10
107.4428689005
 20
189.6593431773
 10
107.8057358855
 20
189.9521711634
 10
108.1749197081
 20
190.193238927
 10
108.5441035306
 20
190.3784217319
 10
108.9069705156
 20
190.504551049
 10
109.2573119084
 20
190.5694687706
 10
109.5891332704
 20
190.5720641366
 10
109.8967570464
 20
190.5122927395
 10
110.1747571733
 20
190.391271129
  0
LINE
  5
140
330
1F
100
AcDbEntity
  8
0
  6
SLD-Durchgehend
 62
     7
370
    25
100
AcDbLine
 10
105.3818479224
 20
185.2634436875
 30
0.0
 11
105.3818479224
 21
185.273849253
 31
0.0
  0
LINE
  5
141
330
1F
100
AcDbEntity
  8
0
  6
SLD-Durchgehend
 62
     7
370
    25
100
AcDbLine
 10
105.3464925833
 20
185.2335504569
 30
0.0
 11
105.3464925833
 21
185.2942594558
 31
0.0
  0
ARC
  5
142
330
1F
100
AcDbEntity
  8
0
  6
SLD-Durchgehend
 62
     7
370
    25
100
AcDbCircle
 10
118.518877735
 20
180.6760630864
 30
0.0
 40
6.804575500303489
100
AcDbArc
 50
42.3624266699
 51
77.9278284012
  0
ARC
  5
143
330
1F
100
AcDbEntity
  8
0
  6
SLD-Durchgehend
 62
     7
370
    25
100
AcDbCircle
 10
105.3272186842
 20
157.8233775131
 30
0.0
 40
6.805755117271032
100
AcDbArc
 50
222.4773643999
 51
258.3620593679
  0
LWPOLYLINE
  5
144
330
1F
100
AcDbEntity
  8
0
  6
SLD-Durchgehend
 62
     7
370
    25
100
AcDbPolyline
 90
       43
 70
   128
 43
0.0
 10
94.421692814
 20
163.0242069047
 10
94.4443435759
 20
163.9611996431
 10
94.5122233046
 20
164.9213429243
 10
94.6251145607
 20
165.9015611201
 10
94.7826557195
 20
166.8987142959
 10
94.9843421292
 20
167.9096082696
 10
95.2295277274
 20
168.931004843
 10
95.5174271108
 20
169.9596321749
 10
95.8471180508
 20
170.9921952619
 10
96.217544448
 20
172.0253864932
 10
96.6275197148
 20
173.0558962456
 10
97.075730577
 20
174.0804234859
 10
97.56074128
 20
175.0956863444
 10
98.0809981884
 20
176.0984326281
 10
98.6348347623
 20
177.0854502384
 10
99.2204768964
 20
178.0535774602
 10
99.8360486022
 20
178.9997130902
 10
100.479578018
 20
179.9208263708
 10
101.1490037251
 20
180.8139666984
 10
101.8421813512
 20
181.6762730753
 10
102.5568904393
 20
182.5049832743
 10
103.2908415608
 20
183.2974426866
 10
104.0416836489
 20
184.0511128259
 10
104.80701153
 20
184.7635794596
 10
105.5843736283
 20
185.4325603422
 10
106.3712798186
 20
186.0559125262
 10
107.1652094031
 20
186.6316392268
 10
107.9636191861
 20
187.1578962176
 10
108.7639516202
 20
187.632997739
 10
109.5636429994
 20
188.0554218974
 10
110.3601316712
 20
188.4238155411
 10
111.1508662422
 20
188.736998594
 10
111.9333137511
 20
188.9939678365
 10
112.7049677828
 20
189.1939001185
 10
113.4633564967
 20
189.3361549967
 10
114.2060505452
 20
189.420276786
 10
114.9306708552
 20
189.4459960187
 10
115.6348962496
 20
189.4132303084
 10
116.316470882
 20
189.3220846136
 10
116.9732114634
 20
189.1728509015
 10
117.6030142557
 20
188.9660072126
 10
118.2038618108
 20
188.7022161295
 10
118.5630157641
 20
188.5092652705
  0
LWPOLYLINE
  5
145
330
1F
100
AcDbEntity
  8
0
  6
SLD-Durchgehend
 62
     7
370
    25
100
AcDbPolyline
 90
       15
 70
   128
 43
0.0
 10
98.5646411114
 20
153.8673107753
 10
98.0809981884
 20
154.174925236
 10
97.56074128
 20
154.5769956791
 10
97.075730577
 20
155.0322770994
 10
96.6275197148
 20
155.5393110934
 10
96.217544448
 20
156.0964734782
 10
95.8471180508
 20
156.7019794948
 10
95.5174271108
 20
157.353889525
 10
95.2295277274
 20
158.0501153042
 10
94.9843421292
 20
158.7884266115
 10
94.7826557195
 20
159.5664584131
 10
94.6251145607
 20
160.3817184387
 10
94.5122233046
 20
161.2315951646
 10
94.4443435759
 20
162.1133661793
 10
94.421692814
 20
163.0242069047
  0
LWPOLYLINE
  5
146
330
1F
100
AcDbEntity
  8
0
  6
SLD-Durchgehend
 62
     7
370
    25
100
AcDbPolyline
 90
       22
 70
   128
 43
0.0
 10
108.8796924295
 20
162.9582302759
 10
108.8561313518
 20
163.1251384774
 10
108.7875416238
 20
163.2500131113
 10
108.6800177438
 20
163.3217585186
 10
108.5431136805
 20
163.3339998048
 10
108.3889939606
 20
163.2856492781
 10
108.2313527976
 20
163.1810030949
 10
108.0841973007
 20
163.0293595278
 10
107.9606028815
 20
162.8441927732
 10
107.8715514465
 20
162.6419557099
 10
107.8249556066
 20
162.4406179884
 10
107.8249556066
 20
162.2580693488
 10
107.8715514465
 20
162.110530039
 10
107.9606028815
 20
162.0111095739
 10
108.0841973007
 20
161.9686418983
 10
108.2313527976
 20
161.9869004515
 10
108.3889939606
 20
162.0642628809
 10
108.5431136805
 20
162.1938551951
 10
108.6800177438
 20
162.3641625484
 10
108.7875416238
 20
162.560052385
 10
108.8561313518
 20
162.7641190332
 10
108.8796924295
 20
162.9582302759
  0
LWPOLYLINE
  5
147
330
1F
100
AcDbEntity
  8
0
  6
SLD-Durchgehend
 62
     7
370
    25
100
AcDbPolyline
 90
       27
 70
   128
 43
0.0
 10
107.7506556393
 20
166.6368127995
 10
107.7737043258
 20
167.1664573969
 10
107.8426060633
 20
167.7170990768
 10
107.9566304764
 20
168.2829009003
 10
108.1145688778
 20
168.8578652274
 10
108.3147470813
 20
169.4358972931
 10
108.5550431481
 20
170.0108698138
 10
108.8329098801
 20
170.5766879378
 10
109.1454018207
 20
171.127353852
 10
109.4892064778
 20
171.657030361
 10
109.8606794364
 20
172.1601027618
 10
110.2558829907
 20
172.6312383619
 10
110.6706278848
 20
173.0654430068
 10
111.1005177195
 20
173.4581140191
 10
111.5409955558
 20
173.8050889885
 10
111.9873922189
 20
174.102689894
 10
112.4349757932
 20
174.3477620919
 10
112.8790017814
 20
174.537707756
 10
113.3147633977
 20
174.670513415
 10
113.7376414604
 20
174.7447712958
 10
114.1431533569
 20
174.7596942465
 10
114.5270005603
 20
174.71512408
 10
114.8851141946
 20
174.6115332512
 10
115.2136981663
 20
174.4500198488
 10
115.5092694035
 20
174.2322959548
 10
115.7686947776
 20
173.9606694968
 10
115.8520012386
 20
173.8511975249
  0
ARC
  5
148
330
1F
100
AcDbEntity
  8
0
  6
SLD-Durchgehend
 62
     7
370
    25
100
AcDbCircle
 10
110.4452465515
 20
166.217653905
 30
0.0
 40
2.72699731624911
100
AcDbArc
 50
171.1581790427
 51
258.5195974719
  0
LWPOLYLINE
  5
149
330
1F
100
AcDbEntity
  8
0
  6
SLD-Durchgehend
 62
     7
370
    25
100
AcDbPolyline
 90
       32
 70
   128
 43
0.0
 10
116.7309117604
 20
161.6159029118
 10
116.7539597098
 20
162.1370511595
 10
116.8228510397
 20
162.6791001938
 10
116.9368309623
 20
163.2361112122
 10
117.0946506898
 20
163.8019814852
 10
117.2945811161
 20
164.3705112198
 10
117.5344317617
 20
164.9354714853
 10
117.8115747728
 20
165.4906724587
 10
118.1229737124
 20
166.030031242
 10
118.4652168287
 20
166.5476385075
 10
118.8345544344
 20
167.0378232417
 10
119.2269399895
 20
167.495214878
 10
119.6380744357
 20
167.9148021381
 10
120.063453298
 20
168.2919879359
 10
120.4984160365
 20
168.6226397451
 10
120.9381971085
 20
168.9031348752
 10
121.3779781804
 20
169.1304001628
 10
121.8129409189
 20
169.3019456419
 10
122.2383197812
 20
169.4158918244
 10
122.6494542274
 20
169.470990292
 10
123.0418397825
 20
169.4666373744
 10
123.4111773883
 20
169.402880763
 10
123.7534205046
 20
169.2804189887
 10
124.0648194442
 20
169.1005937682
 10
124.3419624552
 20
168.8653753043
 10
124.5818131009
 20
168.5773406998
 10
124.7817435272
 20
168.2396457219
 10
124.9395632547
 20
167.8559902277
 10
125.0535431773
 20
167.4305776268
 10
125.1224345072
 20
166.9680688289
 10
125.1454824565
 20
166.4735311771
 10
125.1454824565
 20
166.4735311771
  0
ARC
  5
14A
330
1F
100
AcDbEntity
  8
0
  6
SLD-Durchgehend
 62
     7
370
    25
100
AcDbCircle
 10
119.3040273599
 20
161.2139452917
 30
0.0
 40
2.60432214149726
100
AcDbArc
 50
171.1213339234
 51
308.8840426093
  0
LWPOLYLINE
  5
14B
330
1F
100
AcDbEntity
  8
0
  6
SLD-Durchgehend
 62
     7
370
    25
100
AcDbPolyline
 90
       59
 70
   128
 43
0.0
 10
117.4380185416
 20
161.6159029118
 10
117.4606092835
 20
161.147798698
 10
117.5281166532
 20
160.7112652936
 10
117.6397491887
 20
160.3114206534
 10
117.7941981005
 20
159.9529525904
 10
117.9896526163
 20
159.6400638148
 10
118.2238212106
 20
159.3764226614
 10
118.4939584709
 20
159.1651200818
 10
118.7968972846
 20
159.0086334054
 10
119.1290859712
 20
158.9087972955
 10
119.486629922
 20
158.8667822392
 10
119.8653372612
 20
158.8830808245
 10
120.2607679914
 20
158.9575019655
 10
120.6682860488
 20
159.0891731424
 10
121.0831136569
 20
159.276550631
 10
121.5003873412
 20
159.5174376015
 10
121.9152149493
 20
159.8090098745
 10
122.3227330068
 20
160.1478490317
 10
122.718163737
 20
160.5299824937
 10
123.0968710761
 20
160.9509300951
 10
123.454415027
 20
161.4057566101
 10
123.7866037136
 20
161.8891296138
 10
124.0895425273
 20
162.3953819995
 10
124.3596797875
 20
162.918578421
 10
124.5938483819
 20
163.4525848785
 10
124.7893028977
 20
163.9911406346
 10
124.9437518095
 20
164.5279316154
 10
125.0553843449
 20
165.0566644376
 10
125.1228917147
 20
165.5711401921
 10
125.1454824565
 20
166.0653271212
 10
125.1228917147
 20
166.5334313349
 10
125.0553843449
 20
166.9699647394
 10
124.9437518095
 20
167.3698093795
 10
124.7893028977
 20
167.7282774426
 10
124.5938483819
 20
168.0411662182
 10
124.3596797875
 20
168.3048073715
 10
124.0895425273
 20
168.5161099512
 10
123.7866037136
 20
168.6725966276
 10
123.454415027
 20
168.7724327375
 10
123.0968710761
 20
168.8144477938
 10
122.718163737
 20
168.7981492085
 10
122.3227330068
 20
168.7237280674
 10
121.9152149493
 20
168.5920568905
 10
121.5003873412
 20
168.404679402
 10
121.0831136569
 20
168.1637924314
 10
120.6682860488
 20
167.8722201584
 10
120.2607679914
 20
167.5333810013
 10
119.8653372612
 20
167.1512475393
 10
119.486629922
 20
166.7302999379
 10
119.1290859712
 20
166.2754734228
 10
118.7968972846
 20
165.7921004192
 10
118.4939584709
 20
165.2858480335
 10
118.2238212106
 20
164.762651612
 10
117.9896526163
 20
164.2286451545
 10
117.7941981005
 20
163.6900893984
 10
117.6397491887
 20
163.1532984175
 10
117.5281166532
 20
162.6245655954
 10
117.4606092835
 20
162.1100898409
 10
117.4380185416
 20
161.6159029118
  0
ARC
  5
14C
330
1F
100
AcDbEntity
  8
0
  6
SLD-Durchgehend
 62
     7
370
    25
100
AcDbCircle
 10
110.9778757566
 20
166.3280568911
 30
0.0
 40
2.960521662278299
100
AcDbArc
 50
174.0136776181
 51
234.6741419885
  0
LWPOLYLINE
  5
14D
330
1F
100
AcDbEntity
  8
0
  6
SLD-Durchgehend
 62
     7
370
    25
100
AcDbPolyline
 90
       24
 70
   128
 43
0.0
 10
115.2155419295
 20
174.2186176633
 10
115.056007096
 20
174.3013288764
 10
114.7137639797
 20
174.4237906507
 10
114.3444263739
 20
174.4875472621
 10
113.9520408188
 20
174.4919001797
 10
113.5409063726
 20
174.4368017121
 10
113.1155275104
 20
174.3228555296
 10
112.6805647718
 20
174.1513100505
 10
112.2407836999
 20
173.9240447629
 10
111.8010026279
 20
173.6435496328
 10
111.3660398894
 20
173.3128978236
 10
110.9406610271
 20
172.9357120258
 10
110.529526581
 20
172.5161247658
 10
110.1371410259
 20
172.0587331294
 10
109.7678034201
 20
171.5685483952
 10
109.4255603038
 20
171.0509411297
 10
109.1141613642
 20
170.5115823464
 10
108.8370183531
 20
169.956381373
 10
108.5971677075
 20
169.3914211075
 10
108.3972372812
 20
168.8228913729
 10
108.2394175537
 20
168.2570210999
 10
108.1254376311
 20
167.7000100815
 10
108.0565463012
 20
167.1579610472
 10
108.0334983518
 20
166.6368127995
  0
LINE
  5
14E
330
1F
100
AcDbEntity
  8
0
  6
SLD-Durchgehend
 62
     7
370
    25
100
AcDbLine
 10
110.4710006776
 20
163.4512625287
 30
0.0
 11
113.2287171243
 21
161.8592667106
 31
0.0
  0
ARC
  5
14F
330
1F
100
AcDbEntity
  8
0
  6
SLD-Durchgehend
 62
     7
370
    25
100
AcDbCircle
 10
112.1811382745
 20
164.6346404699
 30
0.0
 40
2.079652363318799
100
AcDbArc
 50
214.6823898026
 51
265.3229867301
  0
ARC
  5
150
330
1F
100
AcDbEntity
  8
0
  6
SLD-Durchgehend
 62
     7
370
    25
100
AcDbCircle
 10
114.9510944919
 20
163.0455199688
 30
0.0
 40
2.091358551104326
100
AcDbArc
 50
214.556357036
 51
239.7516621582
  0
LWPOLYLINE
  5
151
330
1F
100
AcDbEntity
  8
0
  6
SLD-Durchgehend
 62
     7
370
    25
100
AcDbPolyline
 90
       37
 70
   128
 43
0.0
 10
119.7361155805
 20
165.3921885291
 10
119.7597491704
 20
165.7177717229
 10
119.8299318454
 20
166.0607489982
 10
119.9445311405
 20
166.4106991641
 10
120.1000650141
 20
166.7569891617
 10
120.2918076482
 20
167.0890971449
 10
120.5139330398
 20
167.3969321805
 10
120.7596920212
 20
167.6711408569
 10
121.0216173303
 20
167.903391482
 10
121.2917504991
 20
168.0866272383
 10
121.5618836678
 20
168.2152805999
 10
121.8238089769
 20
168.2854424996
 10
122.0695679584
 20
168.2949811035
 10
122.29169335
 20
168.2436065861
 10
122.483435984
 20
168.132879936
 10
122.6389698576
 20
167.9661655264
 10
122.7535691527
 20
167.7485288903
 10
122.8237518278
 20
167.4865828068
 10
122.8473854177
 20
167.1882863751
 10
122.8237518278
 20
166.8627031814
 10
122.7535691527
 20
166.5197259061
 10
122.6389698576
 20
166.1697757402
 10
122.483435984
 20
165.8234857426
 10
122.29169335
 20
165.4913777594
 10
122.0695679584
 20
165.1835427237
 10
121.8238089769
 20
164.9093340474
 10
121.5618836678
 20
164.6770834222
 10
121.2917504991
 20
164.493847666
 10
121.0216173303
 20
164.3651943044
 10
120.7596920212
 20
164.2950324047
 10
120.5139330398
 20
164.2854938007
 10
120.2918076482
 20
164.3368683182
 10
120.1000650141
 20
164.4475949683
 10
119.9445311405
 20
164.6143093779
 10
119.8299318454
 20
164.831946014
 10
119.7597491704
 20
165.0938920974
 10
119.7361155805
 20
165.3921885291
  0
LINE
  5
152
330
1F
100
AcDbEntity
  8
0
  6
SLD-Durchgehend
 62
     7
370
    25
100
AcDbLine
 10
120.4078670226
 20
161.9422405664
 30
0.0
 11
120.9381971085
 21
162.2483936083
 31
0.0
  0
LINE
  5
153
330
1F
100
AcDbEntity
  8
0
  6
SLD-Durchgehend
 62
     7
370
    25
100
AcDbLine
 10
120.9381971085
 20
162.2483936083
 30
0.0
 11
120.9381971085
 21
159.5538089291
 31
0.0
  0
LINE
  5
154
330
1F
100
AcDbEntity
  8
0
  6
SLD-Durchgehend
 62
     7
370
    25
100
AcDbLine
 10
120.9381971085
 20
159.5538089291
 30
0.0
 11
121.6453038897
 21
159.962012985
 31
0.0
  0
LINE
  5
155
330
1F
100
AcDbEntity
  8
0
  6
SLD-Durchgehend
 62
     7
370
    25
100
AcDbLine
 10
121.6453038897
 20
159.962012985
 30
0.0
 11
121.6453038897
 21
162.6565976642
 31
0.0
  0
LINE
  5
156
330
1F
100
AcDbEntity
  8
0
  6
SLD-Durchgehend
 62
     7
370
    25
100
AcDbLine
 10
121.6453038897
 20
162.6565976642
 30
0.0
 11
122.1756339756
 21
162.9627507062
 31
0.0
  0
LINE
  5
157
330
1F
100
AcDbEntity
  8
0
  6
SLD-Durchgehend
 62
     7
370
    25
100
AcDbLine
 10
122.1756339756
 20
162.9627507062
 30
0.0
 11
121.2917504991
 21
163.8406150165
 31
0.0
  0
LINE
  5
158
330
1F
100
AcDbEntity
  8
0
  6
SLD-Durchgehend
 62
     7
370
    25
100
AcDbLine
 10
121.2917504991
 20
163.8406150165
 30
0.0
 11
120.4078670226
 21
161.9422405664
 31
0.0
  0
LWPOLYLINE
  5
159
330
1F
100
AcDbEntity
  8
0
  6
SLD-Durchgehend
 62
     7
370
    25
100
AcDbPolyline
 90
       25
 70
   128
 43
0.0
 10
119.7475383817
 20
165.6160775732
 10
119.75921324
 20
165.5429179232
 10
119.8276185883
 20
165.3220058582
 10
119.9387028464
 20
165.1461459168
 10
120.0881971085
 20
165.022096298
 10
120.2703563938
 20
164.954624159
 10
120.4781804234
 20
164.9463224164
 10
120.7036826361
 20
164.9975101013
 10
120.9381971085
 20
165.1062200999
 10
121.1727115809
 20
165.2682747478
 10
121.3982137936
 20
165.4774463757
 10
121.6060378231
 20
165.7256966354
 10
121.7881971085
 20
166.0034854085
 10
121.9376913705
 20
166.3001374284
 10
122.0487756286
 20
166.6042525241
 10
122.117180977
 20
166.9041437233
 10
122.1402786365
 20
167.1882863751
 10
122.117180977
 20
167.445761037
 10
122.0487756286
 20
167.666673102
 10
121.9376913705
 20
167.8425330434
 10
121.7881971085
 20
167.9665826622
 10
121.6060378231
 20
168.0340548012
 10
121.3982137936
 20
168.0423565438
 10
121.1727115809
 20
167.9911688589
 10
121.1033268993
 20
167.9646266401
  0
LINE
  5
15A
330
1F
100
AcDbEntity
  8
0
  6
SLD-Durchgehend
 62
     7
370
    25
100
AcDbLine
 10
121.5038825334
 20
162.7382384754
 30
0.0
 11
122.0342126193
 21
163.0443915173
 31
0.0
  0
LINE
  5
15B
330
1F
100
AcDbEntity
  8
0
  6
SLD-Durchgehend
 62
     7
370
    25
100
AcDbLine
 10
121.5038825334
 20
160.0436537962
 30
0.0
 11
121.5038825334
 21
162.7382384754
 31
0.0
  0
LINE
  5
15C
330
1F
100
AcDbEntity
  8
0
  6
SLD-Durchgehend
 62
     7
370
    25
100
AcDbLine
 10
120.9381971085
 20
159.7170905515
 30
0.0
 11
121.5038825334
 21
160.0436537962
 31
0.0
  0
LINE
  5
15D
330
1F
100
AcDbEntity
  8
0
  6
SLD-Durchgehend
 62
     7
370
    25
100
AcDbLine
 10
120.5118364146
 20
162.1655424412
 30
0.0
 11
120.7967757522
 21
162.3300344195
 31
0.0
  0
LINE
  5
15E
330
1F
100
AcDbEntity
  8
0
  6
SLD-Durchgehend
 62
     7
370
    25
100
AcDbLine
 10
122.0342126193
 20
163.0443915173
 30
0.0
 11
121.273024517
 21
163.8003959979
 31
0.0
  0
LINE
  5
15F
330
1F
100
AcDbEntity
  8
0
  6
SLD-Durchgehend
 62
     7
370
    25
100
AcDbLine
 10
122.0342126193
 20
163.0443915173
 30
0.0
 11
122.1756339756
 21
162.9627507062
 31
0.0
  0
LINE
  5
160
330
1F
100
AcDbEntity
  8
0
  6
SLD-Durchgehend
 62
     7
370
    25
100
AcDbLine
 10
120.7967757522
 20
162.3300344195
 30
0.0
 11
120.9381971085
 21
162.2483936083
 31
0.0
  0
LINE
  5
161
330
1F
100
AcDbEntity
  8
0
  6
SLD-Durchgehend
 62
     7
370
    25
100
AcDbLine
 10
121.5038825334
 20
160.0436537962
 30
0.0
 11
121.6453038897
 21
159.962012985
 31
0.0
  0
LINE
  5
162
330
1F
100
AcDbEntity
  8
0
  6
SLD-Durchgehend
 62
     7
370
    25
100
AcDbLine
 10
121.5038825334
 20
162.7382384754
 30
0.0
 11
121.6453038897
 21
162.6565976642
 31
0.0
  0
LINE
  5
163
330
1F
100
AcDbEntity
  8
0
  6
SLD-Durchgehend
 62
     8
370
    18
100
AcDbLine
 10
105.3464925833
 20
185.2942594558
 30
0.0
 11
105.3818479224
 21
185.273849253
 31
0.0
  0
LWPOLYLINE
  5
164
330
1F
100
AcDbEntity
  8
0
  6
SLD-Durchgehend
 62
     8
370
    18
100
AcDbPolyline
 90
       40
 70
   128
 43
0.0
 10
97.7804500246
 20
161.0852376391
 10
97.8031007866
 20
162.0222303775
 10
97.8709805152
 20
162.9823736588
 10
97.9838717713
 20
163.9625918545
 10
98.1414129301
 20
164.9597450304
 10
98.3430993398
 20
165.970639004
 10
98.5882849381
 20
166.9920355774
 10
98.8761843215
 20
168.0206629093
 10
99.2058752615
 20
169.0532259963
 10
99.5763016586
 20
170.0864172276
 10
99.9862769254
 20
171.1169269801
 10
100.4344877876
 20
172.1414542204
 10
100.9194984907
 20
173.1567170789
 10
101.439755399
 20
174.1594633626
 10
101.993591973
 20
175.1464809728
 10
102.579234107
 20
176.1146081946
 10
103.1948058128
 20
177.0607438246
 10
103.8383352286
 20
177.9818571052
 10
104.5077609358
 20
178.8749974329
 10
105.2009385618
 20
179.7373038098
 10
105.9156476499
 20
180.5660140087
 10
106.6495987714
 20
181.358473421
 10
107.4004408595
 20
182.1121435604
 10
108.1657687407
 20
182.824610194
 10
108.943130839
 20
183.4935910766
 10
109.7300370293
 20
184.1169432607
 10
110.5239666138
 20
184.6926699612
 10
111.3223763967
 20
185.218926952
 10
112.1227088308
 20
185.6940284734
 10
112.9224002101
 20
186.1164526319
 10
113.7188888818
 20
186.4848462755
 10
114.5096234528
 20
186.7980293284
 10
115.2920709618
 20
187.0549985709
 10
116.0637249935
 20
187.2549308529
 10
116.8221137074
 20
187.3971857312
 10
117.5648077558
 20
187.4813075204
 10
118.2894280659
 20
187.5070267531
 10
118.9936534602
 20
187.4742610428
 10
119.6752280926
 20
187.3831153481
 10
119.9420113666
 20
187.3301549407
  0
ARC
  5
165
330
1F
100
AcDbEntity
  8
0
  6
SLD-Durchgehend
 62
     8
370
    18
100
AcDbCircle
 10
109.3682329957
 20
160.4768142843
 30
0.0
 40
11.60374479047688
100
AcDbArc
 50
176.9944113699
 51
218.6633094992
  0
LWPOLYLINE
  5
166
330
1F
100
AcDbEntity
  8
0
  6
SLD-Durchgehend
 62
     8
370
    18
100
AcDbPolyline
 90
       38
 70
   128
 43
0.0
 10
98.1340034152
 20
161.0852376391
 10
98.1567794643
 20
160.1777329289
 10
98.2250333207
 20
159.2994849769
 10
98.3385423545
 20
158.4533584455
 10
98.496936323
 20
157.6421132234
 10
98.6996985778
 20
156.868395424
 10
98.9461677507
 20
156.1347287538
 10
99.2355399104
 20
155.4435062812
 10
99.5668711852
 20
154.7969826302
 10
99.9390808411
 20
154.1972666264
 10
100.3509548078
 20
153.6463144189
 10
100.801149638
 20
153.1459230992
 10
101.2881968896
 20
152.6977248398
 10
101.8105079159
 20
152.3031815703
 10
102.3663790467
 20
151.9635802088
 10
102.953997146
 20
151.6800284644
 10
103.5714455257
 20
151.4534512239
 10
104.2167101975
 20
151.2845875352
 10
104.8876864421
 20
151.1739881966
 10
105.5821856746
 20
151.12201396
 10
106.2979425828
 20
151.1288343547
 10
107.0326225164
 20
151.1944271339
 10
107.7838291022
 20
151.3185783476
 10
108.5491120604
 20
151.5008830405
 10
109.3259751972
 20
151.7407465724
 10
110.1118845463
 20
152.0373865583
 10
110.9042766349
 20
152.3898354204
 10
111.7005668447
 20
152.7969435436
 10
112.4981578426
 20
153.2573830259
 10
113.2944480524
 20
153.7696520094
 10
114.086840141
 20
154.3320795792
 10
114.8727494901
 20
154.9428312134
 10
115.6496126268
 20
155.5999147671
 10
116.4148955851
 20
156.3011869704
 10
117.1661021709
 20
157.0443604191
 10
117.9007821045
 20
157.8270110358
 10
118.6165390127
 20
158.646585977
 10
118.6209975697
 20
158.6518776605
  0
LWPOLYLINE
  5
167
330
1F
100
AcDbEntity
  8
0
  6
SLD-Durchgehend
 62
     8
370
    18
100
AcDbPolyline
 90
       66
 70
   128
 43
0.0
 10
124.4494918913
 20
168.7482199169
 10
124.6318535021
 20
169.2666889254
 10
124.9631847769
 20
170.2957595235
 10
125.2525569366
 20
171.3210839802
 10
125.4990261095
 20
172.3393179001
 10
125.7017883643
 20
173.3471400159
 10
125.8601823328
 20
174.3412630213
 10
125.9736913666
 20
175.3184442937
 10
126.041945223
 20
176.2754964709
 10
126.0647212721
 20
177.2092978476
 10
126.041945223
 20
178.1168025578
 10
125.9736913666
 20
178.9950505097
 10
125.8601823328
 20
179.8411770412
 10
125.7017883643
 20
180.6524222633
 10
125.4990261095
 20
181.4261400627
 10
125.2525569366
 20
182.1598067328
 10
124.9631847769
 20
182.8510292054
 10
124.6318535021
 20
183.4975528565
 10
124.2596438462
 20
184.0972688603
 10
123.8477698794
 20
184.6482210678
 10
123.3975750493
 20
185.1486123875
 10
122.9105277977
 20
185.5968106469
 10
122.3882167714
 20
185.9913539163
 10
121.8323456406
 20
186.3309552778
 10
121.2447275413
 20
186.6145070222
 10
120.6272791616
 20
186.8410842627
 10
119.9820144898
 20
187.0099479514
 10
119.3110382452
 20
187.1205472901
 10
118.6165390127
 20
187.1725215267
 10
117.9007821045
 20
187.165701132
 10
117.1661021709
 20
187.1001083528
 10
116.4148955851
 20
186.975957139
 10
115.6496126268
 20
186.7936524462
 10
114.8727494901
 20
186.5537889143
 10
114.086840141
 20
186.2571489283
 10
113.2944480524
 20
185.9047000663
 10
112.4981578426
 20
185.497591943
 10
111.7005668447
 20
185.0371524607
 10
110.9042766349
 20
184.5248834772
 10
110.1118845463
 20
183.9624559075
 10
109.3259751972
 20
183.3517042733
 10
108.5491120604
 20
182.6946207195
 10
107.7838291022
 20
181.9933485163
 10
107.0326225164
 20
181.2501750676
 10
106.2979425828
 20
180.4675244508
 10
105.5821856746
 20
179.6479495096
 10
104.8876864421
 20
178.7941235271
 10
104.2167101975
 20
177.9088315062
 10
103.5714455257
 20
176.9949610853
 10
102.953997146
 20
176.0554931199
 10
102.3663790467
 20
175.0934919593
 10
101.8105079159
 20
174.1120954512
 10
101.2881968896
 20
173.114504707
 10
100.801149638
 20
172.1039736605
 10
100.3509548078
 20
171.0837984538
 10
99.9390808411
 20
170.0573066865
 10
99.5668711852
 20
169.0278465613
 10
99.2355399104
 20
167.9987759631
 10
98.9461677507
 20
166.9734515065
 10
98.6996985778
 20
165.9552175865
 10
98.496936323
 20
164.9473954707
 10
98.3385423545
 20
163.9532724653
 10
98.2250333207
 20
162.9760911929
 10
98.1567794643
 20
162.0190390158
 10
98.1340034152
 20
161.0852376391
 10
98.1340034152
 20
161.0852376391
  0
ENDSEC
  0
SECTION
  2
OBJECTS
  0
DICTIONARY
  5
C
330
0
100
AcDbDictionary
281
     1
  3
ACAD_DETAILVIEWSTYLE
350
16F
  3
ACAD_GROUP
350
D
  3
ACAD_LAYOUT
350
1A
  3
ACAD_MATERIAL
350
43
  3
ACAD_MLEADERSTYLE
350
6B
  3
ACAD_MLINESTYLE
350
17
  3
ACAD_PLOTSETTINGS
350
19
  3
ACAD_PLOTSTYLENAME
350
E
  3
ACAD_SCALELIST
350
47
  3
ACAD_SECTIONVIEWSTYLE
350
170
  3
ACAD_TABLESTYLE
350
69
  3
ACAD_VISUALSTYLE
350
2A
  3
ACDB_RECOMPOSE_DATA
350
16C
  3
AcDbVariableDictionary
350
168
  0
SUN
  5
6D
330
29
100
AcDbSun
 90
        1
290
     0
 63
     7
421
 16777215
 40
1.0
291
     1
 91
  2455826
 92
 54000000
292
     0
 70
     2
 71
   256
280
     1
  0
DICTIONARY
  5
16F
102
{ACAD_REACTORS
330
C
102
}
330
C
100
AcDbDictionary
281
     1
  0
DICTIONARY
  5
D
102
{ACAD_REACTORS
330
C
102
}
330
C
100
AcDbDictionary
281
     1
  0
DICTIONARY
  5
1A
102
{ACAD_REACTORS
330
C
102
}
330
C
100
AcDbDictionary
281
     1
  3
Layout1
350
1E
  3
Layout2
350
26
  3
Model
350
22
  0
DICTIONARY
  5
43
102
{ACAD_REACTORS
330
C
102
}
330
C
100
AcDbDictionary
281
     1
  3
ByBlock
350
45
  3
ByLayer
350
44
  3
Global
350
46
  0
DICTIONARY
  5
6B
102
{ACAD_REACTORS
330
C
102
}
330
C
100
AcDbDictionary
281
     1
  3
Standard
350
6C
  0
DICTIONARY
  5
17
102
{ACAD_REACTORS
330
C
102
}
330
C
100
AcDbDictionary
281
     1
  3
Standard
350
18
  0
DICTIONARY
  5
19
102
{ACAD_REACTORS
330
C
102
}
330
C
100
AcDbDictionary
281
     1
  0
ACDBDICTIONARYWDFLT
  5
E
102
{ACAD_REACTORS
330
C
102
}
330
C
100
AcDbDictionary
281
     1
  3
Normal
350
F
100
AcDbDictionaryWithDefault
340
F
  0
DICTIONARY
  5
47
102
{ACAD_REACTORS
330
C
102
}
330
C
100
AcDbDictionary
281
     1
  3
A0
350
48
  3
A1
350
49
  3
A2
350
4A
  3
A3
350
4B
  3
A4
350
4C
  3
A5
350
4D
  3
A6
350
4E
  3
A7
350
4F
  3
A8
350
50
  3
A9
350
51
  3
B0
350
52
  3
B1
350
53
  3
B2
350
54
  3
B3
350
55
  3
B4
350
56
  3
B5
350
57
  3
B6
350
58
  3
B7
350
59
  3
B8
350
5A
  3
B9
350
5B
  3
C0
350
5C
  3
C1
350
5D
  3
C2
350
5E
  3
C3
350
5F
  3
C4
350
60
  3
C5
350
61
  3
C6
350
62
  3
C7
350
63
  3
C8
350
64
  3
C9
350
65
  3
D0
350
66
  3
D1
350
67
  3
D2
350
68
  0
DICTIONARY
  5
170
102
{ACAD_REACTORS
330
C
102
}
330
C
100
AcDbDictionary
281
     1
  0
DICTIONARY
  5
69
102
{ACAD_REACTORS
330
C
102
}
330
C
100
AcDbDictionary
281
     1
  3
Standard
350
6A
  0
DICTIONARY
  5
2A
102
{ACAD_REACTORS
330
C
102
}
330
C
100
AcDbDictionary
281
     1
  3
2dWireframe
350
2F
  3
Basic
350
32
  3
Brighten
350
36
  3
ColorChange
350
3A
  3
Conceptual
350
34
  3
Dim
350
35
  3
EdgeColorOff
350
3D
  3
Facepattern
350
39
  3
Flat
350
2B
  3
FlatWithEdges
350
2C
  3
Gouraud
350
2D
  3
GouraudWithEdges
350
2E
  3
Hidden
350
31
  3
JitterOff
350
3B
  3
Linepattern
350
38
  3
OverhangOff
350
3C
  3
Realistic
350
33
  3
Shaded
350
42
  3
Shaded with edges
350
41
  3
Shades of Gray
350
3E
  3
Sketchy
350
3F
  3
Thicken
350
37
  3
Wireframe
350
30
  3
X-Ray
350
40
  0
XRECORD
  5
16C
102
{ACAD_REACTORS
330
C
102
}
330
C
100
AcDbXrecord
280
     1
 90
        1
330
6A
  0
DICTIONARY
  5
168
102
{ACAD_REACTORS
330
C
102
}
330
C
100
AcDbDictionary
281
     1
  3
CANNOSCALE
350
169
  3
CENTEREXE
350
171
  3
CENTERLTYPEFILE
350
172
  3
CMLEADERSTYLE
350
16E
  3
CTABLESTYLE
350
16D
  0
LAYOUT
  5
1E
102
{ACAD_REACTORS
330
1A
102
}
330
1A
100
AcDbPlotSettings
  1

  2
none_device
  4

  6

 40
0.0
 41
0.0
 42
0.0
 43
0.0
 44
0.0
 45
0.0
 46
0.0
 47
0.0
 48
0.0
 49
0.0
140
0.0
141
0.0
142
1.0
143
1.0
 70
   688
 72
     1
 73
     0
 74
     5
  7

 75
    16
 76
     0
 77
     2
 78
   300
147
1.0
148
0.0
149
0.0
100
AcDbLayout
  1
Layout1
 70
     1
 71
     1
 10
0.0
 20
0.0
 11
420.0
 21
297.0
 12
0.0
 22
0.0
 32
0.0
 14
1.0000000000E+20
 24
1.0000000000E+20
 34
1.0000000000E+20
 15
-1.0000000000E+20
 25
-1.0000000000E+20
 35
-1.0000000000E+20
146
0.0
 13
0.0
 23
0.0
 33
0.0
 16
1.0
 26
0.0
 36
0.0
 17
0.0
 27
1.0
 37
0.0
 76
     0
330
1B
  0
LAYOUT
  5
26
102
{ACAD_REACTORS
330
1A
102
}
330
1A
100
AcDbPlotSettings
  1

  2
none_device
  4

  6

 40
0.0
 41
0.0
 42
0.0
 43
0.0
 44
0.0
 45
0.0
 46
0.0
 47
0.0
 48
0.0
 49
0.0
140
0.0
141
0.0
142
1.0
143
1.0
 70
   688
 72
     1
 73
     0
 74
     5
  7

 75
    16
 76
     0
 77
     2
 78
   300
147
1.0
148
0.0
149
0.0
100
AcDbLayout
  1
Layout2
 70
     1
 71
     2
 10
0.0
 20
0.0
 11
0.0
 21
0.0
 12
0.0
 22
0.0
 32
0.0
 14
0.0
 24
0.0
 34
0.0
 15
0.0
 25
0.0
 35
0.0
146
0.0
 13
0.0
 23
0.0
 33
0.0
 16
1.0
 26
0.0
 36
0.0
 17
0.0
 27
1.0
 37
0.0
 76
     0
330
23
  0
LAYOUT
  5
22
102
{ACAD_REACTORS
330
1A
102
}
330
1A
100
AcDbPlotSettings
  1

  2
none_device
  4
Letter_(8.50_x_11.00_Inches)
  6

 40
6.35
 41
6.35
 42
6.35000508
 43
6.35000508
 44
215.9
 45
279.4
 46
0.0
 47
0.0
 48
0.0
 49
0.0
140
0.0
141
0.0
142
1.0
143
1.0
 70
  1712
 72
     1
 73
     0
 74
     0
  7

 75
     0
 76
     0
 77
     2
 78
   300
147
1.0
148
0.0
149
0.0
100
AcDbLayout
  1
Model
 70
     1
 71
     0
 10
0.0
 20
0.0
 11
210.0
 21
297.0
 12
0.0
 22
0.0
 32
0.0
 14
0.0
 24
0.0
 34
0.0
 15
210.0
 25
297.0
 35
0.0
146
0.0
 13
0.0
 23
0.0
 33
0.0
 16
1.0
 26
0.0
 36
0.0
 17
0.0
 27
1.0
 37
0.0
 76
     0
330
1F
331
29
  0
MATERIAL
  5
45
102
{ACAD_REACTORS
330
43
102
}
330
43
100
AcDbMaterial
  1
ByBlock
 72
     1
 94
      127
  0
MATERIAL
  5
44
102
{ACAD_REACTORS
330
43
102
}
330
43
100
AcDbMaterial
  1
ByLayer
 72
     1
 94
      127
  0
MATERIAL
  5
46
102
{ACAD_REACTORS
330
43
102
}
330
43
100
AcDbMaterial
  1
Global
 72
     1
 94
      127
  0
MLEADERSTYLE
  5
6C
102
{ACAD_REACTORS
330
6B
102
}
330
6B
100
AcDbMLeaderStyle
179
     2
170
     2
171
     1
172
     0
 90
        2
 40
0.0
 41
0.0
173
     1
 91
-1056964608
340
14
 92
       -2
290
     1
 42
2.0
291
     1
 43
8.0
  3
Standard
341
0
 44
4.0
300

342
11
174
     1
178
     6
175
     1
176
     0
 93
-1056964608
 45
4.0
292
     0
297
     0
 46
4.0
343
0
 94
-1056964608
 47
1.0
 49
1.0
140
1.0
293
     1
141
0.0
294
     1
177
     0
142
1.0
295
     0
296
     0
143
3.75
271
     0
272
     9
273
     9
  0
MLINESTYLE
  5
18
102
{ACAD_REACTORS
330
17
102
}
330
17
100
AcDbMlineStyle
  2
Standard
 70
     0
  3

 62
   256
 51
90.0
 52
90.0
 71
     2
 49
0.5
 62
   256
  6
BYLAYER
 49
-0.5
 62
   256
  6
BYLAYER
  0
ACDBPLACEHOLDER
  5
F
102
{ACAD_REACTORS
330
E
102
}
330
E
  0
SCALE
  5
48
102
{ACAD_REACTORS
330
47
102
}
330
47
100
AcDbScale
 70
     0
300
1:1
140
1.0
141
1.0
290
     1
  0
SCALE
  5
49
102
{ACAD_REACTORS
330
47
102
}
330
47
100
AcDbScale
 70
     0
300
1:2
140
1.0
141
2.0
290
     0
  0
SCALE
  5
4A
102
{ACAD_REACTORS
330
47
102
}
330
47
100
AcDbScale
 70
     0
300
1:4
140
1.0
141
4.0
290
     0
  0
SCALE
  5
4B
102
{ACAD_REACTORS
330
47
102
}
330
47
100
AcDbScale
 70
     0
300
1:5
140
1.0
141
5.0
290
     0
  0
SCALE
  5
4C
102
{ACAD_REACTORS
330
47
102
}
330
47
100
AcDbScale
 70
     0
300
1:8
140
1.0
141
8.0
290
     0
  0
SCALE
  5
4D
102
{ACAD_REACTORS
330
47
102
}
330
47
100
AcDbScale
 70
     0
300
1:10
140
1.0
141
10.0
290
     0
  0
SCALE
  5
4E
102
{ACAD_REACTORS
330
47
102
}
330
47
100
AcDbScale
 70
     0
300
1:16
140
1.0
141
16.0
290
     0
  0
SCALE
  5
4F
102
{ACAD_REACTORS
330
47
102
}
330
47
100
AcDbScale
 70
     0
300
1:20
140
1.0
141
20.0
290
     0
  0
SCALE
  5
50
102
{ACAD_REACTORS
330
47
102
}
330
47
100
AcDbScale
 70
     0
300
1:30
140
1.0
141
30.0
290
     0
  0
SCALE
  5
51
102
{ACAD_REACTORS
330
47
102
}
330
47
100
AcDbScale
 70
     0
300
1:40
140
1.0
141
40.0
290
     0
  0
SCALE
  5
52
102
{ACAD_REACTORS
330
47
102
}
330
47
100
AcDbScale
 70
     0
300
1:50
140
1.0
141
50.0
290
     0
  0
SCALE
  5
53
102
{ACAD_REACTORS
330
47
102
}
330
47
100
AcDbScale
 70
     0
300
1:100
140
1.0
141
100.0
290
     0
  0
SCALE
  5
54
102
{ACAD_REACTORS
330
47
102
}
330
47
100
AcDbScale
 70
     0
300
2:1
140
2.0
141
1.0
290
     0
  0
SCALE
  5
55
102
{ACAD_REACTORS
330
47
102
}
330
47
100
AcDbScale
 70
     0
300
4:1
140
4.0
141
1.0
290
     0
  0
SCALE
  5
56
102
{ACAD_REACTORS
330
47
102
}
330
47
100
AcDbScale
 70
     0
300
8:1
140
8.0
141
1.0
290
     0
  0
SCALE
  5
57
102
{ACAD_REACTORS
330
47
102
}
330
47
100
AcDbScale
 70
     0
300
10:1
140
10.0
141
1.0
290
     0
  0
SCALE
  5
58
102
{ACAD_REACTORS
330
47
102
}
330
47
100
AcDbScale
 70
     0
300
100:1
140
100.0
141
1.0
290
     0
  0
SCALE
  5
59
102
{ACAD_REACTORS
330
47
102
}
330
47
100
AcDbScale
 70
     0
300
1/128" = 1'-0"
140
0.0078125
141
12.0
290
     0
  0
SCALE
  5
5A
102
{ACAD_REACTORS
330
47
102
}
330
47
100
AcDbScale
 70
     0
300
1/64" = 1'-0"
140
0.015625
141
12.0
290
     0
  0
SCALE
  5
5B
102
{ACAD_REACTORS
330
47
102
}
330
47
100
AcDbScale
 70
     0
300
1/32" = 1'-0"
140
0.03125
141
12.0
290
     0
  0
SCALE
  5
5C
102
{ACAD_REACTORS
330
47
102
}
330
47
100
AcDbScale
 70
     0
300
1/16" = 1'-0"
140
0.0625
141
12.0
290
     0
  0
SCALE
  5
5D
102
{ACAD_REACTORS
330
47
102
}
330
47
100
AcDbScale
 70
     0
300
3/32" = 1'-0"
140
0.09375
141
12.0
290
     0
  0
SCALE
  5
5E
102
{ACAD_REACTORS
330
47
102
}
330
47
100
AcDbScale
 70
     0
300
1/8" = 1'-0"
140
0.125
141
12.0
290
     0
  0
SCALE
  5
5F
102
{ACAD_REACTORS
330
47
102
}
330
47
100
AcDbScale
 70
     0
300
3/16" = 1'-0"
140
0.1875
141
12.0
290
     0
  0
SCALE
  5
60
102
{ACAD_REACTORS
330
47
102
}
330
47
100
AcDbScale
 70
     0
300
1/4" = 1'-0"
140
0.25
141
12.0
290
     0
  0
SCALE
  5
61
102
{ACAD_REACTORS
330
47
102
}
330
47
100
AcDbScale
 70
     0
300
3/8" = 1'-0"
140
0.375
141
12.0
290
     0
  0
SCALE
  5
62
102
{ACAD_REACTORS
330
47
102
}
330
47
100
AcDbScale
 70
     0
300
1/2" = 1'-0"
140
0.5
141
12.0
290
     0
  0
SCALE
  5
63
102
{ACAD_REACTORS
330
47
102
}
330
47
100
AcDbScale
 70
     0
300
3/4" = 1'-0"
140
0.75
141
12.0
290
     0
  0
SCALE
  5
64
102
{ACAD_REACTORS
330
47
102
}
330
47
100
AcDbScale
 70
     0
300
1" = 1'-0"
140
1.0
141
12.0
290
     0
  0
SCALE
  5
65
102
{ACAD_REACTORS
330
47
102
}
330
47
100
AcDbScale
 70
     0
300
1-1/2" = 1'-0"
140
1.5
141
12.0
290
     0
  0
SCALE
  5
66
102
{ACAD_REACTORS
330
47
102
}
330
47
100
AcDbScale
 70
     0
300
3" = 1'-0"
140
3.0
141
12.0
290
     0
  0
SCALE
  5
67
102
{ACAD_REACTORS
330
47
102
}
330
47
100
AcDbScale
 70
     0
300
6" = 1'-0"
140
6.0
141
12.0
290
     0
  0
SCALE
  5
68
102
{ACAD_REACTORS
330
47
102
}
330
47
100
AcDbScale
 70
     0
300
1'-0" = 1'-0"
140
12.0
141
12.0
290
     0
  0
TABLESTYLE
  5
6A
102
{ACAD_REACTORS
330
69
102
}
102
{ACAD_XDICTIONARY
360
16A
102
}
330
69
100
AcDbTableStyle
  3
Standard
 70
     0
 71
     0
 40
0.06
 41
0.06
280
     0
281
     0
  7
STANDARD
140
4.5
170
     2
 62
     0
 63
   257
283
     0
 90
        4
 91
        0
  1

274
    -2
284
     1
 64
     0
275
    -2
285
     1
 65
     0
276
    -2
286
     1
 66
     0
277
    -2
287
     1
 67
     0
278
    -2
288
     1
 68
     0
279
    -2
289
     1
 69
     0
  7
STANDARD
140
6.0
170
     5
 62
     0
 63
   257
283
     0
 90
        4
 91
        0
  1

274
    -2
284
     1
 64
     0
275
    -2
285
     1
 65
     0
276
    -2
286
     1
 66
     0
277
    -2
287
     1
 67
     0
278
    -2
288
     1
 68
     0
279
    -2
289
     1
 69
     0
  7
STANDARD
140
4.5
170
     5
 62
     0
 63
   257
283
     0
 90
        4
 91
        0
  1

274
    -2
284
     1
 64
     0
275
    -2
285
     1
 65
     0
276
    -2
286
     1
 66
     0
277
    -2
287
     1
 67
     0
278
    -2
288
     1
 68
     0
279
    -2
289
     1
 69
     0
  0
VISUALSTYLE
  5
2F
102
{ACAD_REACTORS
330
2A
102
}
330
2A
100
AcDbVisualStyle
  2
2dWireframe
 70
     4
177
     2
291
     0
 71
     0
176
     1
 72
     2
176
     1
 73
     0
176
     1
 90
        0
176
     1
 40
0.6
176
     1
 41
30.0
176
     1
 62
     5
 63
     7
421
 16777215
176
     1
 74
     1
176
     1
 91
        4
176
     1
 64
     7
176
     1
 65
   257
176
     1
 75
     1
176
     1
175
     1
176
     1
 42
1.0
176
     1
 92
        0
176
     1
 66
   257
176
     1
 43
1.0
176
     1
 76
     1
176
     1
 77
     6
176
     1
 78
     2
176
     1
 67
     7
176
     1
 79
     5
176
     1
170
     0
176
     1
171
     0
176
     1
290
     0
176
     1
 93
        1
176
     1
 44
0.0
176
     1
173
     0
176
     1
  0
VISUALSTYLE
  5
32
102
{ACAD_REACTORS
330
2A
102
}
330
2A
100
AcDbVisualStyle
  2
Basic
 70
     7
177
     2
291
     1
 71
     1
176
     1
 72
     0
176
     1
 73
     1
176
     1
 90
        0
176
     1
 40
0.6
176
     1
 41
30.0
176
     1
 62
     5
 63
     7
421
 16777215
176
     1
 74
     0
176
     1
 91
        4
176
     1
 64
     7
176
     1
 65
   257
176
     1
 75
     1
176
     1
175
     1
176
     1
 42
1.0
176
     1
 92
        8
176
     1
 66
     7
176
     1
 43
1.0
176
     1
 76
     1
176
     1
 77
     6
176
     1
 78
     2
176
     1
 67
     7
176
     1
 79
     5
176
     1
170
     0
176
     1
171
     0
176
     1
290
     0
176
     1
 93
        1
176
     1
 44
0.0
176
     1
173
     0
176
     1
  0
VISUALSTYLE
  5
36
102
{ACAD_REACTORS
330
2A
102
}
330
2A
100
AcDbVisualStyle
  2
Brighten
 70
    12
177
     2
291
     1
 71
     2
176
     1
 72
     2
176
     1
 73
     0
176
     1
 90
        0
176
     1
 40
0.6
176
     1
 41
30.0
176
     1
 62
     5
 63
     7
421
 16777215
176
     1
 74
     1
176
     1
 91
        4
176
     1
 64
     7
176
     1
 65
   257
176
     1
 75
     1
176
     1
175
     1
176
     1
 42
1.0
176
     1
 92
        8
176
     1
 66
     7
176
     1
 43
1.0
176
     1
 76
     1
176
     1
 77
     6
176
     1
 78
     2
176
     1
 67
     7
176
     1
 79
     5
176
     1
170
     0
176
     1
171
     0
176
     1
290
     0
176
     1
 93
        1
176
     1
 44
50.0
176
     1
173
     0
176
     1
  0
VISUALSTYLE
  5
3A
102
{ACAD_REACTORS
330
2A
102
}
330
2A
100
AcDbVisualStyle
  2
ColorChange
 70
    16
177
     2
291
     1
 71
     2
176
     1
 72
     2
176
     1
 73
     3
176
     1
 90
        0
176
     1
 40
0.6
176
     1
 41
30.0
176
     1
 62
     5
 63
     8
421
  8421504
176
     1
 74
     1
176
     1
 91
        4
176
     1
 64
     7
176
     1
 65
   257
176
     1
 75
     1
176
     1
175
     1
176
     1
 42
1.0
176
     1
 92
        8
176
     1
 66
     8
424
  8421504
176
     1
 43
1.0
176
     1
 76
     1
176
     1
 77
     6
176
     1
 78
     2
176
     1
 67
     7
176
     1
 79
     5
176
     1
170
     0
176
     1
171
     0
176
     1
290
     0
176
     1
 93
        1
176
     1
 44
0.0
176
     1
173
     0
176
     1
  0
VISUALSTYLE
  5
34
102
{ACAD_REACTORS
330
2A
102
}
330
2A
100
AcDbVisualStyle
  2
Conceptual
 70
     9
177
     2
291
     0
 71
     3
176
     1
 72
     2
176
     1
 73
     0
176
     1
 90
        0
176
     1
 40
0.6
176
     1
 41
30.0
176
     1
 62
     5
 63
     7
421
 16777215
176
     1
 74
     2
176
     1
 91
        2
176
     1
 64
     7
176
     1
 65
   257
176
     1
 75
     1
176
     1
175
     1
176
     1
 42
179.0
176
     1
 92
        8
176
     1
 66
     7
176
     1
 43
1.0
176
     1
 76
     1
176
     1
 77
     6
176
     1
 78
     2
176
     1
 67
     7
176
     1
 79
     3
176
     1
170
     0
176
     1
171
     0
176
     1
290
     0
176
     1
 93
        1
176
     1
 44
0.0
176
     1
173
     0
176
     1
  0
VISUALSTYLE
  5
35
102
{ACAD_REACTORS
330
2A
102
}
330
2A
100
AcDbVisualStyle
  2
Dim
 70
    11
177
     2
291
     1
 71
     2
176
     1
 72
     2
176
     1
 73
     0
176
     1
 90
        0
176
     1
 40
0.6
176
     1
 41
30.0
176
     1
 62
     5
 63
     7
421
 16777215
176
     1
 74
     1
176
     1
 91
        4
176
     1
 64
     7
176
     1
 65
   257
176
     1
 75
     1
176
     1
175
     1
176
     1
 42
1.0
176
     1
 92
        8
176
     1
 66
     7
176
     1
 43
1.0
176
     1
 76
     1
176
     1
 77
     6
176
     1
 78
     2
176
     1
 67
     7
176
     1
 79
     5
176
     1
170
     0
176
     1
171
     0
176
     1
290
     0
176
     1
 93
        1
176
     1
 44
-50.0
176
     1
173
     0
176
     1
  0
VISUALSTYLE
  5
3D
102
{ACAD_REACTORS
330
2A
102
}
330
2A
100
AcDbVisualStyle
  2
EdgeColorOff
 70
    22
177
     2
291
     1
 71
     2
176
     0
 72
     2
176
     0
 73
     0
176
     0
 90
        0
176
     0
 40
0.6
176
     0
 41
30.0
176
     0
 62
     5
 63
     7
421
 16777215
176
     0
 74
     1
176
     0
 91
        4
176
     0
 64
     7
176
     0
 65
   257
176
     0
 75
     1
176
     0
175
     1
176
     0
 42
1.0
176
     0
 92
        8
176
     2
 66
     7
176
     0
 43
1.0
176
     0
 76
     1
176
     0
 77
     6
176
     0
 78
     2
176
     0
 67
     7
176
     0
 79
     5
176
     0
170
     0
176
     0
171
     0
176
     0
290
     0
176
     0
 93
        1
176
     0
 44
0.0
176
     0
173
     0
176
     0
  0
VISUALSTYLE
  5
39
102
{ACAD_REACTORS
330
2A
102
}
330
2A
100
AcDbVisualStyle
  2
Facepattern
 70
    15
177
     2
291
     1
 71
     2
176
     1
 72
     2
176
     1
 73
     0
176
     1
 90
        0
176
     1
 40
0.6
176
     1
 41
30.0
176
     1
 62
     5
 63
     7
421
 16777215
176
     1
 74
     1
176
     1
 91
        4
176
     1
 64
     7
176
     1
 65
   257
176
     1
 75
     1
176
     1
175
     1
176
     1
 42
1.0
176
     1
 92
        8
176
     1
 66
     7
176
     1
 43
1.0
176
     1
 76
     1
176
     1
 77
     6
176
     1
 78
     2
176
     1
 67
     7
176
     1
 79
     5
176
     1
170
     0
176
     1
171
     0
176
     1
290
     0
176
     1
 93
        1
176
     1
 44
0.0
176
     1
173
     0
176
     1
  0
VISUALSTYLE
  5
2B
102
{ACAD_REACTORS
330
2A
102
}
330
2A
100
AcDbVisualStyle
  2
Flat
 70
     0
177
     2
291
     1
 71
     2
176
     1
 72
     1
176
     1
 73
     1
176
     1
 90
        2
176
     1
 40
0.6
176
     1
 41
30.0
176
     1
 62
     5
 63
     7
421
 16777215
176
     1
 74
     0
176
     1
 91
        0
176
     1
 64
     7
176
     1
 65
   257
176
     1
 75
     1
176
     1
175
     1
176
     1
 42
1.0
176
     1
 92
        8
176
     1
 66
     7
176
     1
 43
1.0
176
     1
 76
     1
176
     1
 77
     6
176
     1
 78
     2
176
     1
 67
     7
176
     1
 79
     5
176
     1
170
     0
176
     1
171
     0
176
     1
290
     0
176
     1
 93
       13
176
     1
 44
0.0
176
     1
173
     0
176
     1
  0
VISUALSTYLE
  5
2C
102
{ACAD_REACTORS
330
2A
102
}
330
2A
100
AcDbVisualStyle
  2
FlatWithEdges
 70
     1
177
     2
291
     1
 71
     2
176
     1
 72
     1
176
     1
 73
     1
176
     1
 90
        2
176
     1
 40
0.6
176
     1
 41
30.0
176
     1
 62
     5
 63
     7
421
 16777215
176
     1
 74
     1
176
     1
 91
        0
176
     1
 64
     7
176
     1
 65
   257
176
     1
 75
     1
176
     1
175
     1
176
     1
 42
1.0
176
     1
 92
        0
176
     1
 66
   257
176
     1
 43
1.0
176
     1
 76
     1
176
     1
 77
     6
176
     1
 78
     2
176
     1
 67
     7
176
     1
 79
     5
176
     1
170
     0
176
     1
171
     0
176
     1
290
     0
176
     1
 93
       13
176
     1
 44
0.0
176
     1
173
     0
176
     1
  0
VISUALSTYLE
  5
2D
102
{ACAD_REACTORS
330
2A
102
}
330
2A
100
AcDbVisualStyle
  2
Gouraud
 70
     2
177
     2
291
     1
 71
     2
176
     1
 72
     2
176
     1
 73
     1
176
     1
 90
        2
176
     1
 40
0.6
176
     1
 41
30.0
176
     1
 62
     5
 63
     7
421
 16777215
176
     1
 74
     0
176
     1
 91
        0
176
     1
 64
     7
176
     1
 65
   257
176
     1
 75
     1
176
     1
175
     1
176
     1
 42
1.0
176
     1
 92
        0
176
     1
 66
     7
176
     1
 43
1.0
176
     1
 76
     1
176
     1
 77
     6
176
     1
 78
     2
176
     1
 67
     7
176
     1
 79
     5
176
     1
170
     0
176
     1
171
     0
176
     1
290
     0
176
     1
 93
       13
176
     1
 44
0.0
176
     1
173
     0
176
     1
  0
VISUALSTYLE
  5
2E
102
{ACAD_REACTORS
330
2A
102
}
330
2A
100
AcDbVisualStyle
  2
GouraudWithEdges
 70
     3
177
     2
291
     1
 71
     2
176
     1
 72
     2
176
     1
 73
     1
176
     1
 90
        2
176
     1
 40
0.6
176
     1
 41
30.0
176
     1
 62
     5
 63
     7
421
 16777215
176
     1
 74
     1
176
     1
 91
        0
176
     1
 64
     7
176
     1
 65
   257
176
     1
 75
     1
176
     1
175
     1
176
     1
 42
1.0
176
     1
 92
        0
176
     1
 66
   257
176
     1
 43
1.0
176
     1
 76
     1
176
     1
 77
     6
176
     1
 78
     2
176
     1
 67
     7
176
     1
 79
     5
176
     1
170
     0
176
     1
171
     0
176
     1
290
     0
176
     1
 93
       13
176
     1
 44
0.0
176
     1
173
     0
176
     1
  0
VISUALSTYLE
  5
31
102
{ACAD_REACTORS
330
2A
102
}
330
2A
100
AcDbVisualStyle
  2
Hidden
 70
     6
177
     2
291
     0
 71
     1
176
     1
 72
     2
176
     1
 73
     2
176
     1
 90
        0
176
     1
 40
0.6
176
     1
 41
30.0
176
     1
 62
     5
 63
     7
421
 16777215
176
     1
 74
     2
176
     1
 91
        2
176
     1
 64
     7
176
     1
 65
   257
176
     1
 75
     2
176
     1
175
     1
176
     1
 42
40.0
176
     1
 92
        0
176
     1
 66
   257
176
     1
 43
1.0
176
     1
 76
     1
176
     1
 77
     6
176
     1
 78
     2
176
     1
 67
     7
176
     1
 79
     3
176
     1
170
     0
176
     1
171
     0
176
     1
290
     0
176
     1
 93
        1
176
     1
 44
0.0
176
     1
173
     0
176
     1
  0
VISUALSTYLE
  5
3B
102
{ACAD_REACTORS
330
2A
102
}
330
2A
100
AcDbVisualStyle
  2
JitterOff
 70
    20
177
     2
291
     1
 71
     2
176
     0
 72
     2
176
     0
 73
     0
176
     0
 90
        0
176
     0
 40
0.6
176
     0
 41
30.0
176
     0
 62
     5
 63
     7
421
 16777215
176
     0
 74
     1
176
     0
 91
        4
176
     0
 64
     7
176
     0
 65
   257
176
     0
 75
     1
176
     0
175
     1
176
     0
 42
1.0
176
     0
 92
       10
176
     2
 66
     7
176
     0
 43
1.0
176
     0
 76
     1
176
     0
 77
     6
176
     0
 78
     2
176
     0
 67
     7
176
     0
 79
     5
176
     0
170
     0
176
     0
171
     0
176
     0
290
     0
176
     0
 93
        1
176
     0
 44
0.0
176
     0
173
     0
176
     0
  0
VISUALSTYLE
  5
38
102
{ACAD_REACTORS
330
2A
102
}
330
2A
100
AcDbVisualStyle
  2
Linepattern
 70
    14
177
     2
291
     1
 71
     2
176
     1
 72
     2
176
     1
 73
     0
176
     1
 90
        0
176
     1
 40
0.6
176
     1
 41
30.0
176
     1
 62
     5
 63
     7
421
 16777215
176
     1
 74
     1
176
     1
 91
        4
176
     1
 64
     7
176
     1
 65
   257
176
     1
 75
     7
176
     1
175
     7
176
     1
 42
1.0
176
     1
 92
        8
176
     1
 66
     7
176
     1
 43
1.0
176
     1
 76
     1
176
     1
 77
     6
176
     1
 78
     2
176
     1
 67
     7
176
     1
 79
     5
176
     1
170
     0
176
     1
171
     0
176
     1
290
     0
176
     1
 93
        1
176
     1
 44
0.0
176
     1
173
     0
176
     1
  0
VISUALSTYLE
  5
3C
102
{ACAD_REACTORS
330
2A
102
}
330
2A
100
AcDbVisualStyle
  2
OverhangOff
 70
    21
177
     2
291
     1
 71
     2
176
     0
 72
     2
176
     0
 73
     0
176
     0
 90
        0
176
     0
 40
0.6
176
     0
 41
30.0
176
     0
 62
     5
 63
     7
421
 16777215
176
     0
 74
     1
176
     0
 91
        4
176
     0
 64
     7
176
     0
 65
   257
176
     0
 75
     1
176
     0
175
     1
176
     0
 42
1.0
176
     0
 92
        9
176
     2
 66
     7
176
     0
 43
1.0
176
     0
 76
     1
176
     0
 77
     6
176
     0
 78
     2
176
     0
 67
     7
176
     0
 79
     5
176
     0
170
     0
176
     0
171
     0
176
     0
290
     0
176
     0
 93
        1
176
     0
 44
0.0
176
     0
173
     0
176
     0
  0
VISUALSTYLE
  5
33
102
{ACAD_REACTORS
330
2A
102
}
330
2A
100
AcDbVisualStyle
  2
Realistic
 70
     8
177
     2
291
     0
 71
     2
176
     1
 72
     3
176
     1
 73
     0
176
     1
 90
        2
176
     1
 40
0.6
176
     1
 41
30.0
176
     1
 62
     5
 63
     7
421
 16777215
176
     1
 74
     0
176
     1
 91
        0
176
     1
 64
     7
176
     1
 65
   257
176
     1
 75
     1
176
     1
175
     1
176
     1
 42
1.0
176
     1
 92
        8
176
     1
 66
   257
176
     1
 43
1.0
176
     1
 76
     1
176
     1
 77
     6
176
     1
 78
     2
176
     1
 67
     7
176
     1
 79
     3
176
     1
170
     0
176
     1
171
     0
176
     1
290
     0
176
     1
 93
       13
176
     1
 44
0.0
176
     1
173
     0
176
     1
  0
VISUALSTYLE
  5
42
102
{ACAD_REACTORS
330
2A
102
}
330
2A
100
AcDbVisualStyle
  2
Shaded
 70
    27
177
     2
291
     0
 71
     2
176
     1
 72
     2
176
     1
 73
     1
176
     1
 90
        2
176
     1
 40
0.6
176
     1
 41
30.0
176
     1
 62
     5
 63
     7
421
 16777215
176
     1
 74
     0
176
     1
 91
        4
176
     1
 64
     7
176
     1
 65
   257
176
     1
 75
     1
176
     1
175
     1
176
     1
 42
1.0
176
     1
 92
        8
176
     1
 66
   257
176
     1
 43
1.0
176
     1
 76
     1
176
     1
 77
     6
176
     1
 78
     2
176
     1
 67
     8
425
  7895160
176
     1
 79
     3
176
     1
170
     0
176
     1
171
     0
176
     1
290
     0
176
     1
 93
        5
176
     1
 44
0.0
176
     1
173
     0
176
     1
  0
VISUALSTYLE
  5
41
102
{ACAD_REACTORS
330
2A
102
}
330
2A
100
AcDbVisualStyle
  2
Shaded with edges
 70
    26
177
     2
291
     0
 71
     2
176
     1
 72
     2
176
     1
 73
     1
176
     1
 90
        2
176
     1
 40
0.6
176
     1
 41
30.0
176
     1
 62
     5
 63
     7
421
 16777215
176
     1
 74
     1
176
     1
 91
       10
176
     1
 64
     7
176
     1
 65
   257
176
     1
 75
     2
176
     1
175
     1
176
     1
 42
1.0
176
     1
 92
        8
176
     1
 66
   257
176
     1
 43
1.0
176
     1
 76
     1
176
     1
 77
     6
176
     1
 78
     2
176
     1
 67
     7
176
     1
 79
     3
176
     1
170
     0
176
     1
171
     0
176
     1
290
     0
176
     1
 93
        5
176
     1
 44
0.0
176
     1
173
     0
176
     1
  0
VISUALSTYLE
  5
3E
102
{ACAD_REACTORS
330
2A
102
}
330
2A
100
AcDbVisualStyle
  2
Shades of Gray
 70
    23
177
     2
291
     0
 71
     2
176
     1
 72
     2
176
     1
 73
     3
176
     1
 90
        0
176
     1
 40
0.6
176
     1
 41
30.0
176
     1
 62
     5
 63
     7
421
 16777215
176
     1
 74
     2
176
     1
 91
        2
176
     1
 64
     7
176
     1
 65
     7
176
     1
 75
     1
176
     1
175
     1
176
     1
 42
40.0
176
     1
 92
        8
176
     1
 66
     7
176
     1
 43
1.0
176
     1
 76
     1
176
     1
 77
     6
176
     1
 78
     2
176
     1
 67
     7
176
     1
 79
     3
176
     1
170
     0
176
     1
171
     0
176
     1
290
     0
176
     1
 93
        1
176
     1
 44
0.0
176
     1
173
     0
176
     1
  0
VISUALSTYLE
  5
3F
102
{ACAD_REACTORS
330
2A
102
}
330
2A
100
AcDbVisualStyle
  2
Sketchy
 70
    24
177
     2
291
     0
 71
     1
176
     1
 72
     2
176
     1
 73
     2
176
     1
 90
        0
176
     1
 40
0.6
176
     1
 41
30.0
176
     1
 62
     5
 63
     7
421
 16777215
176
     1
 74
     2
176
     1
 91
        2
176
     1
 64
     7
176
     1
 65
     7
176
     1
 75
     1
176
     1
175
     1
176
     1
 42
40.0
176
     1
 92
       11
176
     1
 66
     7
176
     1
 43
1.0
176
     1
 76
     1
176
     1
 77
     6
176
     1
 78
     2
176
     1
 67
     7
176
     1
 79
     6
176
     1
170
     0
176
     1
171
     0
176
     1
290
     0
176
     1
 93
        1
176
     1
 44
0.0
176
     1
173
     0
176
     1
  0
VISUALSTYLE
  5
37
102
{ACAD_REACTORS
330
2A
102
}
330
2A
100
AcDbVisualStyle
  2
Thicken
 70
    13
177
     2
291
     1
 71
     2
176
     1
 72
     2
176
     1
 73
     0
176
     1
 90
        0
176
     1
 40
0.6
176
     1
 41
30.0
176
     1
 62
     5
 63
     7
421
 16777215
176
     1
 74
     1
176
     1
 91
        4
176
     1
 64
     7
176
     1
 65
   257
176
     1
 75
     1
176
     1
175
     1
176
     1
 42
1.0
176
     1
 92
       12
176
     1
 66
     7
176
     1
 43
1.0
176
     1
 76
     1
176
     1
 77
     6
176
     1
 78
     2
176
     1
 67
     7
176
     1
 79
     5
176
     1
170
     0
176
     1
171
     0
176
     1
290
     0
176
     1
 93
        1
176
     1
 44
0.0
176
     1
173
     0
176
     1
  0
VISUALSTYLE
  5
30
102
{ACAD_REACTORS
330
2A
102
}
330
2A
100
AcDbVisualStyle
  2
Wireframe
 70
     5
177
     2
291
     0
 71
     0
176
     1
 72
     2
176
     1
 73
     0
176
     1
 90
        0
176
     1
 40
0.6
176
     1
 41
30.0
176
     1
 62
     5
 63
     7
421
 16777215
176
     1
 74
     1
176
     1
 91
        4
176
     1
 64
     7
176
     1
 65
   257
176
     1
 75
     1
176
     1
175
     1
176
     1
 42
1.0
176
     1
 92
        0
176
     1
 66
   257
176
     1
 43
1.0
176
     1
 76
     1
176
     1
 77
     6
176
     1
 78
     2
176
     1
 67
     7
176
     1
 79
     3
176
     1
170
     0
176
     1
171
     0
176
     1
290
     0
176
     1
 93
        1
176
     1
 44
0.0
176
     1
173
     0
176
     1
  0
VISUALSTYLE
  5
40
102
{ACAD_REACTORS
330
2A
102
}
330
2A
100
AcDbVisualStyle
  2
X-Ray
 70
    25
177
     2
291
     0
 71
     2
176
     1
 72
     2
176
     1
 73
     1
176
     1
 90
        1
176
     1
 40
0.5
176
     1
 41
30.0
176
     1
 62
     5
 63
     7
421
 16777215
176
     1
 74
     1
176
     1
 91
        0
176
     1
 64
     7
176
     1
 65
   257
176
     1
 75
     1
176
     1
175
     1
176
     1
 42
1.0
176
     1
 92
        8
176
     1
 66
     7
176
     1
 43
1.0
176
     1
 76
     1
176
     1
 77
     6
176
     1
 78
     2
176
     1
 67
     7
176
     1
 79
     3
176
     1
170
     0
176
     1
171
     0
176
     1
290
     0
176
     1
 93
       13
176
     1
 44
0.0
176
     1
173
     0
176
     1
  0
DICTIONARYVAR
  5
169
102
{ACAD_REACTORS
330
168
102
}
330
168
100
DictionaryVariables
280
     0
  1
1:1
  0
DICTIONARYVAR
  5
171
102
{ACAD_REACTORS
330
168
102
}
330
168
100
DictionaryVariables
280
     0
  1
3.500000
  0
DICTIONARYVAR
  5
172
102
{ACAD_REACTORS
330
168
102
}
330
168
100
DictionaryVariables
280
     0
  1
acadiso.lin
  0
DICTIONARYVAR
  5
16E
102
{ACAD_REACTORS
330
168
102
}
330
168
100
DictionaryVariables
280
     0
  1
Standard
  0
DICTIONARYVAR
  5
16D
102
{ACAD_REACTORS
330
168
102
}
330
168
100
DictionaryVariables
280
     0
  1
Standard
  0
DICTIONARY
  5
16A
330
6A
100
AcDbDictionary
280
     1
281
     1
  3
ACAD_ROUNDTRIP_2008_TABLESTYLE_CELLSTYLEMAP
360
16B
  0
CELLSTYLEMAP
  5
16B
102
{ACAD_REACTORS
330
16A
102
}
330
16A
100
AcDbCellStyleMap
 90
        3
300
CELLSTYLE
  1
TABLEFORMAT_BEGIN
 90
        5
170
     1
 91
        0
 92
    32768
 62
   257
 93
        1
300
CONTENTFORMAT
  1
CONTENTFORMAT_BEGIN
 90
        0
 91
        0
 92
        4
 93
        0
300

 40
0.0
140
1.0
 94
        5
 62
     0
340
11
144
6.0
309
CONTENTFORMAT_END
171
     1
301
MARGIN
  1
CELLMARGIN_BEGIN
 40
1.5
 40
1.5
 40
1.5
 40
1.5
 40
1.5
 40
1.5
309
CELLMARGIN_END
 94
        6
 95
        1
302
GRIDFORMAT
  1
GRIDFORMAT_BEGIN
 90
        0
 91
        1
 62
     0
 92
       -2
340
14
 93
        0
 40
0.045
309
GRIDFORMAT_END
 95
        2
302
GRIDFORMAT
  1
GRIDFORMAT_BEGIN
 90
        0
 91
        1
 62
     0
 92
       -2
340
14
 93
        0
 40
0.045
309
GRIDFORMAT_END
 95
        4
302
GRIDFORMAT
  1
GRIDFORMAT_BEGIN
 90
        0
 91
        1
 62
     0
 92
       -2
340
14
 93
        0
 40
0.045
309
GRIDFORMAT_END
 95
        8
302
GRIDFORMAT
  1
GRIDFORMAT_BEGIN
 90
        0
 91
        1
 62
     0
 92
       -2
340
14
 93
        0
 40
0.045
309
GRIDFORMAT_END
 95
       16
302
GRIDFORMAT
  1
GRIDFORMAT_BEGIN
 90
        0
 91
        1
 62
     0
 92
       -2
340
14
 93
        0
 40
0.045
309
GRIDFORMAT_END
 95
       32
302
GRIDFORMAT
  1
GRIDFORMAT_BEGIN
 90
        0
 91
        1
 62
     0
 92
       -2
340
14
 93
        0
 40
0.045
309
GRIDFORMAT_END
309
TABLEFORMAT_END
  1
CELLSTYLE_BEGIN
 90
        1
 91
        1
300
_TITLE
309
CELLSTYLE_END
300
CELLSTYLE
  1
TABLEFORMAT_BEGIN
 90
        5
170
     1
 91
        0
 92
        0
 62
   257
 93
        1
300
CONTENTFORMAT
  1
CONTENTFORMAT_BEGIN
 90
        0
 91
        0
 92
        4
 93
        0
300

 40
0.0
140
1.0
 94
        5
 62
     0
340
11
144
4.5
309
CONTENTFORMAT_END
171
     1
301
MARGIN
  1
CELLMARGIN_BEGIN
 40
1.5
 40
1.5
 40
1.5
 40
1.5
 40
1.5
 40
1.5
309
CELLMARGIN_END
 94
        6
 95
        1
302
GRIDFORMAT
  1
GRIDFORMAT_BEGIN
 90
        0
 91
        1
 62
     0
 92
       -2
340
14
 93
        0
 40
0.045
309
GRIDFORMAT_END
 95
        2
302
GRIDFORMAT
  1
GRIDFORMAT_BEGIN
 90
        0
 91
        1
 62
     0
 92
       -2
340
14
 93
        0
 40
0.045
309
GRIDFORMAT_END
 95
        4
302
GRIDFORMAT
  1
GRIDFORMAT_BEGIN
 90
        0
 91
        1
 62
     0
 92
       -2
340
14
 93
        0
 40
0.045
309
GRIDFORMAT_END
 95
        8
302
GRIDFORMAT
  1
GRIDFORMAT_BEGIN
 90
        0
 91
        1
 62
     0
 92
       -2
340
14
 93
        0
 40
0.045
309
GRIDFORMAT_END
 95
       16
302
GRIDFORMAT
  1
GRIDFORMAT_BEGIN
 90
        0
 91
        1
 62
     0
 92
       -2
340
14
 93
        0
 40
0.045
309
GRIDFORMAT_END
 95
       32
302
GRIDFORMAT
  1
GRIDFORMAT_BEGIN
 90
        0
 91
        1
 62
     0
 92
       -2
340
14
 93
        0
 40
0.045
309
GRIDFORMAT_END
309
TABLEFORMAT_END
  1
CELLSTYLE_BEGIN
 90
        2
 91
        1
300
_HEADER
309
CELLSTYLE_END
300
CELLSTYLE
  1
TABLEFORMAT_BEGIN
 90
        5
170
     1
 91
        0
 92
        0
 62
   257
 93
        1
300
CONTENTFORMAT
  1
CONTENTFORMAT_BEGIN
 90
        0
 91
        0
 92
        4
 93
        0
300

 40
0.0
140
1.0
 94
        2
 62
     0
340
11
144
4.5
309
CONTENTFORMAT_END
171
     1
301
MARGIN
  1
CELLMARGIN_BEGIN
 40
1.5
 40
1.5
 40
1.5
 40
1.5
 40
1.5
 40
1.5
309
CELLMARGIN_END
 94
        6
 95
        1
302
GRIDFORMAT
  1
GRIDFORMAT_BEGIN
 90
        0
 91
        1
 62
     0
 92
       -2
340
14
 93
        0
 40
0.045
309
GRIDFORMAT_END
 95
        2
302
GRIDFORMAT
  1
GRIDFORMAT_BEGIN
 90
        0
 91
        1
 62
     0
 92
       -2
340
14
 93
        0
 40
0.045
309
GRIDFORMAT_END
 95
        4
302
GRIDFORMAT
  1
GRIDFORMAT_BEGIN
 90
        0
 91
        1
 62
     0
 92
       -2
340
14
 93
        0
 40
0.045
309
GRIDFORMAT_END
 95
        8
302
GRIDFORMAT
  1
GRIDFORMAT_BEGIN
 90
        0
 91
        1
 62
     0
 92
       -2
340
14
 93
        0
 40
0.045
309
GRIDFORMAT_END
 95
       16
302
GRIDFORMAT
  1
GRIDFORMAT_BEGIN
 90
        0
 91
        1
 62
     0
 92
       -2
340
14
 93
        0
 40
0.045
309
GRIDFORMAT_END
 95
       32
302
GRIDFORMAT
  1
GRIDFORMAT_BEGIN
 90
        0
 91
        1
 62
     0
 92
       -2
340
14
 93
        0
 40
0.045
309
GRIDFORMAT_END
309
TABLEFORMAT_END
  1
CELLSTYLE_BEGIN
 90
        3
 91
        2
300
_DATA
309
CELLSTYLE_END
  0
ENDSEC
  0
EOF
