  0
SECTION
  2
HEADER
  9
$ACADVER
  1
AC1021
  9
$ACADMAINTVER
 70
    25
  9
$DWGCODEPAGE
  3
ANSI_1252
  9
$INSBASE
 10
0.0
 20
0.0
 30
0.0
  9
$EXTMIN
 10
-16.71828
 20
4.68735
 30
0.0
  9
$EXTMAX
 10
4.01184
 20
12.51921
 30
0.0
  9
$LIMMIN
 10
0.0
 20
0.0
  9
$LIMMAX
 10
12.0
 20
9.0
  9
$ORTHOMODE
 70
     0
  9
$REGENMODE
 70
     1
  9
$FILLMODE
 70
     1
  9
$QTEXTMODE
 70
     0
  9
$MIRRTEXT
 70
     1
  9
$LTSCALE
 40
1.0
  9
$ATTMODE
 70
     1
  9
$TEXTSIZE
 40
0.2
  9
$TRACEWID
 40
0.05
  9
$TEXTSTYLE
  7
Standard
  9
$CLAYER
  8
0
  9
$CELTYPE
  6
ByLayer
  9
$CECOLOR
 62
   256
  9
$CELTSCALE
 40
1.0
  9
$DISPSILH
 70
     0
  9
$DIMSCALE
 40
1.0
  9
$DIMASZ
 40
0.18
  9
$DIMEXO
 40
0.0625
  9
$DIMDLI
 40
0.38
  9
$DIMRND
 40
0.0
  9
$DIMDLE
 40
0.0
  9
$DIMEXE
 40
0.18
  9
$DIMTP
 40
0.0
  9
$DIMTM
 40
0.0
  9
$DIMTXT
 40
0.18
  9
$DIMCEN
 40
0.09
  9
$DIMTSZ
 40
0.0
  9
$DIMTOL
 70
     0
  9
$DIMLIM
 70
     0
  9
$DIMTIH
 70
     1
  9
$DIMTOH
 70
     1
  9
$DIMSE1
 70
     0
  9
$DIMSE2
 70
     0
  9
$DIMTAD
 70
     0
  9
$DIMZIN
 70
     0
  9
$DIMBLK
  1

  9
$DIMASO
 70
     1
  9
$DIMSHO
 70
     1
  9
$DIMPOST
  1

  9
$DIMAPOST
  1

  9
$DIMALT
 70
     0
  9
$DIMALTD
 70
     2
  9
$DIMALTF
 40
25.4
  9
$DIMLFAC
 40
1.0
  9
$DIMTOFL
 70
     0
  9
$DIMTVP
 40
0.0
  9
$DIMTIX
 70
     0
  9
$DIMSOXD
 70
     0
  9
$DIMSAH
 70
     0
  9
$DIMBLK1
  1

  9
$DIMBLK2
  1

  9
$DIMSTYLE
  2
Standard
  9
$DIMCLRD
 70
     0
  9
$DIMCLRE
 70
     0
  9
$DIMCLRT
 70
     0
  9
$DIMTFAC
 40
1.0
  9
$DIMGAP
 40
0.09
  9
$DIMJUST
 70
     0
  9
$DIMSD1
 70
     0
  9
$DIMSD2
 70
     0
  9
$DIMTOLJ
 70
     1
  9
$DIMTZIN
 70
     0
  9
$DIMALTZ
 70
     0
  9
$DIMALTTZ
 70
     0
  9
$DIMUPT
 70
     0
  9
$DIMDEC
 70
     4
  9
$DIMTDEC
 70
     4
  9
$DIMALTU
 70
     2
  9
$DIMALTTD
 70
     2
  9
$DIMTXSTY
  7
Standard
  9
$DIMAUNIT
 70
     0
  9
$DIMADEC
 70
     0
  9
$DIMALTRND
 40
0.0
  9
$DIMAZIN
 70
     0
  9
$DIMDSEP
 70
    46
  9
$DIMATFIT
 70
     3
  9
$DIMFRAC
 70
     0
  9
$DIMLDRBLK
  1

  9
$DIMLUNIT
 70
     2
  9
$DIMLWD
 70
    -2
  9
$DIMLWE
 70
    -2
  9
$DIMTMOVE
 70
     0
  9
$DIMFXL
 40
1.0
  9
$DIMFXLON
 70
     0
  9
$DIMJOGANG
 40
0.7853981633974483
  9
$DIMTFILL
 70
     0
  9
$DIMTFILLCLR
 70
     0
  9
$DIMARCSYM
 70
     0
  9
$DIMLTYPE
  6

  9
$DIMLTEX1
  6

  9
$DIMLTEX2
  6

  9
$LUNITS
 70
     2
  9
$LUPREC
 70
     4
  9
$SKETCHINC
 40
0.1
  9
$FILLETRAD
 40
0.5
  9
$AUNITS
 70
     0
  9
$AUPREC
 70
     0
  9
$MENU
  1
.
  9
$ELEVATION
 40
0.0
  9
$PELEVATION
 40
0.0
  9
$THICKNESS
 40
0.0
  9
$LIMCHECK
 70
     0
  9
$CHAMFERA
 40
0.5
  9
$CHAMFERB
 40
0.5
  9
$CHAMFERC
 40
1.0
  9
$CHAMFERD
 40
0.0
  9
$SKPOLY
 70
     0
  9
$TDCREATE
 40
2456615.397642905
  9
$TDUCREATE
 40
2456615.355976238
  9
$TDUPDATE
 40
2456615.397642917
  9
$TDUUPDATE
 40
2456615.35597625
  9
$TDINDWG
 40
0.0000000116
  9
$TDUSRTIMER
 40
0.0000000116
  9
$USRTIMER
 70
     1
  9
$ANGBASE
 50
0.0
  9
$ANGDIR
 70
     0
  9
$PDMODE
 70
     0
  9
$PDSIZE
 40
0.0
  9
$PLINEWID
 40
0.0
  9
$SPLFRAME
 70
     0
  9
$SPLINETYPE
 70
     6
  9
$SPLINESEGS
 70
     8
  9
$HANDSEED
  5
1C3
  9
$SURFTAB1
 70
     6
  9
$SURFTAB2
 70
     6
  9
$SURFTYPE
 70
     6
  9
$SURFU
 70
     6
  9
$SURFV
 70
     6
  9
$UCSBASE
  2

  9
$UCSNAME
  2

  9
$UCSORG
 10
0.0
 20
0.0
 30
0.0
  9
$UCSXDIR
 10
1.0
 20
0.0
 30
0.0
  9
$UCSYDIR
 10
0.0
 20
1.0
 30
0.0
  9
$UCSORTHOREF
  2

  9
$UCSORTHOVIEW
 70
     0
  9
$UCSORGTOP
 10
0.0
 20
0.0
 30
0.0
  9
$UCSORGBOTTOM
 10
0.0
 20
0.0
 30
0.0
  9
$UCSORGLEFT
 10
0.0
 20
0.0
 30
0.0
  9
$UCSORGRIGHT
 10
0.0
 20
0.0
 30
0.0
  9
$UCSORGFRONT
 10
0.0
 20
0.0
 30
0.0
  9
$UCSORGBACK
 10
0.0
 20
0.0
 30
0.0
  9
$PUCSBASE
  2

  9
$PUCSNAME
  2

  9
$PUCSORG
 10
0.0
 20
0.0
 30
0.0
  9
$PUCSXDIR
 10
1.0
 20
0.0
 30
0.0
  9
$PUCSYDIR
 10
0.0
 20
1.0
 30
0.0
  9
$PUCSORTHOREF
  2

  9
$PUCSORTHOVIEW
 70
     0
  9
$PUCSORGTOP
 10
0.0
 20
0.0
 30
0.0
  9
$PUCSORGBOTTOM
 10
0.0
 20
0.0
 30
0.0
  9
$PUCSORGLEFT
 10
0.0
 20
0.0
 30
0.0
  9
$PUCSORGRIGHT
 10
0.0
 20
0.0
 30
0.0
  9
$PUCSORGFRONT
 10
0.0
 20
0.0
 30
0.0
  9
$PUCSORGBACK
 10
0.0
 20
0.0
 30
0.0
  9
$USERI1
 70
     0
  9
$USERI2
 70
     0
  9
$USERI3
 70
     0
  9
$USERI4
 70
     0
  9
$USERI5
 70
     0
  9
$USERR1
 40
0.0
  9
$USERR2
 40
0.0
  9
$USERR3
 40
0.0
  9
$USERR4
 40
0.0
  9
$USERR5
 40
0.0
  9
$WORLDVIEW
 70
     1
  9
$SHADEDGE
 70
     3
  9
$SHADEDIF
 70
    70
  9
$TILEMODE
 70
     1
  9
$MAXACTVP
 70
    64
  9
$PINSBASE
 10
0.0
 20
0.0
 30
0.0
  9
$PLIMCHECK
 70
     0
  9
$PEXTMIN
 10
1.000000000000000E+20
 20
1.000000000000000E+20
 30
1.000000000000000E+20
  9
$PEXTMAX
 10
-1.000000000000000E+20
 20
-1.000000000000000E+20
 30
-1.000000000000000E+20
  9
$PLIMMIN
 10
0.0
 20
0.0
  9
$PLIMMAX
 10
12.0
 20
9.0
  9
$UNITMODE
 70
     0
  9
$VISRETAIN
 70
     1
  9
$PLINEGEN
 70
     0
  9
$PSLTSCALE
 70
     1
  9
$TREEDEPTH
 70
  3020
  9
$CMLSTYLE
  2
Standard
  9
$CMLJUST
 70
     0
  9
$CMLSCALE
 40
1.0
  9
$PROXYGRAPHICS
 70
     1
  9
$MEASUREMENT
 70
     0
  9
$CELWEIGHT
370
    -1
  9
$ENDCAPS
280
     0
  9
$JOINSTYLE
280
     0
  9
$LWDISPLAY
290
     0
  9
$INSUNITS
 70
     5
  9
$HYPERLINKBASE
  1

  9
$STYLESHEET
  1

  9
$XEDIT
290
     1
  9
$CEPSNTYPE
380
     0
  9
$PSTYLEMODE
290
     1
  9
$FINGERPRINTGUID
  2
{A19F0C18-7DBA-4D97-83DF-D86873A4AB9A}
  9
$VERSIONGUID
  2
{FAEB1C32-E019-11D5-929B-00C0DF256EC4}
  9
$EXTNAMES
290
     1
  9
$PSVPSCALE
 40
0.0
  9
$OLESTARTUP
290
     0
  9
$SORTENTS
280
   127
  9
$INDEXCTL
280
     0
  9
$HIDETEXT
280
     1
  9
$XCLIPFRAME
290
     0
  9
$HALOGAP
280
     0
  9
$OBSCOLOR
 70
   257
  9
$OBSLTYPE
280
     0
  9
$INTERSECTIONDISPLAY
280
     0
  9
$INTERSECTIONCOLOR
 70
   257
  9
$DIMASSOC
280
     2
  9
$PROJECTNAME
  1

  9
$CAMERADISPLAY
290
     0
  9
$LENSLENGTH
 40
50.0
  9
$CAMERAHEIGHT
 40
0.0
  9
$STEPSPERSEC
 40
2.0
  9
$STEPSIZE
 40
6.0
  9
$3DDWFPREC
 40
2.0
  9
$PSOLWIDTH
 40
0.25
  9
$PSOLHEIGHT
 40
4.0
  9
$LOFTANG1
 40
1.570796326794897
  9
$LOFTANG2
 40
1.570796326794897
  9
$LOFTMAG1
 40
0.0
  9
$LOFTMAG2
 40
0.0
  9
$LOFTPARAM
 70
     7
  9
$LOFTNORMALS
280
     1
  9
$LATITUDE
 40
37.795
  9
$LONGITUDE
 40
-122.394
  9
$NORTHDIRECTION
 40
0.0
  9
$TIMEZONE
 70
 -8000
  9
$LIGHTGLYPHDISPLAY
280
     1
  9
$TILEMODELIGHTSYNCH
280
     1
  9
$SOLIDHIST
280
     1
  9
$SHOWHIST
280
     1
  9
$DWFFRAME
280
     2
  9
$DGNFRAME
280
     2
  9
$REALWORLDSCALE
290
     1
  9
$INTERFERECOLOR
 62
   256
  9
$CSHADOW
280
     0
  9
$SHADOWPLANELOCATION
 40
0.0
  0
ENDSEC
  0
SECTION
  2
CLASSES
  0
CLASS
  1
ACDBDICTIONARYWDFLT
  2
AcDbDictionaryWithDefault
  3
ObjectDBX Classes
 90
        0
 91
        4
280
     0
281
     0
  0
CLASS
  1
VISUALSTYLE
  2
AcDbVisualStyle
  3
ObjectDBX Classes
 90
     4095
 91
        4
280
     0
281
     0
  0
CLASS
  1
MATERIAL
  2
AcDbMaterial
  3
ObjectDBX Classes
 90
     1153
 91
        4
280
     0
281
     0
  0
ENDSEC
  0
SECTION
  2
TABLES
  0
TABLE
  2
VPORT
  5
8
330
0
100
AcDbSymbolTable
 70
     1
  0
VPORT
  5
29
330
8
100
AcDbSymbolTableRecord
100
AcDbViewportTableRecord
  2
*Active
 70
     0
 10
0.0
 20
0.0
 11
1.0
 21
1.0
 12
10.42990654205607
 22
4.5
 13
0.0
 23
0.0
 14
0.5
 24
0.5
 15
0.5
 25
0.5
 16
0.0
 26
0.0
 36
1.0
 17
0.0
 27
0.0
 37
0.0
 40
9.0
 41
1.972972972850329
 42
50.0
 43
0.0
 44
0.0
 50
0.0
 51
0.0
 71
     0
 72
   100
 73
     1
 74
     3
 75
     0
 76
     0
 77
     0
 78
     0
281
     0
 65
     1
110
0.0
120
0.0
130
0.0
111
1.0
121
0.0
131
0.0
112
0.0
122
1.0
132
0.0
 79
     0
146
0.0
 60
     3
 61
     5
292
     1
282
     1
141
0.0
142
0.0
 63
   250
  0
ENDTAB
  0
TABLE
  2
LTYPE
  5
5
330
0
100
AcDbSymbolTable
 70
     1
  0
LTYPE
  5
14
330
5
100
AcDbSymbolTableRecord
100
AcDbLinetypeTableRecord
  2
ByBlock
 70
     0
  3

 72
    65
 73
     0
 40
0.0
  0
LTYPE
  5
15
330
5
100
AcDbSymbolTableRecord
100
AcDbLinetypeTableRecord
  2
ByLayer
 70
     0
  3

 72
    65
 73
     0
 40
0.0
  0
LTYPE
  5
16
330
5
100
AcDbSymbolTableRecord
100
AcDbLinetypeTableRecord
  2
Continuous
 70
     0
  3
Solid line
 72
    65
 73
     0
 40
0.0
  0
ENDTAB
  0
TABLE
  2
LAYER
  5
2
330
0
100
AcDbSymbolTable
 70
     2
  0
LAYER
  5
10
330
2
100
AcDbSymbolTableRecord
100
AcDbLayerTableRecord
  2
0
 70
     0
 62
     7
  6
Continuous
370
    -3
390
F
347
3E
  0
LAYER
  5
40
330
2
100
AcDbSymbolTableRecord
100
AcDbLayerTableRecord
  2
Ebene 1
 70
     0
 62
     7
  6
Continuous
370
    -3
390
F
347
3E
  0
ENDTAB
  0
TABLE
  2
STYLE
  5
3
330
0
100
AcDbSymbolTable
 70
     1
  0
STYLE
  5
11
330
3
100
AcDbSymbolTableRecord
100
AcDbTextStyleTableRecord
  2
Standard
 70
     0
 40
0.0
 41
1.0
 50
0.0
 71
     0
 42
0.2
  3
txt
  4

  0
ENDTAB
  0
TABLE
  2
VIEW
  5
6
330
0
100
AcDbSymbolTable
 70
     0
  0
ENDTAB
  0
TABLE
  2
UCS
  5
7
330
0
100
AcDbSymbolTable
 70
     0
  0
ENDTAB
  0
TABLE
  2
APPID
  5
9
330
0
100
AcDbSymbolTable
 70
     2
  0
APPID
  5
12
330
9
100
AcDbSymbolTableRecord
100
AcDbRegAppTableRecord
  2
ACAD
 70
     0
  0
APPID
  5
3F
330
9
100
AcDbSymbolTableRecord
100
AcDbRegAppTableRecord
  2
ODA
 70
     0
  0
ENDTAB
  0
TABLE
  2
DIMSTYLE
  5
A
330
0
100
AcDbSymbolTable
 70
     1
100
AcDbDimStyleTable
  0
DIMSTYLE
105
27
330
A
100
AcDbSymbolTableRecord
100
AcDbDimStyleTableRecord
  2
Standard
 70
     0
178
     0
340
11
  0
ENDTAB
  0
TABLE
  2
BLOCK_RECORD
  5
1
330
0
100
AcDbSymbolTable
 70
     1
  0
BLOCK_RECORD
  5
1F
330
1
100
AcDbSymbolTableRecord
100
AcDbBlockTableRecord
  2
*Model_Space
340
22
 70
     0
280
     1
281
     0
  0
BLOCK_RECORD
  5
1B
330
1
100
AcDbSymbolTableRecord
100
AcDbBlockTableRecord
  2
*Paper_Space
340
1E
 70
     0
280
     1
281
     0
  0
BLOCK_RECORD
  5
23
330
1
100
AcDbSymbolTableRecord
100
AcDbBlockTableRecord
  2
*Paper_Space0
340
26
 70
     0
280
     1
281
     0
  0
ENDTAB
  0
ENDSEC
  0
SECTION
  2
BLOCKS
  0
BLOCK
  5
20
330
1F
100
AcDbEntity
  8
0
100
AcDbBlockBegin
  2
*Model_Space
 70
     0
 10
0.0
 20
0.0
 30
0.0
  3
*Model_Space
  1

  0
ENDBLK
  5
21
330
1F
100
AcDbEntity
  8
0
100
AcDbBlockEnd
  0
BLOCK
  5
1C
330
1B
100
AcDbEntity
 67
     1
  8
0
100
AcDbBlockBegin
  2
*Paper_Space
 70
     0
 10
0.0
 20
0.0
 30
0.0
  3
*Paper_Space
  1

  0
ENDBLK
  5
1D
330
1B
100
AcDbEntity
 67
     1
  8
0
100
AcDbBlockEnd
  0
BLOCK
  5
24
330
23
100
AcDbEntity
  8
0
100
AcDbBlockBegin
  2
*Paper_Space0
 70
     0
 10
0.0
 20
0.0
 30
0.0
  3
*Paper_Space0
  1

  0
ENDBLK
  5
25
330
23
100
AcDbEntity
  8
0
100
AcDbBlockEnd
  0
ENDSEC
  0
SECTION
  2
ENTITIES
  0
SPLINE
  5
41
330
1F
100
AcDbEntity
  8
Ebene 1
100
AcDbSpline
210
0.0
220
0.0
230
1.0
 70
    11
 71
     3
 72
    48
 73
    44
 74
     0
 42
0.0000000001
 43
0.0000000001
 40
0.0
 40
0.0
 40
0.0
 40
0.0
 40
0.0833333333333333
 40
0.0833333333333333
 40
0.0833333333333333
 40
0.0833333333333333
 40
0.1666666666666667
 40
0.1666666666666667
 40
0.1666666666666667
 40
0.1666666666666667
 40
0.25
 40
0.25
 40
0.25
 40
0.25
 40
0.3333333333333333
 40
0.3333333333333333
 40
0.3333333333333333
 40
0.3333333333333333
 40
0.4166666666666667
 40
0.4166666666666667
 40
0.4166666666666667
 40
0.4166666666666667
 40
0.5
 40
0.5
 40
0.5
 40
0.5
 40
0.5833333333333334
 40
0.5833333333333334
 40
0.5833333333333334
 40
0.5833333333333334
 40
0.6666666666666666
 40
0.6666666666666666
 40
0.6666666666666666
 40
0.6666666666666666
 40
0.75
 40
0.75
 40
0.75
 40
0.75
 40
0.8333333333333334
 40
0.8333333333333334
 40
0.8333333333333334
 40
0.8333333333333334
 40
1.0
 40
1.0
 40
1.0
 40
1.0
 10
-16.60517
 20
10.76981
 30
0.0
 10
-16.60517
 20
10.76981
 30
0.0
 10
-16.60517
 20
10.82978
 30
0.0
 10
-16.60517
 20
10.82978
 30
0.0
 10
-16.60517
 20
10.82978
 30
0.0
 10
-16.60517
 20
10.82978
 30
0.0
 10
-16.71385
 20
10.82978
 30
0.0
 10
-16.71385
 20
10.82978
 30
0.0
 10
-16.71385
 20
10.82978
 30
0.0
 10
-16.71385
 20
10.82978
 30
0.0
 10
-16.71385
 20
10.85801
 30
0.0
 10
-16.71385
 20
10.85801
 30
0.0
 10
-16.71385
 20
10.85801
 30
0.0
 10
-16.71385
 20
10.85801
 30
0.0
 10
-16.59951
 20
11.02035
 30
0.0
 10
-16.59951
 20
11.02035
 30
0.0
 10
-16.59951
 20
11.02035
 30
0.0
 10
-16.59951
 20
11.02035
 30
0.0
 10
-16.57437
 20
11.02035
 30
0.0
 10
-16.57437
 20
11.02035
 30
0.0
 10
-16.57437
 20
11.02035
 30
0.0
 10
-16.57437
 20
11.02035
 30
0.0
 10
-16.57437
 20
10.85801
 30
0.0
 10
-16.57437
 20
10.85801
 30
0.0
 10
-16.57437
 20
10.85801
 30
0.0
 10
-16.57437
 20
10.85801
 30
0.0
 10
-16.54054
 20
10.85801
 30
0.0
 10
-16.54054
 20
10.85801
 30
0.0
 10
-16.54054
 20
10.85801
 30
0.0
 10
-16.54054
 20
10.85801
 30
0.0
 10
-16.54054
 20
10.82978
 30
0.0
 10
-16.54054
 20
10.82978
 30
0.0
 10
-16.54054
 20
10.82978
 30
0.0
 10
-16.54054
 20
10.82978
 30
0.0
 10
-16.57437
 20
10.82978
 30
0.0
 10
-16.57437
 20
10.82978
 30
0.0
 10
-16.57437
 20
10.82978
 30
0.0
 10
-16.57437
 20
10.82978
 30
0.0
 10
-16.57437
 20
10.76981
 30
0.0
 10
-16.57437
 20
10.76981
 30
0.0
 10
-16.57437
 20
10.76981
 30
0.0
 10
-16.57437
 20
10.76981
 30
0.0
 10
-16.60517
 20
10.76981
 30
0.0
 10
-16.60517
 20
10.76981
 30
0.0
  0
SPLINE
  5
42
330
1F
100
AcDbEntity
  8
Ebene 1
100
AcDbSpline
210
0.0
220
0.0
230
1.0
 70
    11
 71
     3
 72
    16
 73
    12
 74
     0
 42
0.0000000001
 43
0.0000000001
 40
0.0
 40
0.0
 40
0.0
 40
0.0
 40
0.25
 40
0.25
 40
0.25
 40
0.25
 40
0.5
 40
0.5
 40
0.5
 40
0.5
 40
1.0
 40
1.0
 40
1.0
 40
1.0
 10
-16.60517
 20
10.85801
 30
0.0
 10
-16.60517
 20
10.85801
 30
0.0
 10
-16.60517
 20
10.97094
 30
0.0
 10
-16.60517
 20
10.97094
 30
0.0
 10
-16.60517
 20
10.97094
 30
0.0
 10
-16.60517
 20
10.97094
 30
0.0
 10
-16.68357
 20
10.85801
 30
0.0
 10
-16.68357
 20
10.85801
 30
0.0
 10
-16.68357
 20
10.85801
 30
0.0
 10
-16.68357
 20
10.85801
 30
0.0
 10
-16.60517
 20
10.85801
 30
0.0
 10
-16.60517
 20
10.85801
 30
0.0
  0
SPLINE
  5
43
330
1F
100
AcDbEntity
  8
Ebene 1
100
AcDbSpline
210
0.0
220
0.0
230
1.0
 70
    11
 71
     3
 72
    40
 73
    36
 74
     0
 42
0.0000000001
 43
0.0000000001
 40
0.0
 40
0.0
 40
0.0
 40
0.0
 40
0.1
 40
0.1
 40
0.1
 40
0.1
 40
0.2
 40
0.2
 40
0.2
 40
0.2
 40
0.3
 40
0.3
 40
0.3
 40
0.3
 40
0.4
 40
0.4
 40
0.4
 40
0.4
 40
0.5
 40
0.5
 40
0.5
 40
0.5
 40
0.6
 40
0.6
 40
0.6
 40
0.6
 40
0.7
 40
0.7
 40
0.7
 40
0.7
 40
0.8
 40
0.8
 40
0.8
 40
0.8
 40
1.0
 40
1.0
 40
1.0
 40
1.0
 10
-16.39325
 20
10.76981
 30
0.0
 10
-16.39325
 20
10.76981
 30
0.0
 10
-16.42399
 20
10.76981
 30
0.0
 10
-16.42399
 20
10.76981
 30
0.0
 10
-16.42399
 20
10.76981
 30
0.0
 10
-16.42399
 20
10.76981
 30
0.0
 10
-16.42399
 20
10.96581
 30
0.0
 10
-16.42399
 20
10.96581
 30
0.0
 10
-16.42399
 20
10.96581
 30
0.0
 10
-16.4314
 20
10.95875
 30
0.0
 10
-16.44108
 20
10.95169
 30
0.0
 10
-16.4531
 20
10.94463
 30
0.0
 10
-16.4531
 20
10.94463
 30
0.0
 10
-16.46517
 20
10.93758
 30
0.0
 10
-16.47596
 20
10.93227
 30
0.0
 10
-16.48553
 20
10.92877
 30
0.0
 10
-16.48553
 20
10.92877
 30
0.0
 10
-16.48553
 20
10.92877
 30
0.0
 10
-16.48553
 20
10.95846
 30
0.0
 10
-16.48553
 20
10.95846
 30
0.0
 10
-16.48553
 20
10.95846
 30
0.0
 10
-16.46832
 20
10.96657
 30
0.0
 10
-16.45327
 20
10.97637
 30
0.0
 10
-16.44038
 20
10.98786
 30
0.0
 10
-16.44038
 20
10.98786
 30
0.0
 10
-16.42755
 20
10.99941
 30
0.0
 10
-16.41839
 20
11.01055
 30
0.0
 10
-16.41302
 20
11.0214
 30
0.0
 10
-16.41302
 20
11.0214
 30
0.0
 10
-16.41302
 20
11.0214
 30
0.0
 10
-16.39325
 20
11.0214
 30
0.0
 10
-16.39325
 20
11.0214
 30
0.0
 10
-16.39325
 20
11.0214
 30
0.0
 10
-16.39325
 20
11.0214
 30
0.0
 10
-16.39325
 20
10.76981
 30
0.0
 10
-16.39325
 20
10.76981
 30
0.0
  0
SPLINE
  5
44
330
1F
100
AcDbEntity
  8
Ebene 1
370
    15
100
AcDbSpline
210
0.0
220
0.0
230
1.0
 70
    24
 71
     3
 72
     8
 73
     4
 74
     0
 42
0.0000000001
 43
0.0000000001
 40
0.0
 40
0.0
 40
0.0
 40
0.0
 40
1.0
 40
1.0
 40
1.0
 40
1.0
 10
-14.80567
 20
11.2005
 30
0.0
 10
-14.80567
 20
11.2005
 30
0.0
 10
-14.80567
 20
11.25383
 30
0.0
 10
-14.80567
 20
11.25383
 30
0.0
  0
SPLINE
  5
45
330
1F
100
AcDbEntity
  8
Ebene 1
370
    15
100
AcDbSpline
210
0.0
220
0.0
230
1.0
 70
    24
 71
     3
 72
     8
 73
     4
 74
     0
 42
0.0000000001
 43
0.0000000001
 40
0.0
 40
0.0
 40
0.0
 40
0.0
 40
1.0
 40
1.0
 40
1.0
 40
1.0
 10
-15.33901
 20
11.25383
 30
0.0
 10
-15.33901
 20
11.25383
 30
0.0
 10
-15.33901
 20
11.2005
 30
0.0
 10
-15.33901
 20
11.2005
 30
0.0
  0
SPLINE
  5
46
330
1F
100
AcDbEntity
  8
Ebene 1
370
    15
100
AcDbSpline
210
0.0
220
0.0
230
1.0
 70
    24
 71
     3
 72
     8
 73
     4
 74
     0
 42
0.0000000001
 43
0.0000000001
 40
0.0
 40
0.0
 40
0.0
 40
0.0
 40
1.0
 40
1.0
 40
1.0
 40
1.0
 10
-13.20567
 20
11.2005
 30
0.0
 10
-13.20567
 20
11.2005
 30
0.0
 10
-13.20567
 20
11.25383
 30
0.0
 10
-13.20567
 20
11.25383
 30
0.0
  0
SPLINE
  5
47
330
1F
100
AcDbEntity
  8
Ebene 1
370
    15
100
AcDbSpline
210
0.0
220
0.0
230
1.0
 70
    24
 71
     3
 72
     8
 73
     4
 74
     0
 42
0.0000000001
 43
0.0000000001
 40
0.0
 40
0.0
 40
0.0
 40
0.0
 40
1.0
 40
1.0
 40
1.0
 40
1.0
 10
-13.73901
 20
11.25383
 30
0.0
 10
-13.73901
 20
11.25383
 30
0.0
 10
-13.73901
 20
11.2005
 30
0.0
 10
-13.73901
 20
11.2005
 30
0.0
  0
SPLINE
  5
48
330
1F
100
AcDbEntity
  8
Ebene 1
370
    15
100
AcDbSpline
210
0.0
220
0.0
230
1.0
 70
    24
 71
     3
 72
     8
 73
     4
 74
     0
 42
0.0000000001
 43
0.0000000001
 40
0.0
 40
0.0
 40
0.0
 40
0.0
 40
1.0
 40
1.0
 40
1.0
 40
1.0
 10
-13.20567
 20
10.46717
 30
0.0
 10
-13.20567
 20
10.46717
 30
0.0
 10
-13.20567
 20
11.2005
 30
0.0
 10
-13.20567
 20
11.2005
 30
0.0
  0
SPLINE
  5
49
330
1F
100
AcDbEntity
  8
Ebene 1
370
    15
100
AcDbSpline
210
0.0
220
0.0
230
1.0
 70
    24
 71
     3
 72
     8
 73
     4
 74
     0
 42
0.0000000001
 43
0.0000000001
 40
0.0
 40
0.0
 40
0.0
 40
0.0
 40
1.0
 40
1.0
 40
1.0
 40
1.0
 10
-13.73901
 20
11.2005
 30
0.0
 10
-13.73901
 20
11.2005
 30
0.0
 10
-13.73901
 20
10.46717
 30
0.0
 10
-13.73901
 20
10.46717
 30
0.0
  0
SPLINE
  5
4A
330
1F
100
AcDbEntity
  8
Ebene 1
370
    15
100
AcDbSpline
210
0.0
220
0.0
230
1.0
 70
    24
 71
     3
 72
     8
 73
     4
 74
     0
 42
0.0000000001
 43
0.0000000001
 40
0.0
 40
0.0
 40
0.0
 40
0.0
 40
1.0
 40
1.0
 40
1.0
 40
1.0
 10
-14.80567
 20
10.46717
 30
0.0
 10
-14.80567
 20
10.46717
 30
0.0
 10
-14.80567
 20
11.2005
 30
0.0
 10
-14.80567
 20
11.2005
 30
0.0
  0
SPLINE
  5
4B
330
1F
100
AcDbEntity
  8
Ebene 1
370
    15
100
AcDbSpline
210
0.0
220
0.0
230
1.0
 70
    24
 71
     3
 72
     8
 73
     4
 74
     0
 42
0.0000000001
 43
0.0000000001
 40
0.0
 40
0.0
 40
0.0
 40
0.0
 40
1.0
 40
1.0
 40
1.0
 40
1.0
 10
-15.33901
 20
11.2005
 30
0.0
 10
-15.33901
 20
11.2005
 30
0.0
 10
-15.33901
 20
10.46717
 30
0.0
 10
-15.33901
 20
10.46717
 30
0.0
  0
SPLINE
  5
4C
330
1F
100
AcDbEntity
  8
Ebene 1
370
    15
100
AcDbSpline
210
0.0
220
0.0
230
1.0
 70
    24
 71
     3
 72
     8
 73
     4
 74
     0
 42
0.0000000001
 43
0.0000000001
 40
0.0
 40
0.0
 40
0.0
 40
0.0
 40
1.0
 40
1.0
 40
1.0
 40
1.0
 10
-13.14946
 20
11.15383
 30
0.0
 10
-13.14946
 20
11.15383
 30
0.0
 10
-13.14946
 20
11.38717
 30
0.0
 10
-13.14946
 20
11.38717
 30
0.0
  0
SPLINE
  5
4D
330
1F
100
AcDbEntity
  8
Ebene 1
370
    15
100
AcDbSpline
210
0.0
220
0.0
230
1.0
 70
    24
 71
     3
 72
     8
 73
     4
 74
     0
 42
0.0000000001
 43
0.0000000001
 40
0.0
 40
0.0
 40
0.0
 40
0.0
 40
1.0
 40
1.0
 40
1.0
 40
1.0
 10
-15.39522
 20
11.38717
 30
0.0
 10
-15.39522
 20
11.38717
 30
0.0
 10
-15.39522
 20
11.15383
 30
0.0
 10
-15.39522
 20
11.15383
 30
0.0
  0
SPLINE
  5
4E
330
1F
100
AcDbEntity
  8
Ebene 1
370
    15
100
AcDbSpline
210
0.0
220
0.0
230
1.0
 70
    24
 71
     3
 72
     8
 73
     4
 74
     0
 42
0.0000000001
 43
0.0000000001
 40
0.0
 40
0.0
 40
0.0
 40
0.0
 40
1.0
 40
1.0
 40
1.0
 40
1.0
 10
-13.14946
 20
10.15383
 30
0.0
 10
-13.14946
 20
10.15383
 30
0.0
 10
-13.14946
 20
11.15383
 30
0.0
 10
-13.14946
 20
11.15383
 30
0.0
  0
SPLINE
  5
4F
330
1F
100
AcDbEntity
  8
Ebene 1
370
    15
100
AcDbSpline
210
0.0
220
0.0
230
1.0
 70
    24
 71
     3
 72
     8
 73
     4
 74
     0
 42
0.0000000001
 43
0.0000000001
 40
0.0
 40
0.0
 40
0.0
 40
0.0
 40
1.0
 40
1.0
 40
1.0
 40
1.0
 10
-15.39522
 20
11.15383
 30
0.0
 10
-15.39522
 20
11.15383
 30
0.0
 10
-15.39522
 20
10.15383
 30
0.0
 10
-15.39522
 20
10.15383
 30
0.0
  0
SPLINE
  5
50
330
1F
100
AcDbEntity
  8
Ebene 1
370
    15
100
AcDbSpline
210
0.0
220
0.0
230
1.0
 70
    24
 71
     3
 72
     8
 73
     4
 74
     0
 42
0.0000000001
 43
0.0000000001
 40
0.0
 40
0.0
 40
0.0
 40
0.0
 40
1.0
 40
1.0
 40
1.0
 40
1.0
 10
-15.17234
 20
11.2005
 30
0.0
 10
-15.17234
 20
11.2005
 30
0.0
 10
-15.33901
 20
11.2005
 30
0.0
 10
-15.33901
 20
11.2005
 30
0.0
  0
SPLINE
  5
51
330
1F
100
AcDbEntity
  8
Ebene 1
370
    15
100
AcDbSpline
210
0.0
220
0.0
230
1.0
 70
    24
 71
     3
 72
     8
 73
     4
 74
     0
 42
0.0000000001
 43
0.0000000001
 40
0.0
 40
0.0
 40
0.0
 40
0.0
 40
1.0
 40
1.0
 40
1.0
 40
1.0
 10
-14.80567
 20
11.2005
 30
0.0
 10
-14.80567
 20
11.2005
 30
0.0
 10
-14.97234
 20
11.2005
 30
0.0
 10
-14.97234
 20
11.2005
 30
0.0
  0
SPLINE
  5
52
330
1F
100
AcDbEntity
  8
Ebene 1
370
    15
100
AcDbSpline
210
0.0
220
0.0
230
1.0
 70
    24
 71
     3
 72
     8
 73
     4
 74
     0
 42
0.0000000001
 43
0.0000000001
 40
0.0
 40
0.0
 40
0.0
 40
0.0
 40
1.0
 40
1.0
 40
1.0
 40
1.0
 10
-13.57234
 20
11.2005
 30
0.0
 10
-13.57234
 20
11.2005
 30
0.0
 10
-13.73901
 20
11.2005
 30
0.0
 10
-13.73901
 20
11.2005
 30
0.0
  0
SPLINE
  5
53
330
1F
100
AcDbEntity
  8
Ebene 1
370
    15
100
AcDbSpline
210
0.0
220
0.0
230
1.0
 70
    24
 71
     3
 72
     8
 73
     4
 74
     0
 42
0.0000000001
 43
0.0000000001
 40
0.0
 40
0.0
 40
0.0
 40
0.0
 40
1.0
 40
1.0
 40
1.0
 40
1.0
 10
-13.20567
 20
11.2005
 30
0.0
 10
-13.20567
 20
11.2005
 30
0.0
 10
-13.37234
 20
11.2005
 30
0.0
 10
-13.37234
 20
11.2005
 30
0.0
  0
SPLINE
  5
54
330
1F
100
AcDbEntity
  8
Ebene 1
370
    15
100
AcDbSpline
210
0.0
220
0.0
230
1.0
 70
    24
 71
     3
 72
     8
 73
     4
 74
     0
 42
0.0000000001
 43
0.0000000001
 40
0.0
 40
0.0
 40
0.0
 40
0.0
 40
1.0
 40
1.0
 40
1.0
 40
1.0
 10
-13.37234
 20
11.06717
 30
0.0
 10
-13.37234
 20
11.06717
 30
0.0
 10
-13.57234
 20
11.06717
 30
0.0
 10
-13.57234
 20
11.06717
 30
0.0
  0
SPLINE
  5
55
330
1F
100
AcDbEntity
  8
Ebene 1
370
    15
100
AcDbSpline
210
0.0
220
0.0
230
1.0
 70
    24
 71
     3
 72
     8
 73
     4
 74
     0
 42
0.0000000001
 43
0.0000000001
 40
0.0
 40
0.0
 40
0.0
 40
0.0
 40
1.0
 40
1.0
 40
1.0
 40
1.0
 10
-13.57234
 20
10.6005
 30
0.0
 10
-13.57234
 20
10.6005
 30
0.0
 10
-13.37234
 20
10.6005
 30
0.0
 10
-13.37234
 20
10.6005
 30
0.0
  0
SPLINE
  5
56
330
1F
100
AcDbEntity
  8
Ebene 1
370
    15
100
AcDbSpline
210
0.0
220
0.0
230
1.0
 70
    24
 71
     3
 72
     8
 73
     4
 74
     0
 42
0.0000000001
 43
0.0000000001
 40
0.0
 40
0.0
 40
0.0
 40
0.0
 40
1.0
 40
1.0
 40
1.0
 40
1.0
 10
-13.57234
 20
11.06717
 30
0.0
 10
-13.57234
 20
11.06717
 30
0.0
 10
-13.57234
 20
10.6005
 30
0.0
 10
-13.57234
 20
10.6005
 30
0.0
  0
SPLINE
  5
57
330
1F
100
AcDbEntity
  8
Ebene 1
370
    15
100
AcDbSpline
210
0.0
220
0.0
230
1.0
 70
    24
 71
     3
 72
     8
 73
     4
 74
     0
 42
0.0000000001
 43
0.0000000001
 40
0.0
 40
0.0
 40
0.0
 40
0.0
 40
1.0
 40
1.0
 40
1.0
 40
1.0
 10
-13.37234
 20
10.6005
 30
0.0
 10
-13.37234
 20
10.6005
 30
0.0
 10
-13.37234
 20
11.06717
 30
0.0
 10
-13.37234
 20
11.06717
 30
0.0
  0
SPLINE
  5
58
330
1F
100
AcDbEntity
  8
Ebene 1
370
    15
100
AcDbSpline
210
0.0
220
0.0
230
1.0
 70
    24
 71
     3
 72
     8
 73
     4
 74
     0
 42
0.0000000001
 43
0.0000000001
 40
0.0
 40
0.0
 40
0.0
 40
0.0
 40
1.0
 40
1.0
 40
1.0
 40
1.0
 10
-13.37234
 20
10.46717
 30
0.0
 10
-13.37234
 20
10.46717
 30
0.0
 10
-13.57234
 20
10.46717
 30
0.0
 10
-13.57234
 20
10.46717
 30
0.0
  0
SPLINE
  5
59
330
1F
100
AcDbEntity
  8
Ebene 1
370
    15
100
AcDbSpline
210
0.0
220
0.0
230
1.0
 70
    24
 71
     3
 72
     8
 73
     4
 74
     0
 42
0.0000000001
 43
0.0000000001
 40
0.0
 40
0.0
 40
0.0
 40
0.0
 40
1.0
 40
1.0
 40
1.0
 40
1.0
 10
-13.57234
 20
10.46717
 30
0.0
 10
-13.57234
 20
10.46717
 30
0.0
 10
-13.57234
 20
10.6005
 30
0.0
 10
-13.57234
 20
10.6005
 30
0.0
  0
SPLINE
  5
5A
330
1F
100
AcDbEntity
  8
Ebene 1
370
    15
100
AcDbSpline
210
0.0
220
0.0
230
1.0
 70
    24
 71
     3
 72
     8
 73
     4
 74
     0
 42
0.0000000001
 43
0.0000000001
 40
0.0
 40
0.0
 40
0.0
 40
0.0
 40
1.0
 40
1.0
 40
1.0
 40
1.0
 10
-13.37234
 20
10.6005
 30
0.0
 10
-13.37234
 20
10.6005
 30
0.0
 10
-13.37234
 20
10.46717
 30
0.0
 10
-13.37234
 20
10.46717
 30
0.0
  0
SPLINE
  5
5B
330
1F
100
AcDbEntity
  8
Ebene 1
370
    15
100
AcDbSpline
210
0.0
220
0.0
230
1.0
 70
    24
 71
     3
 72
     8
 73
     4
 74
     0
 42
0.0000000001
 43
0.0000000001
 40
0.0
 40
0.0
 40
0.0
 40
0.0
 40
1.0
 40
1.0
 40
1.0
 40
1.0
 10
-13.57234
 20
11.06717
 30
0.0
 10
-13.57234
 20
11.06717
 30
0.0
 10
-13.57234
 20
11.2005
 30
0.0
 10
-13.57234
 20
11.2005
 30
0.0
  0
SPLINE
  5
5C
330
1F
100
AcDbEntity
  8
Ebene 1
370
    15
100
AcDbSpline
210
0.0
220
0.0
230
1.0
 70
    24
 71
     3
 72
     8
 73
     4
 74
     0
 42
0.0000000001
 43
0.0000000001
 40
0.0
 40
0.0
 40
0.0
 40
0.0
 40
1.0
 40
1.0
 40
1.0
 40
1.0
 10
-13.57234
 20
11.2005
 30
0.0
 10
-13.57234
 20
11.2005
 30
0.0
 10
-13.37234
 20
11.2005
 30
0.0
 10
-13.37234
 20
11.2005
 30
0.0
  0
SPLINE
  5
5D
330
1F
100
AcDbEntity
  8
Ebene 1
370
    15
100
AcDbSpline
210
0.0
220
0.0
230
1.0
 70
    24
 71
     3
 72
     8
 73
     4
 74
     0
 42
0.0000000001
 43
0.0000000001
 40
0.0
 40
0.0
 40
0.0
 40
0.0
 40
1.0
 40
1.0
 40
1.0
 40
1.0
 10
-13.37234
 20
11.2005
 30
0.0
 10
-13.37234
 20
11.2005
 30
0.0
 10
-13.37234
 20
11.06717
 30
0.0
 10
-13.37234
 20
11.06717
 30
0.0
  0
SPLINE
  5
5E
330
1F
100
AcDbEntity
  8
Ebene 1
370
    15
100
AcDbSpline
210
0.0
220
0.0
230
1.0
 70
    24
 71
     3
 72
     8
 73
     4
 74
     0
 42
0.0000000001
 43
0.0000000001
 40
0.0
 40
0.0
 40
0.0
 40
0.0
 40
1.0
 40
1.0
 40
1.0
 40
1.0
 10
-14.97234
 20
11.06717
 30
0.0
 10
-14.97234
 20
11.06717
 30
0.0
 10
-15.17234
 20
11.06717
 30
0.0
 10
-15.17234
 20
11.06717
 30
0.0
  0
SPLINE
  5
5F
330
1F
100
AcDbEntity
  8
Ebene 1
370
    15
100
AcDbSpline
210
0.0
220
0.0
230
1.0
 70
    24
 71
     3
 72
     8
 73
     4
 74
     0
 42
0.0000000001
 43
0.0000000001
 40
0.0
 40
0.0
 40
0.0
 40
0.0
 40
1.0
 40
1.0
 40
1.0
 40
1.0
 10
-14.97234
 20
10.6005
 30
0.0
 10
-14.97234
 20
10.6005
 30
0.0
 10
-14.97234
 20
11.06717
 30
0.0
 10
-14.97234
 20
11.06717
 30
0.0
  0
SPLINE
  5
60
330
1F
100
AcDbEntity
  8
Ebene 1
370
    15
100
AcDbSpline
210
0.0
220
0.0
230
1.0
 70
    24
 71
     3
 72
     8
 73
     4
 74
     0
 42
0.0000000001
 43
0.0000000001
 40
0.0
 40
0.0
 40
0.0
 40
0.0
 40
1.0
 40
1.0
 40
1.0
 40
1.0
 10
-15.17234
 20
10.6005
 30
0.0
 10
-15.17234
 20
10.6005
 30
0.0
 10
-14.97234
 20
10.6005
 30
0.0
 10
-14.97234
 20
10.6005
 30
0.0
  0
SPLINE
  5
61
330
1F
100
AcDbEntity
  8
Ebene 1
370
    15
100
AcDbSpline
210
0.0
220
0.0
230
1.0
 70
    24
 71
     3
 72
     8
 73
     4
 74
     0
 42
0.0000000001
 43
0.0000000001
 40
0.0
 40
0.0
 40
0.0
 40
0.0
 40
1.0
 40
1.0
 40
1.0
 40
1.0
 10
-15.17234
 20
11.06717
 30
0.0
 10
-15.17234
 20
11.06717
 30
0.0
 10
-15.17234
 20
10.6005
 30
0.0
 10
-15.17234
 20
10.6005
 30
0.0
  0
SPLINE
  5
62
330
1F
100
AcDbEntity
  8
Ebene 1
370
    15
100
AcDbSpline
210
0.0
220
0.0
230
1.0
 70
    24
 71
     3
 72
     8
 73
     4
 74
     0
 42
0.0000000001
 43
0.0000000001
 40
0.0
 40
0.0
 40
0.0
 40
0.0
 40
1.0
 40
1.0
 40
1.0
 40
1.0
 10
-14.97234
 20
10.6005
 30
0.0
 10
-14.97234
 20
10.6005
 30
0.0
 10
-14.97234
 20
10.46717
 30
0.0
 10
-14.97234
 20
10.46717
 30
0.0
  0
SPLINE
  5
63
330
1F
100
AcDbEntity
  8
Ebene 1
370
    15
100
AcDbSpline
210
0.0
220
0.0
230
1.0
 70
    24
 71
     3
 72
     8
 73
     4
 74
     0
 42
0.0000000001
 43
0.0000000001
 40
0.0
 40
0.0
 40
0.0
 40
0.0
 40
1.0
 40
1.0
 40
1.0
 40
1.0
 10
-14.97234
 20
10.46717
 30
0.0
 10
-14.97234
 20
10.46717
 30
0.0
 10
-15.17234
 20
10.46717
 30
0.0
 10
-15.17234
 20
10.46717
 30
0.0
  0
SPLINE
  5
64
330
1F
100
AcDbEntity
  8
Ebene 1
370
    15
100
AcDbSpline
210
0.0
220
0.0
230
1.0
 70
    24
 71
     3
 72
     8
 73
     4
 74
     0
 42
0.0000000001
 43
0.0000000001
 40
0.0
 40
0.0
 40
0.0
 40
0.0
 40
1.0
 40
1.0
 40
1.0
 40
1.0
 10
-15.17234
 20
10.46717
 30
0.0
 10
-15.17234
 20
10.46717
 30
0.0
 10
-15.17234
 20
10.6005
 30
0.0
 10
-15.17234
 20
10.6005
 30
0.0
  0
SPLINE
  5
65
330
1F
100
AcDbEntity
  8
Ebene 1
370
    15
100
AcDbSpline
210
0.0
220
0.0
230
1.0
 70
    24
 71
     3
 72
     8
 73
     4
 74
     0
 42
0.0000000001
 43
0.0000000001
 40
0.0
 40
0.0
 40
0.0
 40
0.0
 40
1.0
 40
1.0
 40
1.0
 40
1.0
 10
-15.17234
 20
11.06717
 30
0.0
 10
-15.17234
 20
11.06717
 30
0.0
 10
-15.17234
 20
11.2005
 30
0.0
 10
-15.17234
 20
11.2005
 30
0.0
  0
SPLINE
  5
66
330
1F
100
AcDbEntity
  8
Ebene 1
370
    15
100
AcDbSpline
210
0.0
220
0.0
230
1.0
 70
    24
 71
     3
 72
     8
 73
     4
 74
     0
 42
0.0000000001
 43
0.0000000001
 40
0.0
 40
0.0
 40
0.0
 40
0.0
 40
1.0
 40
1.0
 40
1.0
 40
1.0
 10
-15.17234
 20
11.2005
 30
0.0
 10
-15.17234
 20
11.2005
 30
0.0
 10
-14.97234
 20
11.2005
 30
0.0
 10
-14.97234
 20
11.2005
 30
0.0
  0
SPLINE
  5
67
330
1F
100
AcDbEntity
  8
Ebene 1
370
    15
100
AcDbSpline
210
0.0
220
0.0
230
1.0
 70
    24
 71
     3
 72
     8
 73
     4
 74
     0
 42
0.0000000001
 43
0.0000000001
 40
0.0
 40
0.0
 40
0.0
 40
0.0
 40
1.0
 40
1.0
 40
1.0
 40
1.0
 10
-14.97234
 20
11.2005
 30
0.0
 10
-14.97234
 20
11.2005
 30
0.0
 10
-14.97234
 20
11.06717
 30
0.0
 10
-14.97234
 20
11.06717
 30
0.0
  0
SPLINE
  5
68
330
1F
100
AcDbEntity
  8
Ebene 1
370
    15
100
AcDbSpline
210
0.0
220
0.0
230
1.0
 70
    24
 71
     3
 72
     8
 73
     4
 74
     0
 42
0.0000000001
 43
0.0000000001
 40
0.0
 40
0.0
 40
0.0
 40
0.0
 40
1.0
 40
1.0
 40
1.0
 40
1.0
 10
-13.57234
 20
10.46717
 30
0.0
 10
-13.57234
 20
10.46717
 30
0.0
 10
-13.73901
 20
10.46717
 30
0.0
 10
-13.73901
 20
10.46717
 30
0.0
  0
SPLINE
  5
69
330
1F
100
AcDbEntity
  8
Ebene 1
370
    15
100
AcDbSpline
210
0.0
220
0.0
230
1.0
 70
    24
 71
     3
 72
     8
 73
     4
 74
     0
 42
0.0000000001
 43
0.0000000001
 40
0.0
 40
0.0
 40
0.0
 40
0.0
 40
1.0
 40
1.0
 40
1.0
 40
1.0
 10
-13.20567
 20
10.46717
 30
0.0
 10
-13.20567
 20
10.46717
 30
0.0
 10
-13.37234
 20
10.46717
 30
0.0
 10
-13.37234
 20
10.46717
 30
0.0
  0
SPLINE
  5
6A
330
1F
100
AcDbEntity
  8
Ebene 1
370
    15
100
AcDbSpline
210
0.0
220
0.0
230
1.0
 70
    24
 71
     3
 72
     8
 73
     4
 74
     0
 42
0.0000000001
 43
0.0000000001
 40
0.0
 40
0.0
 40
0.0
 40
0.0
 40
1.0
 40
1.0
 40
1.0
 40
1.0
 10
-15.17234
 20
10.46717
 30
0.0
 10
-15.17234
 20
10.46717
 30
0.0
 10
-15.33901
 20
10.46717
 30
0.0
 10
-15.33901
 20
10.46717
 30
0.0
  0
SPLINE
  5
6B
330
1F
100
AcDbEntity
  8
Ebene 1
370
    15
100
AcDbSpline
210
0.0
220
0.0
230
1.0
 70
    24
 71
     3
 72
     8
 73
     4
 74
     0
 42
0.0000000001
 43
0.0000000001
 40
0.0
 40
0.0
 40
0.0
 40
0.0
 40
1.0
 40
1.0
 40
1.0
 40
1.0
 10
-14.80567
 20
10.46717
 30
0.0
 10
-14.80567
 20
10.46717
 30
0.0
 10
-14.97234
 20
10.46717
 30
0.0
 10
-14.97234
 20
10.46717
 30
0.0
  0
SPLINE
  5
6C
330
1F
100
AcDbEntity
  8
Ebene 1
370
    15
100
AcDbSpline
210
0.0
220
0.0
230
1.0
 70
    24
 71
     3
 72
     8
 73
     4
 74
     0
 42
0.0000000001
 43
0.0000000001
 40
0.0
 40
0.0
 40
0.0
 40
0.0
 40
1.0
 40
1.0
 40
1.0
 40
1.0
 10
-15.37624
 20
11.26543
 30
0.0
 10
-15.37624
 20
11.26543
 30
0.0
 10
-15.07234
 20
11.26543
 30
0.0
 10
-15.07234
 20
11.26543
 30
0.0
  0
SPLINE
  5
6D
330
1F
100
AcDbEntity
  8
Ebene 1
370
    15
100
AcDbSpline
210
0.0
220
0.0
230
1.0
 70
     8
 71
     3
 72
     8
 73
     4
 74
     0
 42
0.0000000001
 43
0.0000000001
 40
0.0
 40
0.0
 40
0.0
 40
0.0
 40
1.0
 40
1.0
 40
1.0
 40
1.0
 10
-15.37624
 20
11.5089
 30
0.0
 10
-15.40154
 20
11.42972
 30
0.0
 10
-15.40154
 20
11.34461
 30
0.0
 10
-15.37624
 20
11.26543
 30
0.0
  0
SPLINE
  5
6E
330
1F
100
AcDbEntity
  8
Ebene 1
370
    15
100
AcDbSpline
210
0.0
220
0.0
230
1.0
 70
    24
 71
     3
 72
     8
 73
     4
 74
     0
 42
0.0000000001
 43
0.0000000001
 40
0.0
 40
0.0
 40
0.0
 40
0.0
 40
1.0
 40
1.0
 40
1.0
 40
1.0
 10
-15.07234
 20
11.5089
 30
0.0
 10
-15.07234
 20
11.5089
 30
0.0
 10
-15.37624
 20
11.5089
 30
0.0
 10
-15.37624
 20
11.5089
 30
0.0
  0
SPLINE
  5
6F
330
1F
100
AcDbEntity
  8
Ebene 1
370
    15
100
AcDbSpline
210
0.0
220
0.0
230
1.0
 70
    24
 71
     3
 72
     8
 73
     4
 74
     0
 42
0.0000000001
 43
0.0000000001
 40
0.0
 40
0.0
 40
0.0
 40
0.0
 40
1.0
 40
1.0
 40
1.0
 40
1.0
 10
-15.07234
 20
11.5089
 30
0.0
 10
-15.07234
 20
11.5089
 30
0.0
 10
-15.07234
 20
11.26543
 30
0.0
 10
-15.07234
 20
11.26543
 30
0.0
  0
SPLINE
  5
70
330
1F
100
AcDbEntity
  8
Ebene 1
370
    15
100
AcDbSpline
210
0.0
220
0.0
230
1.0
 70
    24
 71
     3
 72
     8
 73
     4
 74
     0
 42
0.0000000001
 43
0.0000000001
 40
0.0
 40
0.0
 40
0.0
 40
0.0
 40
1.0
 40
1.0
 40
1.0
 40
1.0
 10
-15.07234
 20
11.26543
 30
0.0
 10
-15.07234
 20
11.26543
 30
0.0
 10
-13.47234
 20
11.26543
 30
0.0
 10
-13.47234
 20
11.26543
 30
0.0
  0
SPLINE
  5
71
330
1F
100
AcDbEntity
  8
Ebene 1
370
    15
100
AcDbSpline
210
0.0
220
0.0
230
1.0
 70
    24
 71
     3
 72
     8
 73
     4
 74
     0
 42
0.0000000001
 43
0.0000000001
 40
0.0
 40
0.0
 40
0.0
 40
0.0
 40
1.0
 40
1.0
 40
1.0
 40
1.0
 10
-13.47234
 20
11.5089
 30
0.0
 10
-13.47234
 20
11.5089
 30
0.0
 10
-15.07234
 20
11.5089
 30
0.0
 10
-15.07234
 20
11.5089
 30
0.0
  0
SPLINE
  5
72
330
1F
100
AcDbEntity
  8
Ebene 1
370
    15
100
AcDbSpline
210
0.0
220
0.0
230
1.0
 70
    24
 71
     3
 72
     8
 73
     4
 74
     0
 42
0.0000000001
 43
0.0000000001
 40
0.0
 40
0.0
 40
0.0
 40
0.0
 40
1.0
 40
1.0
 40
1.0
 40
1.0
 10
-13.47234
 20
11.5089
 30
0.0
 10
-13.47234
 20
11.5089
 30
0.0
 10
-13.47234
 20
11.26543
 30
0.0
 10
-13.47234
 20
11.26543
 30
0.0
  0
SPLINE
  5
73
330
1F
100
AcDbEntity
  8
Ebene 1
370
    15
100
AcDbSpline
210
0.0
220
0.0
230
1.0
 70
    24
 71
     3
 72
     8
 73
     4
 74
     0
 42
0.0000000001
 43
0.0000000001
 40
0.0
 40
0.0
 40
0.0
 40
0.0
 40
1.0
 40
1.0
 40
1.0
 40
1.0
 10
-13.47234
 20
11.26543
 30
0.0
 10
-13.47234
 20
11.26543
 30
0.0
 10
-13.16844
 20
11.26543
 30
0.0
 10
-13.16844
 20
11.26543
 30
0.0
  0
SPLINE
  5
74
330
1F
100
AcDbEntity
  8
Ebene 1
370
    15
100
AcDbSpline
210
0.0
220
0.0
230
1.0
 70
    24
 71
     3
 72
     8
 73
     4
 74
     0
 42
0.0000000001
 43
0.0000000001
 40
0.0
 40
0.0
 40
0.0
 40
0.0
 40
1.0
 40
1.0
 40
1.0
 40
1.0
 10
-13.16844
 20
11.5089
 30
0.0
 10
-13.16844
 20
11.5089
 30
0.0
 10
-13.47234
 20
11.5089
 30
0.0
 10
-13.47234
 20
11.5089
 30
0.0
  0
SPLINE
  5
75
330
1F
100
AcDbEntity
  8
Ebene 1
370
    15
100
AcDbSpline
210
0.0
220
0.0
230
1.0
 70
     8
 71
     3
 72
     8
 73
     4
 74
     0
 42
0.0000000001
 43
0.0000000001
 40
0.0
 40
0.0
 40
0.0
 40
0.0
 40
1.0
 40
1.0
 40
1.0
 40
1.0
 10
-13.16844
 20
11.26543
 30
0.0
 10
-13.14314
 20
11.34461
 30
0.0
 10
-13.14314
 20
11.42972
 30
0.0
 10
-13.16844
 20
11.5089
 30
0.0
  0
SPLINE
  5
76
330
1F
100
AcDbEntity
  8
Ebene 1
370
    15
100
AcDbSpline
210
0.0
220
0.0
230
1.0
 70
    24
 71
     3
 72
     8
 73
     4
 74
     0
 42
0.0000000001
 43
0.0000000001
 40
0.0
 40
0.0
 40
0.0
 40
0.0
 40
1.0
 40
1.0
 40
1.0
 40
1.0
 10
-13.47234
 20
11.5089
 30
0.0
 10
-13.47234
 20
11.5089
 30
0.0
 10
-13.47234
 20
11.5205
 30
0.0
 10
-13.47234
 20
11.5205
 30
0.0
  0
SPLINE
  5
77
330
1F
100
AcDbEntity
  8
Ebene 1
370
    15
100
AcDbSpline
210
0.0
220
0.0
230
1.0
 70
    24
 71
     3
 72
     8
 73
     4
 74
     0
 42
0.0000000001
 43
0.0000000001
 40
0.0
 40
0.0
 40
0.0
 40
0.0
 40
1.0
 40
1.0
 40
1.0
 40
1.0
 10
-13.47234
 20
11.5205
 30
0.0
 10
-13.47234
 20
11.5205
 30
0.0
 10
-13.18432
 20
11.5205
 30
0.0
 10
-13.18432
 20
11.5205
 30
0.0
  0
SPLINE
  5
78
330
1F
100
AcDbEntity
  8
Ebene 1
370
    15
100
AcDbSpline
210
0.0
220
0.0
230
1.0
 70
     8
 71
     3
 72
     8
 73
     4
 74
     0
 42
0.0000000001
 43
0.0000000001
 40
0.0
 40
0.0
 40
0.0
 40
0.0
 40
1.0
 40
1.0
 40
1.0
 40
1.0
 10
-13.16844
 20
11.5089
 30
0.0
 10
-13.17065
 20
11.51581
 30
0.0
 10
-13.17706
 20
11.5205
 30
0.0
 10
-13.18432
 20
11.5205
 30
0.0
  0
SPLINE
  5
79
330
1F
100
AcDbEntity
  8
Ebene 1
370
    15
100
AcDbSpline
210
0.0
220
0.0
230
1.0
 70
    24
 71
     3
 72
     8
 73
     4
 74
     0
 42
0.0000000001
 43
0.0000000001
 40
0.0
 40
0.0
 40
0.0
 40
0.0
 40
1.0
 40
1.0
 40
1.0
 40
1.0
 10
-13.18432
 20
11.25383
 30
0.0
 10
-13.18432
 20
11.25383
 30
0.0
 10
-13.47234
 20
11.25383
 30
0.0
 10
-13.47234
 20
11.25383
 30
0.0
  0
SPLINE
  5
7A
330
1F
100
AcDbEntity
  8
Ebene 1
370
    15
100
AcDbSpline
210
0.0
220
0.0
230
1.0
 70
    24
 71
     3
 72
     8
 73
     4
 74
     0
 42
0.0000000001
 43
0.0000000001
 40
0.0
 40
0.0
 40
0.0
 40
0.0
 40
1.0
 40
1.0
 40
1.0
 40
1.0
 10
-13.47234
 20
11.25383
 30
0.0
 10
-13.47234
 20
11.25383
 30
0.0
 10
-13.47234
 20
11.26543
 30
0.0
 10
-13.47234
 20
11.26543
 30
0.0
  0
SPLINE
  5
7B
330
1F
100
AcDbEntity
  8
Ebene 1
370
    15
100
AcDbSpline
210
0.0
220
0.0
230
1.0
 70
     8
 71
     3
 72
     8
 73
     4
 74
     0
 42
0.0000000001
 43
0.0000000001
 40
0.0
 40
0.0
 40
0.0
 40
0.0
 40
1.0
 40
1.0
 40
1.0
 40
1.0
 10
-13.18432
 20
11.25383
 30
0.0
 10
-13.17706
 20
11.25383
 30
0.0
 10
-13.17065
 20
11.25852
 30
0.0
 10
-13.16844
 20
11.26543
 30
0.0
  0
SPLINE
  5
7C
330
1F
100
AcDbEntity
  8
Ebene 1
370
    15
100
AcDbSpline
210
0.0
220
0.0
230
1.0
 70
     8
 71
     3
 72
     8
 73
     4
 74
     0
 42
0.0000000001
 43
0.0000000001
 40
0.0
 40
0.0
 40
0.0
 40
0.0
 40
1.0
 40
1.0
 40
1.0
 40
1.0
 10
-15.36036
 20
11.5205
 30
0.0
 10
-15.36762
 20
11.5205
 30
0.0
 10
-15.37403
 20
11.51581
 30
0.0
 10
-15.37624
 20
11.5089
 30
0.0
  0
SPLINE
  5
7D
330
1F
100
AcDbEntity
  8
Ebene 1
370
    15
100
AcDbSpline
210
0.0
220
0.0
230
1.0
 70
    24
 71
     3
 72
     8
 73
     4
 74
     0
 42
0.0000000001
 43
0.0000000001
 40
0.0
 40
0.0
 40
0.0
 40
0.0
 40
1.0
 40
1.0
 40
1.0
 40
1.0
 10
-15.36036
 20
11.5205
 30
0.0
 10
-15.36036
 20
11.5205
 30
0.0
 10
-15.07234
 20
11.5205
 30
0.0
 10
-15.07234
 20
11.5205
 30
0.0
  0
SPLINE
  5
7E
330
1F
100
AcDbEntity
  8
Ebene 1
370
    15
100
AcDbSpline
210
0.0
220
0.0
230
1.0
 70
    24
 71
     3
 72
     8
 73
     4
 74
     0
 42
0.0000000001
 43
0.0000000001
 40
0.0
 40
0.0
 40
0.0
 40
0.0
 40
1.0
 40
1.0
 40
1.0
 40
1.0
 10
-15.07234
 20
11.5089
 30
0.0
 10
-15.07234
 20
11.5089
 30
0.0
 10
-15.07234
 20
11.5205
 30
0.0
 10
-15.07234
 20
11.5205
 30
0.0
  0
SPLINE
  5
7F
330
1F
100
AcDbEntity
  8
Ebene 1
370
    15
100
AcDbSpline
210
0.0
220
0.0
230
1.0
 70
    24
 71
     3
 72
     8
 73
     4
 74
     0
 42
0.0000000001
 43
0.0000000001
 40
0.0
 40
0.0
 40
0.0
 40
0.0
 40
1.0
 40
1.0
 40
1.0
 40
1.0
 10
-15.07234
 20
11.5205
 30
0.0
 10
-15.07234
 20
11.5205
 30
0.0
 10
-13.47234
 20
11.5205
 30
0.0
 10
-13.47234
 20
11.5205
 30
0.0
  0
SPLINE
  5
80
330
1F
100
AcDbEntity
  8
Ebene 1
370
    15
100
AcDbSpline
210
0.0
220
0.0
230
1.0
 70
    24
 71
     3
 72
     8
 73
     4
 74
     0
 42
0.0000000001
 43
0.0000000001
 40
0.0
 40
0.0
 40
0.0
 40
0.0
 40
1.0
 40
1.0
 40
1.0
 40
1.0
 10
-13.47234
 20
11.25383
 30
0.0
 10
-13.47234
 20
11.25383
 30
0.0
 10
-15.07234
 20
11.25383
 30
0.0
 10
-15.07234
 20
11.25383
 30
0.0
  0
SPLINE
  5
81
330
1F
100
AcDbEntity
  8
Ebene 1
370
    15
100
AcDbSpline
210
0.0
220
0.0
230
1.0
 70
    24
 71
     3
 72
     8
 73
     4
 74
     0
 42
0.0000000001
 43
0.0000000001
 40
0.0
 40
0.0
 40
0.0
 40
0.0
 40
1.0
 40
1.0
 40
1.0
 40
1.0
 10
-15.07234
 20
11.25383
 30
0.0
 10
-15.07234
 20
11.25383
 30
0.0
 10
-15.07234
 20
11.26543
 30
0.0
 10
-15.07234
 20
11.26543
 30
0.0
  0
SPLINE
  5
82
330
1F
100
AcDbEntity
  8
Ebene 1
370
    15
100
AcDbSpline
210
0.0
220
0.0
230
1.0
 70
    24
 71
     3
 72
     8
 73
     4
 74
     0
 42
0.0000000001
 43
0.0000000001
 40
0.0
 40
0.0
 40
0.0
 40
0.0
 40
1.0
 40
1.0
 40
1.0
 40
1.0
 10
-15.07234
 20
11.25383
 30
0.0
 10
-15.07234
 20
11.25383
 30
0.0
 10
-15.36036
 20
11.25383
 30
0.0
 10
-15.36036
 20
11.25383
 30
0.0
  0
SPLINE
  5
83
330
1F
100
AcDbEntity
  8
Ebene 1
370
    15
100
AcDbSpline
210
0.0
220
0.0
230
1.0
 70
     8
 71
     3
 72
     8
 73
     4
 74
     0
 42
0.0000000001
 43
0.0000000001
 40
0.0
 40
0.0
 40
0.0
 40
0.0
 40
1.0
 40
1.0
 40
1.0
 40
1.0
 10
-15.37624
 20
11.26543
 30
0.0
 10
-15.37403
 20
11.25852
 30
0.0
 10
-15.36762
 20
11.25383
 30
0.0
 10
-15.36036
 20
11.25383
 30
0.0
  0
SPLINE
  5
84
330
1F
100
AcDbEntity
  8
Ebene 1
370
    15
100
AcDbSpline
210
0.0
220
0.0
230
1.0
 70
    24
 71
     3
 72
     8
 73
     4
 74
     0
 42
0.0000000001
 43
0.0000000001
 40
0.0
 40
0.0
 40
0.0
 40
0.0
 40
1.0
 40
1.0
 40
1.0
 40
1.0
 10
-13.16844
 20
11.26543
 30
0.0
 10
-13.16844
 20
11.26543
 30
0.0
 10
-13.16844
 20
11.15383
 30
0.0
 10
-13.16844
 20
11.15383
 30
0.0
  0
SPLINE
  5
85
330
1F
100
AcDbEntity
  8
Ebene 1
370
    15
100
AcDbSpline
210
0.0
220
0.0
230
1.0
 70
    24
 71
     3
 72
     8
 73
     4
 74
     0
 42
0.0000000001
 43
0.0000000001
 40
0.0
 40
0.0
 40
0.0
 40
0.0
 40
1.0
 40
1.0
 40
1.0
 40
1.0
 10
-15.36036
 20
11.25383
 30
0.0
 10
-15.36036
 20
11.25383
 30
0.0
 10
-15.36036
 20
11.16374
 30
0.0
 10
-15.36036
 20
11.16374
 30
0.0
  0
SPLINE
  5
86
330
1F
100
AcDbEntity
  8
Ebene 1
370
    15
100
AcDbSpline
210
0.0
220
0.0
230
1.0
 70
     8
 71
     3
 72
     8
 73
     4
 74
     0
 42
0.0000000001
 43
0.0000000001
 40
0.0
 40
0.0
 40
0.0
 40
0.0
 40
1.0
 40
1.0
 40
1.0
 40
1.0
 10
-15.36036
 20
11.16374
 30
0.0
 10
-15.36053
 20
11.16367
 30
0.0
 10
-15.36071
 20
11.16362
 30
0.0
 10
-15.36089
 20
11.1636
 30
0.0
  0
SPLINE
  5
87
330
1F
100
AcDbEntity
  8
Ebene 1
370
    15
100
AcDbSpline
210
0.0
220
0.0
230
1.0
 70
     8
 71
     3
 72
    20
 73
    16
 74
     0
 42
0.0000000001
 43
0.0000000001
 40
0.0
 40
0.0
 40
0.0
 40
0.0
 40
0.2
 40
0.2
 40
0.2
 40
0.2
 40
0.4
 40
0.4
 40
0.4
 40
0.4
 40
0.6
 40
0.6
 40
0.6
 40
0.6
 40
1.0
 40
1.0
 40
1.0
 40
1.0
 10
-15.37608
 20
11.15615
 30
0.0
 10
-15.37601
 20
11.1571
 30
0.0
 10
-15.37589
 20
11.15801
 30
0.0
 10
-15.37568
 20
11.15878
 30
0.0
 10
-15.37568
 20
11.15878
 30
0.0
 10
-15.37546
 20
11.15955
 30
0.0
 10
-15.37514
 20
11.16018
 30
0.0
 10
-15.37473
 20
11.16065
 30
0.0
 10
-15.37473
 20
11.16065
 30
0.0
 10
-15.37391
 20
11.16158
 30
0.0
 10
-15.37272
 20
11.162
 30
0.0
 10
-15.3713
 20
11.16233
 30
0.0
 10
-15.3713
 20
11.16233
 30
0.0
 10
-15.36846
 20
11.16299
 30
0.0
 10
-15.36475
 20
11.16324
 30
0.0
 10
-15.36089
 20
11.1636
 30
0.0
  0
SPLINE
  5
88
330
1F
100
AcDbEntity
  8
Ebene 1
370
    15
100
AcDbSpline
210
0.0
220
0.0
230
1.0
 70
     8
 71
     3
 72
    12
 73
     8
 74
     0
 42
0.0000000001
 43
0.0000000001
 40
0.0
 40
0.0
 40
0.0
 40
0.0
 40
0.3333333333333333
 40
0.3333333333333333
 40
0.3333333333333333
 40
0.3333333333333333
 40
1.0
 40
1.0
 40
1.0
 40
1.0
 10
-15.37608
 20
11.15615
 30
0.0
 10
-15.37612
 20
11.15554
 30
0.0
 10
-15.37617
 20
11.15493
 30
0.0
 10
-15.37621
 20
11.15432
 30
0.0
 10
-15.37621
 20
11.15432
 30
0.0
 10
-15.37622
 20
11.15416
 30
0.0
 10
-15.37623
 20
11.154
 30
0.0
 10
-15.37624
 20
11.15383
 30
0.0
  0
SPLINE
  5
89
330
1F
100
AcDbEntity
  8
Ebene 1
370
    15
100
AcDbSpline
210
0.0
220
0.0
230
1.0
 70
    24
 71
     3
 72
     8
 73
     4
 74
     0
 42
0.0000000001
 43
0.0000000001
 40
0.0
 40
0.0
 40
0.0
 40
0.0
 40
1.0
 40
1.0
 40
1.0
 40
1.0
 10
-15.37624
 20
11.15383
 30
0.0
 10
-15.37624
 20
11.15383
 30
0.0
 10
-15.37624
 20
11.26543
 30
0.0
 10
-15.37624
 20
11.26543
 30
0.0
  0
SPLINE
  5
8A
330
1F
100
AcDbEntity
  8
Ebene 1
370
    15
100
AcDbSpline
210
0.0
220
0.0
230
1.0
 70
     8
 71
     3
 72
    20
 73
    16
 74
     0
 42
0.0000000001
 43
0.0000000001
 40
0.0
 40
0.0
 40
0.0
 40
0.0
 40
0.2
 40
0.2
 40
0.2
 40
0.2
 40
0.4
 40
0.4
 40
0.4
 40
0.4
 40
0.6
 40
0.6
 40
0.6
 40
0.6
 40
1.0
 40
1.0
 40
1.0
 40
1.0
 10
-13.1686
 20
11.15615
 30
0.0
 10
-13.16867
 20
11.1571
 30
0.0
 10
-13.16879
 20
11.15801
 30
0.0
 10
-13.169
 20
11.15878
 30
0.0
 10
-13.169
 20
11.15878
 30
0.0
 10
-13.16922
 20
11.15955
 30
0.0
 10
-13.16954
 20
11.16018
 30
0.0
 10
-13.16995
 20
11.16065
 30
0.0
 10
-13.16995
 20
11.16065
 30
0.0
 10
-13.17077
 20
11.16158
 30
0.0
 10
-13.17196
 20
11.162
 30
0.0
 10
-13.17338
 20
11.16233
 30
0.0
 10
-13.17338
 20
11.16233
 30
0.0
 10
-13.17622
 20
11.16299
 30
0.0
 10
-13.17993
 20
11.16324
 30
0.0
 10
-13.18379
 20
11.1636
 30
0.0
  0
SPLINE
  5
8B
330
1F
100
AcDbEntity
  8
Ebene 1
370
    15
100
AcDbSpline
210
0.0
220
0.0
230
1.0
 70
     8
 71
     3
 72
     8
 73
     4
 74
     0
 42
0.0000000001
 43
0.0000000001
 40
0.0
 40
0.0
 40
0.0
 40
0.0
 40
1.0
 40
1.0
 40
1.0
 40
1.0
 10
-13.18379
 20
11.1636
 30
0.0
 10
-13.18397
 20
11.16362
 30
0.0
 10
-13.18415
 20
11.16367
 30
0.0
 10
-13.18432
 20
11.16374
 30
0.0
  0
SPLINE
  5
8C
330
1F
100
AcDbEntity
  8
Ebene 1
370
    15
100
AcDbSpline
210
0.0
220
0.0
230
1.0
 70
    24
 71
     3
 72
     8
 73
     4
 74
     0
 42
0.0000000001
 43
0.0000000001
 40
0.0
 40
0.0
 40
0.0
 40
0.0
 40
1.0
 40
1.0
 40
1.0
 40
1.0
 10
-13.18432
 20
11.16374
 30
0.0
 10
-13.18432
 20
11.16374
 30
0.0
 10
-13.18432
 20
11.25383
 30
0.0
 10
-13.18432
 20
11.25383
 30
0.0
  0
SPLINE
  5
8D
330
1F
100
AcDbEntity
  8
Ebene 1
370
    15
100
AcDbSpline
210
0.0
220
0.0
230
1.0
 70
     8
 71
     3
 72
    12
 73
     8
 74
     0
 42
0.0000000001
 43
0.0000000001
 40
0.0
 40
0.0
 40
0.0
 40
0.0
 40
0.3333333333333333
 40
0.3333333333333333
 40
0.3333333333333333
 40
0.3333333333333333
 40
1.0
 40
1.0
 40
1.0
 40
1.0
 10
-13.1686
 20
11.15615
 30
0.0
 10
-13.16856
 20
11.15554
 30
0.0
 10
-13.16851
 20
11.15493
 30
0.0
 10
-13.16847
 20
11.15432
 30
0.0
 10
-13.16847
 20
11.15432
 30
0.0
 10
-13.16846
 20
11.15416
 30
0.0
 10
-13.16845
 20
11.154
 30
0.0
 10
-13.16844
 20
11.15383
 30
0.0
  0
SPLINE
  5
8E
330
1F
100
AcDbEntity
  8
Ebene 1
370
    15
100
AcDbSpline
210
0.0
220
0.0
230
1.0
 70
     8
 71
     3
 72
    12
 73
     8
 74
     0
 42
0.0000000001
 43
0.0000000001
 40
0.0
 40
0.0
 40
0.0
 40
0.0
 40
0.3333333333333333
 40
0.3333333333333333
 40
0.3333333333333333
 40
0.3333333333333333
 40
1.0
 40
1.0
 40
1.0
 40
1.0
 10
-13.18432
 20
11.16374
 30
0.0
 10
-13.18679
 20
11.1647
 30
0.0
 10
-13.18926
 20
11.16566
 30
0.0
 10
-13.19178
 20
11.16642
 30
0.0
 10
-13.19178
 20
11.16642
 30
0.0
 10
-13.19629
 20
11.16778
 30
0.0
 10
-13.20098
 20
11.1685
 30
0.0
 10
-13.20567
 20
11.16922
 30
0.0
  0
SPLINE
  5
8F
330
1F
100
AcDbEntity
  8
Ebene 1
370
    15
100
AcDbSpline
210
0.0
220
0.0
230
1.0
 70
     8
 71
     3
 72
    16
 73
    12
 74
     0
 42
0.0000000001
 43
0.0000000001
 40
0.0
 40
0.0
 40
0.0
 40
0.0
 40
0.25
 40
0.25
 40
0.25
 40
0.25
 40
0.5
 40
0.5
 40
0.5
 40
0.5
 40
1.0
 40
1.0
 40
1.0
 40
1.0
 10
-13.73527
 20
11.20786
 30
0.0
 10
-13.83699
 20
11.21147
 30
0.0
 10
-13.93872
 20
11.21508
 30
0.0
 10
-14.04049
 20
11.217
 30
0.0
 10
-14.04049
 20
11.217
 30
0.0
 10
-14.21502
 20
11.22029
 30
0.0
 10
-14.38968
 20
11.21862
 30
0.0
 10
-14.56423
 20
11.21527
 30
0.0
 10
-14.56423
 20
11.21527
 30
0.0
 10
-14.64473
 20
11.21373
 30
0.0
 10
-14.7252
 20
11.21183
 30
0.0
 10
-14.80567
 20
11.20993
 30
0.0
  0
SPLINE
  5
90
330
1F
100
AcDbEntity
  8
Ebene 1
370
    15
100
AcDbSpline
210
0.0
220
0.0
230
1.0
 70
     8
 71
     3
 72
    24
 73
    20
 74
     0
 42
0.0000000001
 43
0.0000000001
 40
0.0
 40
0.0
 40
0.0
 40
0.0
 40
0.1666666666666667
 40
0.1666666666666667
 40
0.1666666666666667
 40
0.1666666666666667
 40
0.3333333333333333
 40
0.3333333333333333
 40
0.3333333333333333
 40
0.3333333333333333
 40
0.5
 40
0.5
 40
0.5
 40
0.5
 40
0.6666666666666666
 40
0.6666666666666666
 40
0.6666666666666666
 40
0.6666666666666666
 40
1.0
 40
1.0
 40
1.0
 40
1.0
 10
-15.33901
 20
11.17017
 30
0.0
 10
-15.33901
 20
11.17017
 30
0.0
 10
-15.34227
 20
11.16943
 30
0.0
 10
-15.34227
 20
11.16943
 30
0.0
 10
-15.34227
 20
11.16943
 30
0.0
 10
-15.34227
 20
11.16943
 30
0.0
 10
-15.35311
 20
11.16635
 30
0.0
 10
-15.35311
 20
11.16635
 30
0.0
 10
-15.35311
 20
11.16635
 30
0.0
 10
-15.35311
 20
11.16635
 30
0.0
 10
-15.36035
 20
11.16374
 30
0.0
 10
-15.36035
 20
11.16374
 30
0.0
 10
-15.36035
 20
11.16374
 30
0.0
 10
-15.36035
 20
11.16374
 30
0.0
 10
-15.36036
 20
11.16374
 30
0.0
 10
-15.36036
 20
11.16374
 30
0.0
 10
-15.36036
 20
11.16374
 30
0.0
 10
-15.36036
 20
11.16374
 30
0.0
 10
-15.36036
 20
11.16374
 30
0.0
 10
-15.36036
 20
11.16374
 30
0.0
  0
SPLINE
  5
91
330
1F
100
AcDbEntity
  8
Ebene 1
370
    15
100
AcDbSpline
210
0.0
220
0.0
230
1.0
 70
    24
 71
     3
 72
     8
 73
     4
 74
     0
 42
0.0000000001
 43
0.0000000001
 40
0.0
 40
0.0
 40
0.0
 40
0.0
 40
1.0
 40
1.0
 40
1.0
 40
1.0
 10
-13.18379
 20
10.15383
 30
0.0
 10
-13.18379
 20
10.15383
 30
0.0
 10
-13.18379
 20
11.1636
 30
0.0
 10
-13.18379
 20
11.1636
 30
0.0
  0
SPLINE
  5
92
330
1F
100
AcDbEntity
  8
Ebene 1
370
    15
100
AcDbSpline
210
0.0
220
0.0
230
1.0
 70
    24
 71
     3
 72
     8
 73
     4
 74
     0
 42
0.0000000001
 43
0.0000000001
 40
0.0
 40
0.0
 40
0.0
 40
0.0
 40
1.0
 40
1.0
 40
1.0
 40
1.0
 10
-15.36089
 20
11.1636
 30
0.0
 10
-15.36089
 20
11.1636
 30
0.0
 10
-15.36089
 20
10.15383
 30
0.0
 10
-15.36089
 20
10.15383
 30
0.0
  0
SPLINE
  5
93
330
1F
100
AcDbEntity
  8
Ebene 1
370
    15
100
AcDbSpline
210
0.0
220
0.0
230
1.0
 70
    24
 71
     3
 72
     8
 73
     4
 74
     0
 42
0.0000000001
 43
0.0000000001
 40
0.0
 40
0.0
 40
0.0
 40
0.0
 40
1.0
 40
1.0
 40
1.0
 40
1.0
 10
-13.18379
 20
10.15383
 30
0.0
 10
-13.18379
 20
10.15383
 30
0.0
 10
-15.36089
 20
10.15383
 30
0.0
 10
-15.36089
 20
10.15383
 30
0.0
  0
SPLINE
  5
94
330
1F
100
AcDbEntity
  8
Ebene 1
370
    15
100
AcDbSpline
210
0.0
220
0.0
230
1.0
 70
    24
 71
     3
 72
     8
 73
     4
 74
     0
 42
0.0000000001
 43
0.0000000001
 40
0.0
 40
0.0
 40
0.0
 40
0.0
 40
1.0
 40
1.0
 40
1.0
 40
1.0
 10
-13.1686
 20
11.15615
 30
0.0
 10
-13.1686
 20
11.15615
 30
0.0
 10
-13.1686
 20
10.15383
 30
0.0
 10
-13.1686
 20
10.15383
 30
0.0
  0
SPLINE
  5
95
330
1F
100
AcDbEntity
  8
Ebene 1
370
    15
100
AcDbSpline
210
0.0
220
0.0
230
1.0
 70
    24
 71
     3
 72
     8
 73
     4
 74
     0
 42
0.0000000001
 43
0.0000000001
 40
0.0
 40
0.0
 40
0.0
 40
0.0
 40
1.0
 40
1.0
 40
1.0
 40
1.0
 10
-13.1686
 20
10.15383
 30
0.0
 10
-13.1686
 20
10.15383
 30
0.0
 10
-13.18379
 20
10.15383
 30
0.0
 10
-13.18379
 20
10.15383
 30
0.0
  0
SPLINE
  5
96
330
1F
100
AcDbEntity
  8
Ebene 1
370
    15
100
AcDbSpline
210
0.0
220
0.0
230
1.0
 70
    24
 71
     3
 72
     8
 73
     4
 74
     0
 42
0.0000000001
 43
0.0000000001
 40
0.0
 40
0.0
 40
0.0
 40
0.0
 40
1.0
 40
1.0
 40
1.0
 40
1.0
 10
-15.37608
 20
10.15383
 30
0.0
 10
-15.37608
 20
10.15383
 30
0.0
 10
-15.37608
 20
11.15615
 30
0.0
 10
-15.37608
 20
11.15615
 30
0.0
  0
SPLINE
  5
97
330
1F
100
AcDbEntity
  8
Ebene 1
370
    15
100
AcDbSpline
210
0.0
220
0.0
230
1.0
 70
    24
 71
     3
 72
     8
 73
     4
 74
     0
 42
0.0000000001
 43
0.0000000001
 40
0.0
 40
0.0
 40
0.0
 40
0.0
 40
1.0
 40
1.0
 40
1.0
 40
1.0
 10
-15.36089
 20
10.15383
 30
0.0
 10
-15.36089
 20
10.15383
 30
0.0
 10
-15.37608
 20
10.15383
 30
0.0
 10
-15.37608
 20
10.15383
 30
0.0
  0
SPLINE
  5
98
330
1F
100
AcDbEntity
  8
Ebene 1
370
    15
100
AcDbSpline
210
0.0
220
0.0
230
1.0
 70
    24
 71
     3
 72
     8
 73
     4
 74
     0
 42
0.0000000001
 43
0.0000000001
 40
0.0
 40
0.0
 40
0.0
 40
0.0
 40
1.0
 40
1.0
 40
1.0
 40
1.0
 10
-13.14946
 20
10.15383
 30
0.0
 10
-13.14946
 20
10.15383
 30
0.0
 10
-13.1686
 20
10.15383
 30
0.0
 10
-13.1686
 20
10.15383
 30
0.0
  0
SPLINE
  5
99
330
1F
100
AcDbEntity
  8
Ebene 1
370
    15
100
AcDbSpline
210
0.0
220
0.0
230
1.0
 70
    24
 71
     3
 72
     8
 73
     4
 74
     0
 42
0.0000000001
 43
0.0000000001
 40
0.0
 40
0.0
 40
0.0
 40
0.0
 40
1.0
 40
1.0
 40
1.0
 40
1.0
 10
-15.39522
 20
10.15383
 30
0.0
 10
-15.39522
 20
10.15383
 30
0.0
 10
-15.37608
 20
10.15383
 30
0.0
 10
-15.37608
 20
10.15383
 30
0.0
  0
SPLINE
  5
9A
330
1F
100
AcDbEntity
  8
Ebene 1
 62
     8
370
    15
100
AcDbSpline
210
0.0
220
0.0
230
1.0
 70
    24
 71
     3
 72
     8
 73
     4
 74
     0
 42
0.0000000001
 43
0.0000000001
 40
0.0
 40
0.0
 40
0.0
 40
0.0
 40
1.0
 40
1.0
 40
1.0
 40
1.0
 10
-13.14946
 20
11.15383
 30
0.0
 10
-13.14946
 20
11.15383
 30
0.0
 10
-13.16844
 20
11.15383
 30
0.0
 10
-13.16844
 20
11.15383
 30
0.0
  0
SPLINE
  5
9B
330
1F
100
AcDbEntity
  8
Ebene 1
 62
     8
370
    15
100
AcDbSpline
210
0.0
220
0.0
230
1.0
 70
    24
 71
     3
 72
     8
 73
     4
 74
     0
 42
0.0000000001
 43
0.0000000001
 40
0.0
 40
0.0
 40
0.0
 40
0.0
 40
1.0
 40
1.0
 40
1.0
 40
1.0
 10
-15.39522
 20
11.15383
 30
0.0
 10
-15.39522
 20
11.15383
 30
0.0
 10
-15.37624
 20
11.15383
 30
0.0
 10
-15.37624
 20
11.15383
 30
0.0
  0
SPLINE
  5
9C
330
1F
100
AcDbEntity
  8
Ebene 1
100
AcDbSpline
210
0.0
220
0.0
230
1.0
 70
    27
 71
     3
 72
    12
 73
     8
 74
     0
 42
0.0000000001
 43
0.0000000001
 40
0.0
 40
0.0
 40
0.0
 40
0.0
 40
0.3333333333333333
 40
0.3333333333333333
 40
0.3333333333333333
 40
0.3333333333333333
 40
1.0
 40
1.0
 40
1.0
 40
1.0
 10
-16.1994
 20
11.5205
 30
0.0
 10
-16.1994
 20
11.5205
 30
0.0
 10
-16.2502
 20
11.8507
 30
0.0
 10
-16.2502
 20
11.8507
 30
0.0
 10
-16.2502
 20
11.8507
 30
0.0
 10
-16.2502
 20
11.8507
 30
0.0
 10
-16.1994
 20
11.5205
 30
0.0
 10
-16.1994
 20
11.5205
 30
0.0
  0
SPLINE
  5
9D
330
1F
100
AcDbEntity
  8
Ebene 1
100
AcDbSpline
210
0.0
220
0.0
230
1.0
 70
     8
 71
     3
 72
    12
 73
     8
 74
     0
 42
0.0000000001
 43
0.0000000001
 40
0.0
 40
0.0
 40
0.0
 40
0.0
 40
0.3333333333333333
 40
0.3333333333333333
 40
0.3333333333333333
 40
0.3333333333333333
 40
1.0
 40
1.0
 40
1.0
 40
1.0
 10
-16.2502
 20
11.8507
 30
0.0
 10
-16.2502
 20
11.8507
 30
0.0
 10
-16.1486
 20
11.8507
 30
0.0
 10
-16.1486
 20
11.8507
 30
0.0
 10
-16.1486
 20
11.8507
 30
0.0
 10
-16.1486
 20
11.8507
 30
0.0
 10
-16.1994
 20
11.5205
 30
0.0
 10
-16.1994
 20
11.5205
 30
0.0
  0
SPLINE
  5
9E
330
1F
100
AcDbEntity
  8
Ebene 1
370
     9
100
AcDbSpline
210
0.0
220
0.0
230
1.0
 70
    24
 71
     3
 72
     8
 73
     4
 74
     0
 42
0.0000000001
 43
0.0000000001
 40
0.0
 40
0.0
 40
0.0
 40
0.0
 40
1.0
 40
1.0
 40
1.0
 40
1.0
 10
-16.1994
 20
11.5205
 30
0.0
 10
-16.1994
 20
11.5205
 30
0.0
 10
-16.2502
 20
11.8507
 30
0.0
 10
-16.2502
 20
11.8507
 30
0.0
  0
SPLINE
  5
9F
330
1F
100
AcDbEntity
  8
Ebene 1
370
     9
100
AcDbSpline
210
0.0
220
0.0
230
1.0
 70
     8
 71
     3
 72
    12
 73
     8
 74
     0
 42
0.0000000001
 43
0.0000000001
 40
0.0
 40
0.0
 40
0.0
 40
0.0
 40
0.3333333333333333
 40
0.3333333333333333
 40
0.3333333333333333
 40
0.3333333333333333
 40
1.0
 40
1.0
 40
1.0
 40
1.0
 10
-16.2502
 20
11.8507
 30
0.0
 10
-16.2502
 20
11.8507
 30
0.0
 10
-16.1486
 20
11.8507
 30
0.0
 10
-16.1486
 20
11.8507
 30
0.0
 10
-16.1486
 20
11.8507
 30
0.0
 10
-16.1486
 20
11.8507
 30
0.0
 10
-16.1994
 20
11.5205
 30
0.0
 10
-16.1994
 20
11.5205
 30
0.0
  0
SPLINE
  5
A0
330
1F
100
AcDbEntity
  8
Ebene 1
100
AcDbSpline
210
0.0
220
0.0
230
1.0
 70
    27
 71
     3
 72
    12
 73
     8
 74
     0
 42
0.0000000001
 43
0.0000000001
 40
0.0
 40
0.0
 40
0.0
 40
0.0
 40
0.3333333333333333
 40
0.3333333333333333
 40
0.3333333333333333
 40
0.3333333333333333
 40
1.0
 40
1.0
 40
1.0
 40
1.0
 10
-16.1994
 20
10.15383
 30
0.0
 10
-16.1994
 20
10.15383
 30
0.0
 10
-16.1486
 20
9.82363
 30
0.0
 10
-16.1486
 20
9.82363
 30
0.0
 10
-16.1486
 20
9.82363
 30
0.0
 10
-16.1486
 20
9.82363
 30
0.0
 10
-16.1994
 20
10.15383
 30
0.0
 10
-16.1994
 20
10.15383
 30
0.0
  0
SPLINE
  5
A1
330
1F
100
AcDbEntity
  8
Ebene 1
100
AcDbSpline
210
0.0
220
0.0
230
1.0
 70
     8
 71
     3
 72
    12
 73
     8
 74
     0
 42
0.0000000001
 43
0.0000000001
 40
0.0
 40
0.0
 40
0.0
 40
0.0
 40
0.3333333333333333
 40
0.3333333333333333
 40
0.3333333333333333
 40
0.3333333333333333
 40
1.0
 40
1.0
 40
1.0
 40
1.0
 10
-16.1486
 20
9.82363
 30
0.0
 10
-16.1486
 20
9.82363
 30
0.0
 10
-16.2502
 20
9.82363
 30
0.0
 10
-16.2502
 20
9.82363
 30
0.0
 10
-16.2502
 20
9.82363
 30
0.0
 10
-16.2502
 20
9.82363
 30
0.0
 10
-16.1994
 20
10.15383
 30
0.0
 10
-16.1994
 20
10.15383
 30
0.0
  0
SPLINE
  5
A2
330
1F
100
AcDbEntity
  8
Ebene 1
370
     9
100
AcDbSpline
210
0.0
220
0.0
230
1.0
 70
    24
 71
     3
 72
     8
 73
     4
 74
     0
 42
0.0000000001
 43
0.0000000001
 40
0.0
 40
0.0
 40
0.0
 40
0.0
 40
1.0
 40
1.0
 40
1.0
 40
1.0
 10
-16.1994
 20
10.15383
 30
0.0
 10
-16.1994
 20
10.15383
 30
0.0
 10
-16.1486
 20
9.82363
 30
0.0
 10
-16.1486
 20
9.82363
 30
0.0
  0
SPLINE
  5
A3
330
1F
100
AcDbEntity
  8
Ebene 1
370
     9
100
AcDbSpline
210
0.0
220
0.0
230
1.0
 70
     8
 71
     3
 72
    12
 73
     8
 74
     0
 42
0.0000000001
 43
0.0000000001
 40
0.0
 40
0.0
 40
0.0
 40
0.0
 40
0.3333333333333333
 40
0.3333333333333333
 40
0.3333333333333333
 40
0.3333333333333333
 40
1.0
 40
1.0
 40
1.0
 40
1.0
 10
-16.1486
 20
9.82363
 30
0.0
 10
-16.1486
 20
9.82363
 30
0.0
 10
-16.2502
 20
9.82363
 30
0.0
 10
-16.2502
 20
9.82363
 30
0.0
 10
-16.2502
 20
9.82363
 30
0.0
 10
-16.2502
 20
9.82363
 30
0.0
 10
-16.1994
 20
10.15383
 30
0.0
 10
-16.1994
 20
10.15383
 30
0.0
  0
SPLINE
  5
A4
330
1F
100
AcDbEntity
  8
Ebene 1
370
     9
100
AcDbSpline
210
0.0
220
0.0
230
1.0
 70
    24
 71
     3
 72
     8
 73
     4
 74
     0
 42
0.0000000001
 43
0.0000000001
 40
0.0
 40
0.0
 40
0.0
 40
0.0
 40
1.0
 40
1.0
 40
1.0
 40
1.0
 10
-15.17234
 20
11.5205
 30
0.0
 10
-15.17234
 20
11.5205
 30
0.0
 10
-16.2994
 20
11.5205
 30
0.0
 10
-16.2994
 20
11.5205
 30
0.0
  0
SPLINE
  5
A5
330
1F
100
AcDbEntity
  8
Ebene 1
370
     9
100
AcDbSpline
210
0.0
220
0.0
230
1.0
 70
    24
 71
     3
 72
     8
 73
     4
 74
     0
 42
0.0000000001
 43
0.0000000001
 40
0.0
 40
0.0
 40
0.0
 40
0.0
 40
1.0
 40
1.0
 40
1.0
 40
1.0
 10
-15.46089
 20
10.15383
 30
0.0
 10
-15.46089
 20
10.15383
 30
0.0
 10
-16.2994
 20
10.15383
 30
0.0
 10
-16.2994
 20
10.15383
 30
0.0
  0
SPLINE
  5
A6
330
1F
100
AcDbEntity
  8
Ebene 1
370
     9
100
AcDbSpline
210
0.0
220
0.0
230
1.0
 70
    24
 71
     3
 72
     8
 73
     4
 74
     0
 42
0.0000000001
 43
0.0000000001
 40
0.0
 40
0.0
 40
0.0
 40
0.0
 40
1.0
 40
1.0
 40
1.0
 40
1.0
 10
-16.1994
 20
11.5205
 30
0.0
 10
-16.1994
 20
11.5205
 30
0.0
 10
-16.1994
 20
12.1555
 30
0.0
 10
-16.1994
 20
12.1555
 30
0.0
  0
SPLINE
  5
A7
330
1F
100
AcDbEntity
  8
Ebene 1
370
     9
100
AcDbSpline
210
0.0
220
0.0
230
1.0
 70
    24
 71
     3
 72
     8
 73
     4
 74
     0
 42
0.0000000001
 43
0.0000000001
 40
0.0
 40
0.0
 40
0.0
 40
0.0
 40
1.0
 40
1.0
 40
1.0
 40
1.0
 10
-16.1994
 20
11.5205
 30
0.0
 10
-16.1994
 20
11.5205
 30
0.0
 10
-16.1994
 20
10.15383
 30
0.0
 10
-16.1994
 20
10.15383
 30
0.0
  0
SPLINE
  5
A8
330
1F
100
AcDbEntity
  8
Ebene 1
370
     9
100
AcDbSpline
210
0.0
220
0.0
230
1.0
 70
    24
 71
     3
 72
     8
 73
     4
 74
     0
 42
0.0000000001
 43
0.0000000001
 40
0.0
 40
0.0
 40
0.0
 40
0.0
 40
1.0
 40
1.0
 40
1.0
 40
1.0
 10
-16.1994
 20
10.15383
 30
0.0
 10
-16.1994
 20
10.15383
 30
0.0
 10
-16.1994
 20
9.51883
 30
0.0
 10
-16.1994
 20
9.51883
 30
0.0
  0
SPLINE
  5
A9
330
1F
100
AcDbEntity
  8
Ebene 1
100
AcDbSpline
210
0.0
220
0.0
230
1.0
 70
    27
 71
     3
 72
    12
 73
     8
 74
     0
 42
0.0000000001
 43
0.0000000001
 40
0.0
 40
0.0
 40
0.0
 40
0.0
 40
0.3333333333333333
 40
0.3333333333333333
 40
0.3333333333333333
 40
0.3333333333333333
 40
1.0
 40
1.0
 40
1.0
 40
1.0
 10
-15.39522
 20
9.15383
 30
0.0
 10
-15.39522
 20
9.15383
 30
0.0
 10
-15.06502
 20
9.20463
 30
0.0
 10
-15.06502
 20
9.20463
 30
0.0
 10
-15.06502
 20
9.20463
 30
0.0
 10
-15.06502
 20
9.20463
 30
0.0
 10
-15.39522
 20
9.15383
 30
0.0
 10
-15.39522
 20
9.15383
 30
0.0
  0
SPLINE
  5
AA
330
1F
100
AcDbEntity
  8
Ebene 1
100
AcDbSpline
210
0.0
220
0.0
230
1.0
 70
     8
 71
     3
 72
    12
 73
     8
 74
     0
 42
0.0000000001
 43
0.0000000001
 40
0.0
 40
0.0
 40
0.0
 40
0.0
 40
0.3333333333333333
 40
0.3333333333333333
 40
0.3333333333333333
 40
0.3333333333333333
 40
1.0
 40
1.0
 40
1.0
 40
1.0
 10
-15.06502
 20
9.20463
 30
0.0
 10
-15.06502
 20
9.20463
 30
0.0
 10
-15.06502
 20
9.10303
 30
0.0
 10
-15.06502
 20
9.10303
 30
0.0
 10
-15.06502
 20
9.10303
 30
0.0
 10
-15.06502
 20
9.10303
 30
0.0
 10
-15.39522
 20
9.15383
 30
0.0
 10
-15.39522
 20
9.15383
 30
0.0
  0
SPLINE
  5
AB
330
1F
100
AcDbEntity
  8
Ebene 1
370
     9
100
AcDbSpline
210
0.0
220
0.0
230
1.0
 70
    24
 71
     3
 72
     8
 73
     4
 74
     0
 42
0.0000000001
 43
0.0000000001
 40
0.0
 40
0.0
 40
0.0
 40
0.0
 40
1.0
 40
1.0
 40
1.0
 40
1.0
 10
-15.39522
 20
9.15383
 30
0.0
 10
-15.39522
 20
9.15383
 30
0.0
 10
-15.06502
 20
9.20463
 30
0.0
 10
-15.06502
 20
9.20463
 30
0.0
  0
SPLINE
  5
AC
330
1F
100
AcDbEntity
  8
Ebene 1
370
     9
100
AcDbSpline
210
0.0
220
0.0
230
1.0
 70
     8
 71
     3
 72
    12
 73
     8
 74
     0
 42
0.0000000001
 43
0.0000000001
 40
0.0
 40
0.0
 40
0.0
 40
0.0
 40
0.3333333333333333
 40
0.3333333333333333
 40
0.3333333333333333
 40
0.3333333333333333
 40
1.0
 40
1.0
 40
1.0
 40
1.0
 10
-15.06502
 20
9.20463
 30
0.0
 10
-15.06502
 20
9.20463
 30
0.0
 10
-15.06502
 20
9.10303
 30
0.0
 10
-15.06502
 20
9.10303
 30
0.0
 10
-15.06502
 20
9.10303
 30
0.0
 10
-15.06502
 20
9.10303
 30
0.0
 10
-15.39522
 20
9.15383
 30
0.0
 10
-15.39522
 20
9.15383
 30
0.0
  0
SPLINE
  5
AD
330
1F
100
AcDbEntity
  8
Ebene 1
100
AcDbSpline
210
0.0
220
0.0
230
1.0
 70
    27
 71
     3
 72
    12
 73
     8
 74
     0
 42
0.0000000001
 43
0.0000000001
 40
0.0
 40
0.0
 40
0.0
 40
0.0
 40
0.3333333333333333
 40
0.3333333333333333
 40
0.3333333333333333
 40
0.3333333333333333
 40
1.0
 40
1.0
 40
1.0
 40
1.0
 10
-13.14946
 20
9.15383
 30
0.0
 10
-13.14946
 20
9.15383
 30
0.0
 10
-13.47966
 20
9.10303
 30
0.0
 10
-13.47966
 20
9.10303
 30
0.0
 10
-13.47966
 20
9.10303
 30
0.0
 10
-13.47966
 20
9.10303
 30
0.0
 10
-13.14946
 20
9.15383
 30
0.0
 10
-13.14946
 20
9.15383
 30
0.0
  0
SPLINE
  5
AE
330
1F
100
AcDbEntity
  8
Ebene 1
100
AcDbSpline
210
0.0
220
0.0
230
1.0
 70
     8
 71
     3
 72
    12
 73
     8
 74
     0
 42
0.0000000001
 43
0.0000000001
 40
0.0
 40
0.0
 40
0.0
 40
0.0
 40
0.3333333333333333
 40
0.3333333333333333
 40
0.3333333333333333
 40
0.3333333333333333
 40
1.0
 40
1.0
 40
1.0
 40
1.0
 10
-13.47966
 20
9.10303
 30
0.0
 10
-13.47966
 20
9.10303
 30
0.0
 10
-13.47966
 20
9.20463
 30
0.0
 10
-13.47966
 20
9.20463
 30
0.0
 10
-13.47966
 20
9.20463
 30
0.0
 10
-13.47966
 20
9.20463
 30
0.0
 10
-13.14946
 20
9.15383
 30
0.0
 10
-13.14946
 20
9.15383
 30
0.0
  0
SPLINE
  5
AF
330
1F
100
AcDbEntity
  8
Ebene 1
370
     9
100
AcDbSpline
210
0.0
220
0.0
230
1.0
 70
    24
 71
     3
 72
     8
 73
     4
 74
     0
 42
0.0000000001
 43
0.0000000001
 40
0.0
 40
0.0
 40
0.0
 40
0.0
 40
1.0
 40
1.0
 40
1.0
 40
1.0
 10
-13.14946
 20
9.15383
 30
0.0
 10
-13.14946
 20
9.15383
 30
0.0
 10
-13.47966
 20
9.10303
 30
0.0
 10
-13.47966
 20
9.10303
 30
0.0
  0
SPLINE
  5
B0
330
1F
100
AcDbEntity
  8
Ebene 1
370
     9
100
AcDbSpline
210
0.0
220
0.0
230
1.0
 70
     8
 71
     3
 72
    12
 73
     8
 74
     0
 42
0.0000000001
 43
0.0000000001
 40
0.0
 40
0.0
 40
0.0
 40
0.0
 40
0.3333333333333333
 40
0.3333333333333333
 40
0.3333333333333333
 40
0.3333333333333333
 40
1.0
 40
1.0
 40
1.0
 40
1.0
 10
-13.47966
 20
9.10303
 30
0.0
 10
-13.47966
 20
9.10303
 30
0.0
 10
-13.47966
 20
9.20463
 30
0.0
 10
-13.47966
 20
9.20463
 30
0.0
 10
-13.47966
 20
9.20463
 30
0.0
 10
-13.47966
 20
9.20463
 30
0.0
 10
-13.14946
 20
9.15383
 30
0.0
 10
-13.14946
 20
9.15383
 30
0.0
  0
SPLINE
  5
B1
330
1F
100
AcDbEntity
  8
Ebene 1
370
     9
100
AcDbSpline
210
0.0
220
0.0
230
1.0
 70
    24
 71
     3
 72
     8
 73
     4
 74
     0
 42
0.0000000001
 43
0.0000000001
 40
0.0
 40
0.0
 40
0.0
 40
0.0
 40
1.0
 40
1.0
 40
1.0
 40
1.0
 10
-15.39522
 20
10.05383
 30
0.0
 10
-15.39522
 20
10.05383
 30
0.0
 10
-15.39522
 20
9.05383
 30
0.0
 10
-15.39522
 20
9.05383
 30
0.0
  0
SPLINE
  5
B2
330
1F
100
AcDbEntity
  8
Ebene 1
370
     9
100
AcDbSpline
210
0.0
220
0.0
230
1.0
 70
    24
 71
     3
 72
     8
 73
     4
 74
     0
 42
0.0000000001
 43
0.0000000001
 40
0.0
 40
0.0
 40
0.0
 40
0.0
 40
1.0
 40
1.0
 40
1.0
 40
1.0
 10
-13.14946
 20
10.05383
 30
0.0
 10
-13.14946
 20
10.05383
 30
0.0
 10
-13.14946
 20
9.05383
 30
0.0
 10
-13.14946
 20
9.05383
 30
0.0
  0
SPLINE
  5
B3
330
1F
100
AcDbEntity
  8
Ebene 1
370
     9
100
AcDbSpline
210
0.0
220
0.0
230
1.0
 70
    24
 71
     3
 72
     8
 73
     4
 74
     0
 42
0.0000000001
 43
0.0000000001
 40
0.0
 40
0.0
 40
0.0
 40
0.0
 40
1.0
 40
1.0
 40
1.0
 40
1.0
 10
-15.39522
 20
9.15383
 30
0.0
 10
-15.39522
 20
9.15383
 30
0.0
 10
-13.14946
 20
9.15383
 30
0.0
 10
-13.14946
 20
9.15383
 30
0.0
  0
SPLINE
  5
B4
330
1F
100
AcDbEntity
  8
Ebene 1
100
AcDbSpline
210
0.0
220
0.0
230
1.0
 70
    11
 71
     3
 72
    80
 73
    76
 74
     0
 42
0.0000000001
 43
0.0000000001
 40
0.0
 40
0.0
 40
0.0
 40
0.0
 40
0.05
 40
0.05
 40
0.05
 40
0.05
 40
0.1
 40
0.1
 40
0.1
 40
0.1
 40
0.15
 40
0.15
 40
0.15
 40
0.15
 40
0.2
 40
0.2
 40
0.2
 40
0.2
 40
0.25
 40
0.25
 40
0.25
 40
0.25
 40
0.3
 40
0.3
 40
0.3
 40
0.3
 40
0.35
 40
0.35
 40
0.35
 40
0.35
 40
0.4
 40
0.4
 40
0.4
 40
0.4
 40
0.45
 40
0.45
 40
0.45
 40
0.45
 40
0.5
 40
0.5
 40
0.5
 40
0.5
 40
0.55
 40
0.55
 40
0.55
 40
0.55
 40
0.6
 40
0.6
 40
0.6
 40
0.6
 40
0.65
 40
0.65
 40
0.65
 40
0.65
 40
0.7
 40
0.7
 40
0.7
 40
0.7
 40
0.75
 40
0.75
 40
0.75
 40
0.75
 40
0.8
 40
0.8
 40
0.8
 40
0.8
 40
0.85
 40
0.85
 40
0.85
 40
0.85
 40
0.9
 40
0.9
 40
0.9
 40
0.9
 40
1.0
 40
1.0
 40
1.0
 40
1.0
 10
-14.40633
 20
9.47731
 30
0.0
 10
-14.40633
 20
9.47731
 30
0.0
 10
-14.43689
 20
9.47492
 30
0.0
 10
-14.43689
 20
9.47492
 30
0.0
 10
-14.43689
 20
9.47492
 30
0.0
 10
-14.43963
 20
9.487
 30
0.0
 10
-14.44348
 20
9.49581
 30
0.0
 10
-14.4485
 20
9.50123
 30
0.0
 10
-14.4485
 20
9.50123
 30
0.0
 10
-14.45684
 20
9.51004
 30
0.0
 10
-14.46711
 20
9.51441
 30
0.0
 10
-14.4793
 20
9.51441
 30
0.0
 10
-14.4793
 20
9.51441
 30
0.0
 10
-14.4891
 20
9.51441
 30
0.0
 10
-14.49768
 20
9.51167
 30
0.0
 10
-14.50508
 20
9.50619
 30
0.0
 10
-14.50508
 20
9.50619
 30
0.0
 10
-14.51477
 20
9.49913
 30
0.0
 10
-14.52241
 20
9.48881
 30
0.0
 10
-14.52801
 20
9.47527
 30
0.0
 10
-14.52801
 20
9.47527
 30
0.0
 10
-14.53355
 20
9.46174
 30
0.0
 10
-14.53647
 20
9.44243
 30
0.0
 10
-14.5367
 20
9.41735
 30
0.0
 10
-14.5367
 20
9.41735
 30
0.0
 10
-14.52929
 20
9.42861
 30
0.0
 10
-14.52025
 20
9.43701
 30
0.0
 10
-14.50952
 20
9.44249
 30
0.0
 10
-14.50952
 20
9.44249
 30
0.0
 10
-14.49884
 20
9.44791
 30
0.0
 10
-14.48758
 20
9.45066
 30
0.0
 10
-14.47586
 20
9.45066
 30
0.0
 10
-14.47586
 20
9.45066
 30
0.0
 10
-14.45533
 20
9.45066
 30
0.0
 10
-14.43788
 20
9.44313
 30
0.0
 10
-14.42348
 20
9.42802
 30
0.0
 10
-14.42348
 20
9.42802
 30
0.0
 10
-14.40907
 20
9.41291
 30
0.0
 10
-14.40183
 20
9.39343
 30
0.0
 10
-14.40183
 20
9.36951
 30
0.0
 10
-14.40183
 20
9.36951
 30
0.0
 10
-14.40183
 20
9.35376
 30
0.0
 10
-14.40528
 20
9.33918
 30
0.0
 10
-14.41204
 20
9.32565
 30
0.0
 10
-14.41204
 20
9.32565
 30
0.0
 10
-14.41881
 20
9.31217
 30
0.0
 10
-14.42814
 20
9.30179
 30
0.0
 10
-14.43998
 20
9.29461
 30
0.0
 10
-14.43998
 20
9.29461
 30
0.0
 10
-14.45183
 20
9.28744
 30
0.0
 10
-14.46524
 20
9.28388
 30
0.0
 10
-14.48029
 20
9.28388
 30
0.0
 10
-14.48029
 20
9.28388
 30
0.0
 10
-14.50596
 20
9.28388
 30
0.0
 10
-14.52684
 20
9.29327
 30
0.0
 10
-14.543
 20
9.31217
 30
0.0
 10
-14.543
 20
9.31217
 30
0.0
 10
-14.55922
 20
9.33101
 30
0.0
 10
-14.56727
 20
9.36211
 30
0.0
 10
-14.56727
 20
9.40539
 30
0.0
 10
-14.56727
 20
9.40539
 30
0.0
 10
-14.56727
 20
9.45381
 30
0.0
 10
-14.55834
 20
9.48898
 30
0.0
 10
-14.54043
 20
9.51097
 30
0.0
 10
-14.54043
 20
9.51097
 30
0.0
 10
-14.52486
 20
9.53011
 30
0.0
 10
-14.50386
 20
9.53973
 30
0.0
 10
-14.47738
 20
9.53973
 30
0.0
 10
-14.47738
 20
9.53973
 30
0.0
 10
-14.45772
 20
9.53973
 30
0.0
 10
-14.44156
 20
9.53419
 30
0.0
 10
-14.42896
 20
9.52311
 30
0.0
 10
-14.42896
 20
9.52311
 30
0.0
 10
-14.41636
 20
9.51208
 30
0.0
 10
-14.40883
 20
9.4968
 30
0.0
 10
-14.40633
 20
9.47731
 30
0.0
  0
SPLINE
  5
B5
330
1F
100
AcDbEntity
  8
Ebene 1
100
AcDbSpline
210
0.0
220
0.0
230
1.0
 70
    11
 71
     3
 72
    40
 73
    36
 74
     0
 42
0.0000000001
 43
0.0000000001
 40
0.0
 40
0.0
 40
0.0
 40
0.0
 40
0.1
 40
0.1
 40
0.1
 40
0.1
 40
0.2
 40
0.2
 40
0.2
 40
0.2
 40
0.3
 40
0.3
 40
0.3
 40
0.3
 40
0.4
 40
0.4
 40
0.4
 40
0.4
 40
0.5
 40
0.5
 40
0.5
 40
0.5
 40
0.6
 40
0.6
 40
0.6
 40
0.6
 40
0.7
 40
0.7
 40
0.7
 40
0.7
 40
0.8
 40
0.8
 40
0.8
 40
0.8
 40
1.0
 40
1.0
 40
1.0
 40
1.0
 10
-14.53192
 20
9.36934
 30
0.0
 10
-14.53192
 20
9.35872
 30
0.0
 10
-14.52964
 20
9.34857
 30
0.0
 10
-14.52515
 20
9.33889
 30
0.0
 10
-14.52515
 20
9.33889
 30
0.0
 10
-14.52066
 20
9.32921
 30
0.0
 10
-14.51436
 20
9.32186
 30
0.0
 10
-14.50631
 20
9.31678
 30
0.0
 10
-14.50631
 20
9.31678
 30
0.0
 10
-14.4982
 20
9.31171
 30
0.0
 10
-14.48968
 20
9.30914
 30
0.0
 10
-14.48082
 20
9.30914
 30
0.0
 10
-14.48082
 20
9.30914
 30
0.0
 10
-14.46781
 20
9.30914
 30
0.0
 10
-14.45667
 20
9.31439
 30
0.0
 10
-14.44733
 20
9.32489
 30
0.0
 10
-14.44733
 20
9.32489
 30
0.0
 10
-14.438
 20
9.33539
 30
0.0
 10
-14.43333
 20
9.34962
 30
0.0
 10
-14.43333
 20
9.36759
 30
0.0
 10
-14.43333
 20
9.36759
 30
0.0
 10
-14.43333
 20
9.38491
 30
0.0
 10
-14.43794
 20
9.39856
 30
0.0
 10
-14.44716
 20
9.40854
 30
0.0
 10
-14.44716
 20
9.40854
 30
0.0
 10
-14.45638
 20
9.41851
 30
0.0
 10
-14.46798
 20
9.42347
 30
0.0
 10
-14.48198
 20
9.42347
 30
0.0
 10
-14.48198
 20
9.42347
 30
0.0
 10
-14.49593
 20
9.42347
 30
0.0
 10
-14.50771
 20
9.41851
 30
0.0
 10
-14.51739
 20
9.40854
 30
0.0
 10
-14.51739
 20
9.40854
 30
0.0
 10
-14.52708
 20
9.39856
 30
0.0
 10
-14.53192
 20
9.3855
 30
0.0
 10
-14.53192
 20
9.36934
 30
0.0
  0
SPLINE
  5
B6
330
1F
100
AcDbEntity
  8
Ebene 1
100
AcDbSpline
210
0.0
220
0.0
230
1.0
 70
    11
 71
     3
 72
    48
 73
    44
 74
     0
 42
0.0000000001
 43
0.0000000001
 40
0.0
 40
0.0
 40
0.0
 40
0.0
 40
0.0833333333333333
 40
0.0833333333333333
 40
0.0833333333333333
 40
0.0833333333333333
 40
0.1666666666666667
 40
0.1666666666666667
 40
0.1666666666666667
 40
0.1666666666666667
 40
0.25
 40
0.25
 40
0.25
 40
0.25
 40
0.3333333333333333
 40
0.3333333333333333
 40
0.3333333333333333
 40
0.3333333333333333
 40
0.4166666666666667
 40
0.4166666666666667
 40
0.4166666666666667
 40
0.4166666666666667
 40
0.5
 40
0.5
 40
0.5
 40
0.5
 40
0.5833333333333334
 40
0.5833333333333334
 40
0.5833333333333334
 40
0.5833333333333334
 40
0.6666666666666666
 40
0.6666666666666666
 40
0.6666666666666666
 40
0.6666666666666666
 40
0.75
 40
0.75
 40
0.75
 40
0.75
 40
0.8333333333333334
 40
0.8333333333333334
 40
0.8333333333333334
 40
0.8333333333333334
 40
1.0
 40
1.0
 40
1.0
 40
1.0
 10
-14.36922
 20
9.50584
 30
0.0
 10
-14.36922
 20
9.50584
 30
0.0
 10
-14.36922
 20
9.53541
 30
0.0
 10
-14.36922
 20
9.53541
 30
0.0
 10
-14.36922
 20
9.53541
 30
0.0
 10
-14.36922
 20
9.53541
 30
0.0
 10
-14.20706
 20
9.53541
 30
0.0
 10
-14.20706
 20
9.53541
 30
0.0
 10
-14.20706
 20
9.53541
 30
0.0
 10
-14.20706
 20
9.53541
 30
0.0
 10
-14.20706
 20
9.5115
 30
0.0
 10
-14.20706
 20
9.5115
 30
0.0
 10
-14.20706
 20
9.5115
 30
0.0
 10
-14.22298
 20
9.49452
 30
0.0
 10
-14.23879
 20
9.47195
 30
0.0
 10
-14.25448
 20
9.44383
 30
0.0
 10
-14.25448
 20
9.44383
 30
0.0
 10
-14.27012
 20
9.41571
 30
0.0
 10
-14.28225
 20
9.38672
 30
0.0
 10
-14.29077
 20
9.35703
 30
0.0
 10
-14.29077
 20
9.35703
 30
0.0
 10
-14.29695
 20
9.33603
 30
0.0
 10
-14.30086
 20
9.31311
 30
0.0
 10
-14.30255
 20
9.28814
 30
0.0
 10
-14.30255
 20
9.28814
 30
0.0
 10
-14.30255
 20
9.28814
 30
0.0
 10
-14.33417
 20
9.28814
 30
0.0
 10
-14.33417
 20
9.28814
 30
0.0
 10
-14.33417
 20
9.28814
 30
0.0
 10
-14.33382
 20
9.30786
 30
0.0
 10
-14.32997
 20
9.33166
 30
0.0
 10
-14.32256
 20
9.3596
 30
0.0
 10
-14.32256
 20
9.3596
 30
0.0
 10
-14.31515
 20
9.38748
 30
0.0
 10
-14.30453
 20
9.41443
 30
0.0
 10
-14.29071
 20
9.44033
 30
0.0
 10
-14.29071
 20
9.44033
 30
0.0
 10
-14.27682
 20
9.46623
 30
0.0
 10
-14.26212
 20
9.48811
 30
0.0
 10
-14.24649
 20
9.50584
 30
0.0
 10
-14.24649
 20
9.50584
 30
0.0
 10
-14.24649
 20
9.50584
 30
0.0
 10
-14.36922
 20
9.50584
 30
0.0
 10
-14.36922
 20
9.50584
 30
0.0
  0
SPLINE
  5
B7
330
1F
100
AcDbEntity
  8
Ebene 1
370
    15
100
AcDbSpline
210
0.0
220
0.0
230
1.0
 70
    24
 71
     3
 72
     8
 73
     4
 74
     0
 42
0.0000000001
 43
0.0000000001
 40
0.0
 40
0.0
 40
0.0
 40
0.0
 40
1.0
 40
1.0
 40
1.0
 40
1.0
 10
-9.40482
 20
11.2005
 30
0.0
 10
-9.40482
 20
11.2005
 30
0.0
 10
-9.40482
 20
11.25383
 30
0.0
 10
-9.40482
 20
11.25383
 30
0.0
  0
SPLINE
  5
B8
330
1F
100
AcDbEntity
  8
Ebene 1
370
    15
100
AcDbSpline
210
0.0
220
0.0
230
1.0
 70
    24
 71
     3
 72
     8
 73
     4
 74
     0
 42
0.0000000001
 43
0.0000000001
 40
0.0
 40
0.0
 40
0.0
 40
0.0
 40
1.0
 40
1.0
 40
1.0
 40
1.0
 10
-9.93816
 20
11.25383
 30
0.0
 10
-9.93816
 20
11.25383
 30
0.0
 10
-9.93816
 20
11.2005
 30
0.0
 10
-9.93816
 20
11.2005
 30
0.0
  0
SPLINE
  5
B9
330
1F
100
AcDbEntity
  8
Ebene 1
370
    15
100
AcDbSpline
210
0.0
220
0.0
230
1.0
 70
    24
 71
     3
 72
     8
 73
     4
 74
     0
 42
0.0000000001
 43
0.0000000001
 40
0.0
 40
0.0
 40
0.0
 40
0.0
 40
1.0
 40
1.0
 40
1.0
 40
1.0
 10
-9.93816
 20
10.56717
 30
0.0
 10
-9.93816
 20
10.56717
 30
0.0
 10
-9.93816
 20
10.46717
 30
0.0
 10
-9.93816
 20
10.46717
 30
0.0
  0
SPLINE
  5
BA
330
1F
100
AcDbEntity
  8
Ebene 1
370
    15
100
AcDbSpline
210
0.0
220
0.0
230
1.0
 70
    24
 71
     3
 72
     8
 73
     4
 74
     0
 42
0.0000000001
 43
0.0000000001
 40
0.0
 40
0.0
 40
0.0
 40
0.0
 40
1.0
 40
1.0
 40
1.0
 40
1.0
 10
-9.93816
 20
10.9005
 30
0.0
 10
-9.93816
 20
10.9005
 30
0.0
 10
-9.93816
 20
10.76582
 30
0.0
 10
-9.93816
 20
10.76582
 30
0.0
  0
SPLINE
  5
BB
330
1F
100
AcDbEntity
  8
Ebene 1
370
    15
100
AcDbSpline
210
0.0
220
0.0
230
1.0
 70
    24
 71
     3
 72
     8
 73
     4
 74
     0
 42
0.0000000001
 43
0.0000000001
 40
0.0
 40
0.0
 40
0.0
 40
0.0
 40
1.0
 40
1.0
 40
1.0
 40
1.0
 10
-9.93816
 20
11.2005
 30
0.0
 10
-9.93816
 20
11.2005
 30
0.0
 10
-9.93816
 20
11.09915
 30
0.0
 10
-9.93816
 20
11.09915
 30
0.0
  0
SPLINE
  5
BC
330
1F
100
AcDbEntity
  8
Ebene 1
370
    15
100
AcDbSpline
210
0.0
220
0.0
230
1.0
 70
    24
 71
     3
 72
     8
 73
     4
 74
     0
 42
0.0000000001
 43
0.0000000001
 40
0.0
 40
0.0
 40
0.0
 40
0.0
 40
1.0
 40
1.0
 40
1.0
 40
1.0
 10
-10.24879
 20
10.15383
 30
0.0
 10
-10.24879
 20
10.15383
 30
0.0
 10
-10.24879
 20
11.21569
 30
0.0
 10
-10.24879
 20
11.21569
 30
0.0
  0
SPLINE
  5
BD
330
1F
100
AcDbEntity
  8
Ebene 1
370
    15
100
AcDbSpline
210
0.0
220
0.0
230
1.0
 70
    24
 71
     3
 72
     8
 73
     4
 74
     0
 42
0.0000000001
 43
0.0000000001
 40
0.0
 40
0.0
 40
0.0
 40
0.0
 40
1.0
 40
1.0
 40
1.0
 40
1.0
 10
-9.42149
 20
11.2005
 30
0.0
 10
-9.42149
 20
11.2005
 30
0.0
 10
-9.93816
 20
11.2005
 30
0.0
 10
-9.93816
 20
11.2005
 30
0.0
  0
SPLINE
  5
BE
330
1F
100
AcDbEntity
  8
Ebene 1
370
    15
100
AcDbSpline
210
0.0
220
0.0
230
1.0
 70
    24
 71
     3
 72
     8
 73
     4
 74
     0
 42
0.0000000001
 43
0.0000000001
 40
0.0
 40
0.0
 40
0.0
 40
0.0
 40
1.0
 40
1.0
 40
1.0
 40
1.0
 10
-9.42149
 20
11.2005
 30
0.0
 10
-9.42149
 20
11.2005
 30
0.0
 10
-9.42149
 20
10.46717
 30
0.0
 10
-9.42149
 20
10.46717
 30
0.0
  0
SPLINE
  5
BF
330
1F
100
AcDbEntity
  8
Ebene 1
370
    15
100
AcDbSpline
210
0.0
220
0.0
230
1.0
 70
     8
 71
     3
 72
    12
 73
     8
 74
     0
 42
0.0000000001
 43
0.0000000001
 40
0.0
 40
0.0
 40
0.0
 40
0.0
 40
0.3333333333333333
 40
0.3333333333333333
 40
0.3333333333333333
 40
0.3333333333333333
 40
1.0
 40
1.0
 40
1.0
 40
1.0
 10
2.91184
 20
11.06717
 30
0.0
 10
2.91184
 20
11.10253
 30
0.0
 10
2.8978
 20
11.13644
 30
0.0
 10
2.87279
 20
11.16145
 30
0.0
 10
2.87279
 20
11.16145
 30
0.0
 10
2.84779
 20
11.18645
 30
0.0
 10
2.81387
 20
11.2005
 30
0.0
 10
2.77851
 20
11.2005
 30
0.0
  0
SPLINE
  5
C0
330
1F
100
AcDbEntity
  8
Ebene 1
370
    15
100
AcDbSpline
210
0.0
220
0.0
230
1.0
 70
    24
 71
     3
 72
     8
 73
     4
 74
     0
 42
0.0000000001
 43
0.0000000001
 40
0.0
 40
0.0
 40
0.0
 40
0.0
 40
1.0
 40
1.0
 40
1.0
 40
1.0
 10
2.91184
 20
11.06717
 30
0.0
 10
2.91184
 20
11.06717
 30
0.0
 10
2.91184
 20
10.6005
 30
0.0
 10
2.91184
 20
10.6005
 30
0.0
  0
SPLINE
  5
C1
330
1F
100
AcDbEntity
  8
Ebene 1
370
    15
100
AcDbSpline
210
0.0
220
0.0
230
1.0
 70
     8
 71
     3
 72
     8
 73
     4
 74
     0
 42
0.0000000001
 43
0.0000000001
 40
0.0
 40
0.0
 40
0.0
 40
0.0
 40
1.0
 40
1.0
 40
1.0
 40
1.0
 10
2.77851
 20
10.46717
 30
0.0
 10
2.85215
 20
10.46717
 30
0.0
 10
2.91184
 20
10.52686
 30
0.0
 10
2.91184
 20
10.6005
 30
0.0
  0
SPLINE
  5
C2
330
1F
100
AcDbEntity
  8
Ebene 1
370
    15
100
AcDbSpline
210
0.0
220
0.0
230
1.0
 70
    24
 71
     3
 72
     8
 73
     4
 74
     0
 42
0.0000000001
 43
0.0000000001
 40
0.0
 40
0.0
 40
0.0
 40
0.0
 40
1.0
 40
1.0
 40
1.0
 40
1.0
 10
2.77851
 20
10.46717
 30
0.0
 10
2.77851
 20
10.46717
 30
0.0
 10
-9.42149
 20
10.46717
 30
0.0
 10
-9.42149
 20
10.46717
 30
0.0
  0
SPLINE
  5
C3
330
1F
100
AcDbEntity
  8
Ebene 1
370
    15
100
AcDbSpline
210
0.0
220
0.0
230
1.0
 70
    24
 71
     3
 72
     8
 73
     4
 74
     0
 42
0.0000000001
 43
0.0000000001
 40
0.0
 40
0.0
 40
0.0
 40
0.0
 40
1.0
 40
1.0
 40
1.0
 40
1.0
 10
2.77851
 20
11.2005
 30
0.0
 10
2.77851
 20
11.2005
 30
0.0
 10
-9.42149
 20
11.2005
 30
0.0
 10
-9.42149
 20
11.2005
 30
0.0
  0
SPLINE
  5
C4
330
1F
100
AcDbEntity
  8
Ebene 1
370
    15
100
AcDbSpline
210
0.0
220
0.0
230
1.0
 70
     8
 71
     3
 72
    44
 73
    40
 74
     0
 42
0.0000000001
 43
0.0000000001
 40
0.0
 40
0.0
 40
0.0
 40
0.0
 40
0.0909090909090909
 40
0.0909090909090909
 40
0.0909090909090909
 40
0.0909090909090909
 40
0.1818181818181818
 40
0.1818181818181818
 40
0.1818181818181818
 40
0.1818181818181818
 40
0.2727272727272727
 40
0.2727272727272727
 40
0.2727272727272727
 40
0.2727272727272727
 40
0.3636363636363636
 40
0.3636363636363636
 40
0.3636363636363636
 40
0.3636363636363636
 40
0.4545454545454545
 40
0.4545454545454545
 40
0.4545454545454545
 40
0.4545454545454545
 40
0.5454545454545454
 40
0.5454545454545454
 40
0.5454545454545454
 40
0.5454545454545454
 40
0.6363636363636364
 40
0.6363636363636364
 40
0.6363636363636364
 40
0.6363636363636364
 40
0.7272727272727273
 40
0.7272727272727273
 40
0.7272727272727273
 40
0.7272727272727273
 40
0.8181818181818182
 40
0.8181818181818182
 40
0.8181818181818182
 40
0.8181818181818182
 40
1.0
 40
1.0
 40
1.0
 40
1.0
 10
-9.93816
 20
10.9005
 30
0.0
 10
-9.93776
 20
10.90153
 30
0.0
 10
-9.93737
 20
10.90256
 30
0.0
 10
-9.93625
 20
10.90571
 30
0.0
 10
-9.93625
 20
10.90571
 30
0.0
 10
-9.93513
 20
10.90885
 30
0.0
 10
-9.93329
 20
10.9141
 30
0.0
 10
-9.9313
 20
10.92056
 30
0.0
 10
-9.9313
 20
10.92056
 30
0.0
 10
-9.92923
 20
10.92727
 30
0.0
 10
-9.92699
 20
10.93528
 30
0.0
 10
-9.92498
 20
10.9444
 30
0.0
 10
-9.92498
 20
10.9444
 30
0.0
 10
-9.92289
 20
10.95387
 30
0.0
 10
-9.92104
 20
10.96454
 30
0.0
 10
-9.91993
 20
10.97578
 30
0.0
 10
-9.91993
 20
10.97578
 30
0.0
 10
-9.91886
 20
10.98657
 30
0.0
 10
-9.91846
 20
10.99788
 30
0.0
 10
-9.91884
 20
11.00899
 30
0.0
 10
-9.91884
 20
11.00899
 30
0.0
 10
-9.9192
 20
11.01944
 30
0.0
 10
-9.92024
 20
11.02971
 30
0.0
 10
-9.92172
 20
11.0393
 30
0.0
 10
-9.92172
 20
11.0393
 30
0.0
 10
-9.92324
 20
11.04908
 30
0.0
 10
-9.92522
 20
11.05815
 30
0.0
 10
-9.92724
 20
11.06604
 30
0.0
 10
-9.92724
 20
11.06604
 30
0.0
 10
-9.92939
 20
11.07445
 30
0.0
 10
-9.93157
 20
11.08152
 30
0.0
 10
-9.9335
 20
11.08732
 30
0.0
 10
-9.9335
 20
11.08732
 30
0.0
 10
-9.93545
 20
11.0932
 30
0.0
 10
-9.93714
 20
11.09777
 30
0.0
 10
-9.93759
 20
11.09899
 30
0.0
 10
-9.93759
 20
11.09899
 30
0.0
 10
-9.93782
 20
11.0996
 30
0.0
 10
-9.93774
 20
11.09938
 30
0.0
 10
-9.93765
 20
11.09915
 30
0.0
  0
SPLINE
  5
C5
330
1F
100
AcDbEntity
  8
Ebene 1
370
    15
100
AcDbSpline
210
0.0
220
0.0
230
1.0
 70
     8
 71
     3
 72
    44
 73
    40
 74
     0
 42
0.0000000001
 43
0.0000000001
 40
0.0
 40
0.0
 40
0.0
 40
0.0
 40
0.0909090909090909
 40
0.0909090909090909
 40
0.0909090909090909
 40
0.0909090909090909
 40
0.1818181818181818
 40
0.1818181818181818
 40
0.1818181818181818
 40
0.1818181818181818
 40
0.2727272727272727
 40
0.2727272727272727
 40
0.2727272727272727
 40
0.2727272727272727
 40
0.3636363636363636
 40
0.3636363636363636
 40
0.3636363636363636
 40
0.3636363636363636
 40
0.4545454545454545
 40
0.4545454545454545
 40
0.4545454545454545
 40
0.4545454545454545
 40
0.5454545454545454
 40
0.5454545454545454
 40
0.5454545454545454
 40
0.5454545454545454
 40
0.6363636363636364
 40
0.6363636363636364
 40
0.6363636363636364
 40
0.6363636363636364
 40
0.7272727272727273
 40
0.7272727272727273
 40
0.7272727272727273
 40
0.7272727272727273
 40
0.8181818181818182
 40
0.8181818181818182
 40
0.8181818181818182
 40
0.8181818181818182
 40
1.0
 40
1.0
 40
1.0
 40
1.0
 10
-9.93816
 20
10.56717
 30
0.0
 10
-9.93776
 20
10.5682
 30
0.0
 10
-9.93737
 20
10.56923
 30
0.0
 10
-9.93625
 20
10.57237
 30
0.0
 10
-9.93625
 20
10.57237
 30
0.0
 10
-9.93513
 20
10.57551
 30
0.0
 10
-9.93329
 20
10.58077
 30
0.0
 10
-9.9313
 20
10.58722
 30
0.0
 10
-9.9313
 20
10.58722
 30
0.0
 10
-9.92923
 20
10.59393
 30
0.0
 10
-9.92699
 20
10.60194
 30
0.0
 10
-9.92498
 20
10.61107
 30
0.0
 10
-9.92498
 20
10.61107
 30
0.0
 10
-9.92289
 20
10.62054
 30
0.0
 10
-9.92104
 20
10.6312
 30
0.0
 10
-9.91993
 20
10.64245
 30
0.0
 10
-9.91993
 20
10.64245
 30
0.0
 10
-9.91886
 20
10.65323
 30
0.0
 10
-9.91846
 20
10.66454
 30
0.0
 10
-9.91884
 20
10.67566
 30
0.0
 10
-9.91884
 20
10.67566
 30
0.0
 10
-9.9192
 20
10.68611
 30
0.0
 10
-9.92024
 20
10.69638
 30
0.0
 10
-9.92172
 20
10.70597
 30
0.0
 10
-9.92172
 20
10.70597
 30
0.0
 10
-9.92324
 20
10.71575
 30
0.0
 10
-9.92522
 20
10.72482
 30
0.0
 10
-9.92724
 20
10.7327
 30
0.0
 10
-9.92724
 20
10.7327
 30
0.0
 10
-9.92939
 20
10.74112
 30
0.0
 10
-9.93157
 20
10.74819
 30
0.0
 10
-9.9335
 20
10.75399
 30
0.0
 10
-9.9335
 20
10.75399
 30
0.0
 10
-9.93545
 20
10.75987
 30
0.0
 10
-9.93714
 20
10.76444
 30
0.0
 10
-9.93759
 20
10.76566
 30
0.0
 10
-9.93759
 20
10.76566
 30
0.0
 10
-9.93782
 20
10.76627
 30
0.0
 10
-9.93774
 20
10.76604
 30
0.0
 10
-9.93765
 20
10.76582
 30
0.0
  0
SPLINE
  5
C6
330
1F
100
AcDbEntity
  8
Ebene 1
370
    15
100
AcDbSpline
210
0.0
220
0.0
230
1.0
 70
    24
 71
     3
 72
     8
 73
     4
 74
     0
 42
0.0000000001
 43
0.0000000001
 40
0.0
 40
0.0
 40
0.0
 40
0.0
 40
1.0
 40
1.0
 40
1.0
 40
1.0
 10
-9.42149
 20
10.46717
 30
0.0
 10
-9.42149
 20
10.46717
 30
0.0
 10
-9.93816
 20
10.46717
 30
0.0
 10
-9.93816
 20
10.46717
 30
0.0
  0
SPLINE
  5
C7
330
1F
100
AcDbEntity
  8
Ebene 1
370
    15
100
AcDbSpline
210
0.0
220
0.0
230
1.0
 70
    24
 71
     3
 72
     8
 73
     4
 74
     0
 42
0.0000000001
 43
0.0000000001
 40
0.0
 40
0.0
 40
0.0
 40
0.0
 40
1.0
 40
1.0
 40
1.0
 40
1.0
 10
-10.60816
 20
11.18792
 30
0.0
 10
-10.60816
 20
11.18792
 30
0.0
 10
-10.60816
 20
10.15383
 30
0.0
 10
-10.60816
 20
10.15383
 30
0.0
  0
SPLINE
  5
C8
330
1F
100
AcDbEntity
  8
Ebene 1
370
    15
100
AcDbSpline
210
0.0
220
0.0
230
1.0
 70
    24
 71
     3
 72
     8
 73
     4
 74
     0
 42
0.0000000001
 43
0.0000000001
 40
0.0
 40
0.0
 40
0.0
 40
0.0
 40
1.0
 40
1.0
 40
1.0
 40
1.0
 10
-10.60816
 20
11.18792
 30
0.0
 10
-10.60816
 20
11.18792
 30
0.0
 10
-10.60482
 20
11.18789
 30
0.0
 10
-10.60482
 20
11.18789
 30
0.0
  0
SPLINE
  5
C9
330
1F
100
AcDbEntity
  8
Ebene 1
370
    15
100
AcDbSpline
210
0.0
220
0.0
230
1.0
 70
    24
 71
     3
 72
     8
 73
     4
 74
     0
 42
0.0000000001
 43
0.0000000001
 40
0.0
 40
0.0
 40
0.0
 40
0.0
 40
1.0
 40
1.0
 40
1.0
 40
1.0
 10
-10.60816
 20
10.15383
 30
0.0
 10
-10.60816
 20
10.15383
 30
0.0
 10
-10.60482
 20
10.15383
 30
0.0
 10
-10.60482
 20
10.15383
 30
0.0
  0
SPLINE
  5
CA
330
1F
100
AcDbEntity
  8
Ebene 1
370
    15
100
AcDbSpline
210
0.0
220
0.0
230
1.0
 70
     8
 71
     3
 72
    12
 73
     8
 74
     0
 42
0.0000000001
 43
0.0000000001
 40
0.0
 40
0.0
 40
0.0
 40
0.0
 40
0.3333333333333333
 40
0.3333333333333333
 40
0.3333333333333333
 40
0.3333333333333333
 40
1.0
 40
1.0
 40
1.0
 40
1.0
 10
-10.17149
 20
11.26543
 30
0.0
 10
-10.20109
 20
11.26543
 30
0.0
 10
-10.22947
 20
11.25367
 30
0.0
 10
-10.2504
 20
11.23274
 30
0.0
 10
-10.2504
 20
11.23274
 30
0.0
 10
-10.27133
 20
11.21181
 30
0.0
 10
-10.28308
 20
11.18343
 30
0.0
 10
-10.28308
 20
11.15383
 30
0.0
  0
SPLINE
  5
CB
330
1F
100
AcDbEntity
  8
Ebene 1
370
    15
100
AcDbSpline
210
0.0
220
0.0
230
1.0
 70
    24
 71
     3
 72
     8
 73
     4
 74
     0
 42
0.0000000001
 43
0.0000000001
 40
0.0
 40
0.0
 40
0.0
 40
0.0
 40
1.0
 40
1.0
 40
1.0
 40
1.0
 10
-10.52656
 20
11.15383
 30
0.0
 10
-10.52656
 20
11.15383
 30
0.0
 10
-10.28308
 20
11.15383
 30
0.0
 10
-10.28308
 20
11.15383
 30
0.0
  0
SPLINE
  5
CC
330
1F
100
AcDbEntity
  8
Ebene 1
370
    15
100
AcDbSpline
210
0.0
220
0.0
230
1.0
 70
     8
 71
     3
 72
    12
 73
     8
 74
     0
 42
0.0000000001
 43
0.0000000001
 40
0.0
 40
0.0
 40
0.0
 40
0.0
 40
0.3333333333333333
 40
0.3333333333333333
 40
0.3333333333333333
 40
0.3333333333333333
 40
1.0
 40
1.0
 40
1.0
 40
1.0
 10
-10.17149
 20
11.5089
 30
0.0
 10
-10.26566
 20
11.5089
 30
0.0
 10
-10.35597
 20
11.4715
 30
0.0
 10
-10.42256
 20
11.40491
 30
0.0
 10
-10.42256
 20
11.40491
 30
0.0
 10
-10.48915
 20
11.33832
 30
0.0
 10
-10.52656
 20
11.248
 30
0.0
 10
-10.52656
 20
11.15383
 30
0.0
  0
SPLINE
  5
CD
330
1F
100
AcDbEntity
  8
Ebene 1
370
    15
100
AcDbSpline
210
0.0
220
0.0
230
1.0
 70
    24
 71
     3
 72
     8
 73
     4
 74
     0
 42
0.0000000001
 43
0.0000000001
 40
0.0
 40
0.0
 40
0.0
 40
0.0
 40
1.0
 40
1.0
 40
1.0
 40
1.0
 10
-10.17149
 20
11.5089
 30
0.0
 10
-10.17149
 20
11.5089
 30
0.0
 10
-10.17149
 20
11.26543
 30
0.0
 10
-10.17149
 20
11.26543
 30
0.0
  0
SPLINE
  5
CE
330
1F
100
AcDbEntity
  8
Ebene 1
370
    15
100
AcDbSpline
210
0.0
220
0.0
230
1.0
 70
     8
 71
     3
 72
    12
 73
     8
 74
     0
 42
0.0000000001
 43
0.0000000001
 40
0.0
 40
0.0
 40
0.0
 40
0.0
 40
0.3333333333333333
 40
0.3333333333333333
 40
0.3333333333333333
 40
0.3333333333333333
 40
1.0
 40
1.0
 40
1.0
 40
1.0
 10
-10.28258
 20
11.15615
 30
0.0
 10
-10.28272
 20
11.15554
 30
0.0
 10
-10.28285
 20
11.15493
 30
0.0
 10
-10.28298
 20
11.15432
 30
0.0
 10
-10.28298
 20
11.15432
 30
0.0
 10
-10.28302
 20
11.15416
 30
0.0
 10
-10.28305
 20
11.154
 30
0.0
 10
-10.28308
 20
11.15383
 30
0.0
  0
SPLINE
  5
CF
330
1F
100
AcDbEntity
  8
Ebene 1
370
    15
100
AcDbSpline
210
0.0
220
0.0
230
1.0
 70
    24
 71
     3
 72
     8
 73
     4
 74
     0
 42
0.0000000001
 43
0.0000000001
 40
0.0
 40
0.0
 40
0.0
 40
0.0
 40
1.0
 40
1.0
 40
1.0
 40
1.0
 10
-10.28258
 20
10.15383
 30
0.0
 10
-10.28258
 20
10.15383
 30
0.0
 10
-10.28258
 20
11.15615
 30
0.0
 10
-10.28258
 20
11.15615
 30
0.0
  0
SPLINE
  5
D0
330
1F
100
AcDbEntity
  8
Ebene 1
370
    15
100
AcDbSpline
210
0.0
220
0.0
230
1.0
 70
    24
 71
     3
 72
     8
 73
     4
 74
     0
 42
0.0000000001
 43
0.0000000001
 40
0.0
 40
0.0
 40
0.0
 40
0.0
 40
1.0
 40
1.0
 40
1.0
 40
1.0
 10
-10.52656
 20
11.15383
 30
0.0
 10
-10.52656
 20
11.15383
 30
0.0
 10
-10.52656
 20
10.15383
 30
0.0
 10
-10.52656
 20
10.15383
 30
0.0
  0
SPLINE
  5
D1
330
1F
100
AcDbEntity
  8
Ebene 1
370
    15
100
AcDbSpline
210
0.0
220
0.0
230
1.0
 70
    24
 71
     3
 72
     8
 73
     4
 74
     0
 42
0.0000000001
 43
0.0000000001
 40
0.0
 40
0.0
 40
0.0
 40
0.0
 40
1.0
 40
1.0
 40
1.0
 40
1.0
 10
-10.52656
 20
10.15383
 30
0.0
 10
-10.52656
 20
10.15383
 30
0.0
 10
-10.28258
 20
10.15383
 30
0.0
 10
-10.28258
 20
10.15383
 30
0.0
  0
SPLINE
  5
D2
330
1F
100
AcDbEntity
  8
Ebene 1
370
    15
100
AcDbSpline
210
0.0
220
0.0
230
1.0
 70
    24
 71
     3
 72
     8
 73
     4
 74
     0
 42
0.0000000001
 43
0.0000000001
 40
0.0
 40
0.0
 40
0.0
 40
0.0
 40
1.0
 40
1.0
 40
1.0
 40
1.0
 10
-10.17149
 20
11.26543
 30
0.0
 10
-10.17149
 20
11.26543
 30
0.0
 10
-9.67149
 20
11.26543
 30
0.0
 10
-9.67149
 20
11.26543
 30
0.0
  0
SPLINE
  5
D3
330
1F
100
AcDbEntity
  8
Ebene 1
370
    15
100
AcDbSpline
210
0.0
220
0.0
230
1.0
 70
    24
 71
     3
 72
     8
 73
     4
 74
     0
 42
0.0000000001
 43
0.0000000001
 40
0.0
 40
0.0
 40
0.0
 40
0.0
 40
1.0
 40
1.0
 40
1.0
 40
1.0
 10
-9.67149
 20
11.5089
 30
0.0
 10
-9.67149
 20
11.5089
 30
0.0
 10
-10.17149
 20
11.5089
 30
0.0
 10
-10.17149
 20
11.5089
 30
0.0
  0
SPLINE
  5
D4
330
1F
100
AcDbEntity
  8
Ebene 1
370
    15
100
AcDbSpline
210
0.0
220
0.0
230
1.0
 70
    24
 71
     3
 72
     8
 73
     4
 74
     0
 42
0.0000000001
 43
0.0000000001
 40
0.0
 40
0.0
 40
0.0
 40
0.0
 40
1.0
 40
1.0
 40
1.0
 40
1.0
 10
-9.67149
 20
11.5089
 30
0.0
 10
-9.67149
 20
11.5089
 30
0.0
 10
-9.67149
 20
11.26543
 30
0.0
 10
-9.67149
 20
11.26543
 30
0.0
  0
SPLINE
  5
D5
330
1F
100
AcDbEntity
  8
Ebene 1
370
    15
100
AcDbSpline
210
0.0
220
0.0
230
1.0
 70
    24
 71
     3
 72
     8
 73
     4
 74
     0
 42
0.0000000001
 43
0.0000000001
 40
0.0
 40
0.0
 40
0.0
 40
0.0
 40
1.0
 40
1.0
 40
1.0
 40
1.0
 10
-9.67149
 20
11.26543
 30
0.0
 10
-9.67149
 20
11.26543
 30
0.0
 10
-9.36759
 20
11.26543
 30
0.0
 10
-9.36759
 20
11.26543
 30
0.0
  0
SPLINE
  5
D6
330
1F
100
AcDbEntity
  8
Ebene 1
370
    15
100
AcDbSpline
210
0.0
220
0.0
230
1.0
 70
    24
 71
     3
 72
     8
 73
     4
 74
     0
 42
0.0000000001
 43
0.0000000001
 40
0.0
 40
0.0
 40
0.0
 40
0.0
 40
1.0
 40
1.0
 40
1.0
 40
1.0
 10
-9.36759
 20
11.5089
 30
0.0
 10
-9.36759
 20
11.5089
 30
0.0
 10
-9.67149
 20
11.5089
 30
0.0
 10
-9.67149
 20
11.5089
 30
0.0
  0
SPLINE
  5
D7
330
1F
100
AcDbEntity
  8
Ebene 1
370
    15
100
AcDbSpline
210
0.0
220
0.0
230
1.0
 70
     8
 71
     3
 72
     8
 73
     4
 74
     0
 42
0.0000000001
 43
0.0000000001
 40
0.0
 40
0.0
 40
0.0
 40
0.0
 40
1.0
 40
1.0
 40
1.0
 40
1.0
 10
-9.36759
 20
11.26543
 30
0.0
 10
-9.34229
 20
11.34461
 30
0.0
 10
-9.34229
 20
11.42972
 30
0.0
 10
-9.36759
 20
11.5089
 30
0.0
  0
SPLINE
  5
D8
330
1F
100
AcDbEntity
  8
Ebene 1
370
    15
100
AcDbSpline
210
0.0
220
0.0
230
1.0
 70
    24
 71
     3
 72
     8
 73
     4
 74
     0
 42
0.0000000001
 43
0.0000000001
 40
0.0
 40
0.0
 40
0.0
 40
0.0
 40
1.0
 40
1.0
 40
1.0
 40
1.0
 10
-10.27102
 20
11.1636
 30
0.0
 10
-10.27102
 20
11.1636
 30
0.0
 10
-10.27102
 20
10.15383
 30
0.0
 10
-10.27102
 20
10.15383
 30
0.0
  0
SPLINE
  5
D9
330
1F
100
AcDbEntity
  8
Ebene 1
370
    15
100
AcDbSpline
210
0.0
220
0.0
230
1.0
 70
     8
 71
     3
 72
    20
 73
    16
 74
     0
 42
0.0000000001
 43
0.0000000001
 40
0.0
 40
0.0
 40
0.0
 40
0.0
 40
0.2
 40
0.2
 40
0.2
 40
0.2
 40
0.4
 40
0.4
 40
0.4
 40
0.4
 40
0.6
 40
0.6
 40
0.6
 40
0.6
 40
1.0
 40
1.0
 40
1.0
 40
1.0
 10
-10.28258
 20
11.15615
 30
0.0
 10
-10.28236
 20
11.1571
 30
0.0
 10
-10.282
 20
11.15801
 30
0.0
 10
-10.28146
 20
11.15878
 30
0.0
 10
-10.28146
 20
11.15878
 30
0.0
 10
-10.28093
 20
11.15955
 30
0.0
 10
-10.28023
 20
11.16018
 30
0.0
 10
-10.27949
 20
11.16065
 30
0.0
 10
-10.27949
 20
11.16065
 30
0.0
 10
-10.27803
 20
11.16158
 30
0.0
 10
-10.27649
 20
11.162
 30
0.0
 10
-10.27523
 20
11.16233
 30
0.0
 10
-10.27523
 20
11.16233
 30
0.0
 10
-10.2727
 20
11.16299
 30
0.0
 10
-10.27118
 20
11.16324
 30
0.0
 10
-10.27102
 20
11.1636
 30
0.0
  0
SPLINE
  5
DA
330
1F
100
AcDbEntity
  8
Ebene 1
370
    15
100
AcDbSpline
210
0.0
220
0.0
230
1.0
 70
    24
 71
     3
 72
     8
 73
     4
 74
     0
 42
0.0000000001
 43
0.0000000001
 40
0.0
 40
0.0
 40
0.0
 40
0.0
 40
1.0
 40
1.0
 40
1.0
 40
1.0
 10
-10.27102
 20
10.15383
 30
0.0
 10
-10.27102
 20
10.15383
 30
0.0
 10
-10.28258
 20
10.15383
 30
0.0
 10
-10.28258
 20
10.15383
 30
0.0
  0
SPLINE
  5
DB
330
1F
100
AcDbEntity
  8
Ebene 1
370
    15
100
AcDbSpline
210
0.0
220
0.0
230
1.0
 70
    24
 71
     3
 72
     8
 73
     4
 74
     0
 42
0.0000000001
 43
0.0000000001
 40
0.0
 40
0.0
 40
0.0
 40
0.0
 40
1.0
 40
1.0
 40
1.0
 40
1.0
 10
-10.17149
 20
11.25383
 30
0.0
 10
-10.17149
 20
11.25383
 30
0.0
 10
-10.17149
 20
11.26543
 30
0.0
 10
-10.17149
 20
11.26543
 30
0.0
  0
SPLINE
  5
DC
330
1F
100
AcDbEntity
  8
Ebene 1
370
    15
100
AcDbSpline
210
0.0
220
0.0
230
1.0
 70
     8
 71
     3
 72
     8
 73
     4
 74
     0
 42
0.0000000001
 43
0.0000000001
 40
0.0
 40
0.0
 40
0.0
 40
0.0
 40
1.0
 40
1.0
 40
1.0
 40
1.0
 10
-10.17149
 20
11.25383
 30
0.0
 10
-10.22288
 20
11.25383
 30
0.0
 10
-10.26591
 20
11.21488
 30
0.0
 10
-10.271
 20
11.16374
 30
0.0
  0
SPLINE
  5
DD
330
1F
100
AcDbEntity
  8
Ebene 1
370
    15
100
AcDbSpline
210
0.0
220
0.0
230
1.0
 70
     8
 71
     3
 72
     8
 73
     4
 74
     0
 42
0.0000000001
 43
0.0000000001
 40
0.0
 40
0.0
 40
0.0
 40
0.0
 40
1.0
 40
1.0
 40
1.0
 40
1.0
 10
-10.271
 20
11.16374
 30
0.0
 10
-10.271
 20
11.16367
 30
0.0
 10
-10.27101
 20
11.16362
 30
0.0
 10
-10.27102
 20
11.1636
 30
0.0
  0
SPLINE
  5
DE
330
1F
100
AcDbEntity
  8
Ebene 1
370
    15
100
AcDbSpline
210
0.0
220
0.0
230
1.0
 70
    24
 71
     3
 72
     8
 73
     4
 74
     0
 42
0.0000000001
 43
0.0000000001
 40
0.0
 40
0.0
 40
0.0
 40
0.0
 40
1.0
 40
1.0
 40
1.0
 40
1.0
 10
-10.53816
 20
10.15383
 30
0.0
 10
-10.53816
 20
10.15383
 30
0.0
 10
-10.53816
 20
11.15383
 30
0.0
 10
-10.53816
 20
11.15383
 30
0.0
  0
SPLINE
  5
DF
330
1F
100
AcDbEntity
  8
Ebene 1
370
    15
100
AcDbSpline
210
0.0
220
0.0
230
1.0
 70
    24
 71
     3
 72
     8
 73
     4
 74
     0
 42
0.0000000001
 43
0.0000000001
 40
0.0
 40
0.0
 40
0.0
 40
0.0
 40
1.0
 40
1.0
 40
1.0
 40
1.0
 10
-10.52656
 20
11.15383
 30
0.0
 10
-10.52656
 20
11.15383
 30
0.0
 10
-10.53816
 20
11.15383
 30
0.0
 10
-10.53816
 20
11.15383
 30
0.0
  0
SPLINE
  5
E0
330
1F
100
AcDbEntity
  8
Ebene 1
370
    15
100
AcDbSpline
210
0.0
220
0.0
230
1.0
 70
    24
 71
     3
 72
     8
 73
     4
 74
     0
 42
0.0000000001
 43
0.0000000001
 40
0.0
 40
0.0
 40
0.0
 40
0.0
 40
1.0
 40
1.0
 40
1.0
 40
1.0
 10
-10.52656
 20
10.15383
 30
0.0
 10
-10.52656
 20
10.15383
 30
0.0
 10
-10.53816
 20
10.15383
 30
0.0
 10
-10.53816
 20
10.15383
 30
0.0
  0
SPLINE
  5
E1
330
1F
100
AcDbEntity
  8
Ebene 1
370
    15
100
AcDbSpline
210
0.0
220
0.0
230
1.0
 70
     8
 71
     3
 72
    12
 73
     8
 74
     0
 42
0.0000000001
 43
0.0000000001
 40
0.0
 40
0.0
 40
0.0
 40
0.0
 40
0.3333333333333333
 40
0.3333333333333333
 40
0.3333333333333333
 40
0.3333333333333333
 40
1.0
 40
1.0
 40
1.0
 40
1.0
 10
-10.17149
 20
11.5205
 30
0.0
 10
-10.26874
 20
11.5205
 30
0.0
 10
-10.362
 20
11.48187
 30
0.0
 10
-10.43076
 20
11.4131
 30
0.0
 10
-10.43076
 20
11.4131
 30
0.0
 10
-10.49952
 20
11.34434
 30
0.0
 10
-10.53816
 20
11.25108
 30
0.0
 10
-10.53816
 20
11.15383
 30
0.0
  0
SPLINE
  5
E2
330
1F
100
AcDbEntity
  8
Ebene 1
370
    15
100
AcDbSpline
210
0.0
220
0.0
230
1.0
 70
    24
 71
     3
 72
     8
 73
     4
 74
     0
 42
0.0000000001
 43
0.0000000001
 40
0.0
 40
0.0
 40
0.0
 40
0.0
 40
1.0
 40
1.0
 40
1.0
 40
1.0
 10
-10.17149
 20
11.5089
 30
0.0
 10
-10.17149
 20
11.5089
 30
0.0
 10
-10.17149
 20
11.5205
 30
0.0
 10
-10.17149
 20
11.5205
 30
0.0
  0
SPLINE
  5
E3
330
1F
100
AcDbEntity
  8
Ebene 1
370
    15
100
AcDbSpline
210
0.0
220
0.0
230
1.0
 70
    24
 71
     3
 72
     8
 73
     4
 74
     0
 42
0.0000000001
 43
0.0000000001
 40
0.0
 40
0.0
 40
0.0
 40
0.0
 40
1.0
 40
1.0
 40
1.0
 40
1.0
 10
-9.67149
 20
11.25383
 30
0.0
 10
-9.67149
 20
11.25383
 30
0.0
 10
-10.17149
 20
11.25383
 30
0.0
 10
-10.17149
 20
11.25383
 30
0.0
  0
SPLINE
  5
E4
330
1F
100
AcDbEntity
  8
Ebene 1
370
    15
100
AcDbSpline
210
0.0
220
0.0
230
1.0
 70
    24
 71
     3
 72
     8
 73
     4
 74
     0
 42
0.0000000001
 43
0.0000000001
 40
0.0
 40
0.0
 40
0.0
 40
0.0
 40
1.0
 40
1.0
 40
1.0
 40
1.0
 10
-9.67149
 20
11.25383
 30
0.0
 10
-9.67149
 20
11.25383
 30
0.0
 10
-9.67149
 20
11.26543
 30
0.0
 10
-9.67149
 20
11.26543
 30
0.0
  0
SPLINE
  5
E5
330
1F
100
AcDbEntity
  8
Ebene 1
370
    15
100
AcDbSpline
210
0.0
220
0.0
230
1.0
 70
    24
 71
     3
 72
     8
 73
     4
 74
     0
 42
0.0000000001
 43
0.0000000001
 40
0.0
 40
0.0
 40
0.0
 40
0.0
 40
1.0
 40
1.0
 40
1.0
 40
1.0
 10
-10.17149
 20
11.5205
 30
0.0
 10
-10.17149
 20
11.5205
 30
0.0
 10
-9.67149
 20
11.5205
 30
0.0
 10
-9.67149
 20
11.5205
 30
0.0
  0
SPLINE
  5
E6
330
1F
100
AcDbEntity
  8
Ebene 1
370
    15
100
AcDbSpline
210
0.0
220
0.0
230
1.0
 70
    24
 71
     3
 72
     8
 73
     4
 74
     0
 42
0.0000000001
 43
0.0000000001
 40
0.0
 40
0.0
 40
0.0
 40
0.0
 40
1.0
 40
1.0
 40
1.0
 40
1.0
 10
-9.67149
 20
11.5089
 30
0.0
 10
-9.67149
 20
11.5089
 30
0.0
 10
-9.67149
 20
11.5205
 30
0.0
 10
-9.67149
 20
11.5205
 30
0.0
  0
SPLINE
  5
E7
330
1F
100
AcDbEntity
  8
Ebene 1
370
    15
100
AcDbSpline
210
0.0
220
0.0
230
1.0
 70
    24
 71
     3
 72
     8
 73
     4
 74
     0
 42
0.0000000001
 43
0.0000000001
 40
0.0
 40
0.0
 40
0.0
 40
0.0
 40
1.0
 40
1.0
 40
1.0
 40
1.0
 10
-9.67149
 20
11.5205
 30
0.0
 10
-9.67149
 20
11.5205
 30
0.0
 10
-9.38346
 20
11.5205
 30
0.0
 10
-9.38346
 20
11.5205
 30
0.0
  0
SPLINE
  5
E8
330
1F
100
AcDbEntity
  8
Ebene 1
370
    15
100
AcDbSpline
210
0.0
220
0.0
230
1.0
 70
     8
 71
     3
 72
     8
 73
     4
 74
     0
 42
0.0000000001
 43
0.0000000001
 40
0.0
 40
0.0
 40
0.0
 40
0.0
 40
1.0
 40
1.0
 40
1.0
 40
1.0
 10
-9.36759
 20
11.5089
 30
0.0
 10
-9.3698
 20
11.51581
 30
0.0
 10
-9.37621
 20
11.5205
 30
0.0
 10
-9.38346
 20
11.5205
 30
0.0
  0
SPLINE
  5
E9
330
1F
100
AcDbEntity
  8
Ebene 1
370
    15
100
AcDbSpline
210
0.0
220
0.0
230
1.0
 70
    24
 71
     3
 72
     8
 73
     4
 74
     0
 42
0.0000000001
 43
0.0000000001
 40
0.0
 40
0.0
 40
0.0
 40
0.0
 40
1.0
 40
1.0
 40
1.0
 40
1.0
 10
-9.38346
 20
11.25383
 30
0.0
 10
-9.38346
 20
11.25383
 30
0.0
 10
-9.67149
 20
11.25383
 30
0.0
 10
-9.67149
 20
11.25383
 30
0.0
  0
SPLINE
  5
EA
330
1F
100
AcDbEntity
  8
Ebene 1
370
    15
100
AcDbSpline
210
0.0
220
0.0
230
1.0
 70
     8
 71
     3
 72
     8
 73
     4
 74
     0
 42
0.0000000001
 43
0.0000000001
 40
0.0
 40
0.0
 40
0.0
 40
0.0
 40
1.0
 40
1.0
 40
1.0
 40
1.0
 10
-9.38346
 20
11.25383
 30
0.0
 10
-9.37621
 20
11.25383
 30
0.0
 10
-9.3698
 20
11.25852
 30
0.0
 10
-9.36759
 20
11.26543
 30
0.0
  0
SPLINE
  5
EB
330
1F
100
AcDbEntity
  8
Ebene 1
370
    15
100
AcDbSpline
210
0.0
220
0.0
230
1.0
 70
    24
 71
     3
 72
     8
 73
     4
 74
     0
 42
0.0000000001
 43
0.0000000001
 40
0.0
 40
0.0
 40
0.0
 40
0.0
 40
1.0
 40
1.0
 40
1.0
 40
1.0
 10
-10.24879
 20
10.15383
 30
0.0
 10
-10.24879
 20
10.15383
 30
0.0
 10
-10.27102
 20
10.15383
 30
0.0
 10
-10.27102
 20
10.15383
 30
0.0
  0
SPLINE
  5
EC
330
1F
100
AcDbEntity
  8
Ebene 1
370
    15
100
AcDbSpline
210
0.0
220
0.0
230
1.0
 70
     8
 71
     3
 72
    36
 73
    32
 74
     0
 42
0.0000000001
 43
0.0000000001
 40
0.0
 40
0.0
 40
0.0
 40
0.0
 40
0.1111111111111111
 40
0.1111111111111111
 40
0.1111111111111111
 40
0.1111111111111111
 40
0.2222222222222222
 40
0.2222222222222222
 40
0.2222222222222222
 40
0.2222222222222222
 40
0.3333333333333333
 40
0.3333333333333333
 40
0.3333333333333333
 40
0.3333333333333333
 40
0.4444444444444444
 40
0.4444444444444444
 40
0.4444444444444444
 40
0.4444444444444444
 40
0.5555555555555556
 40
0.5555555555555556
 40
0.5555555555555556
 40
0.5555555555555556
 40
0.6666666666666666
 40
0.6666666666666666
 40
0.6666666666666666
 40
0.6666666666666666
 40
0.7777777777777778
 40
0.7777777777777778
 40
0.7777777777777778
 40
0.7777777777777778
 40
1.0
 40
1.0
 40
1.0
 40
1.0
 10
-10.5142
 20
11.2842
 30
0.0
 10
-10.5142
 20
11.2842
 30
0.0
 10
-10.51435
 20
11.28426
 30
0.0
 10
-10.51435
 20
11.28426
 30
0.0
 10
-10.51435
 20
11.28426
 30
0.0
 10
-10.51435
 20
11.28426
 30
0.0
 10
-10.51479
 20
11.28443
 30
0.0
 10
-10.51479
 20
11.28443
 30
0.0
 10
-10.51479
 20
11.28443
 30
0.0
 10
-10.51479
 20
11.28443
 30
0.0
 10
-10.51551
 20
11.2847
 30
0.0
 10
-10.51551
 20
11.2847
 30
0.0
 10
-10.51551
 20
11.2847
 30
0.0
 10
-10.51551
 20
11.2847
 30
0.0
 10
-10.51648
 20
11.28507
 30
0.0
 10
-10.51648
 20
11.28507
 30
0.0
 10
-10.51648
 20
11.28507
 30
0.0
 10
-10.51648
 20
11.28507
 30
0.0
 10
-10.51766
 20
11.28552
 30
0.0
 10
-10.51766
 20
11.28552
 30
0.0
 10
-10.51766
 20
11.28552
 30
0.0
 10
-10.51766
 20
11.28552
 30
0.0
 10
-10.519
 20
11.28603
 30
0.0
 10
-10.519
 20
11.28603
 30
0.0
 10
-10.519
 20
11.28603
 30
0.0
 10
-10.519
 20
11.28603
 30
0.0
 10
-10.52047
 20
11.28659
 30
0.0
 10
-10.52047
 20
11.28659
 30
0.0
 10
-10.52047
 20
11.28659
 30
0.0
 10
-10.52047
 20
11.28659
 30
0.0
 10
-10.52198
 20
11.28717
 30
0.0
 10
-10.52198
 20
11.28717
 30
0.0
  0
SPLINE
  5
ED
330
1F
100
AcDbEntity
  8
Ebene 1
370
    15
100
AcDbSpline
210
0.0
220
0.0
230
1.0
 70
     8
 71
     3
 72
    32
 73
    28
 74
     0
 42
0.0000000001
 43
0.0000000001
 40
0.0
 40
0.0
 40
0.0
 40
0.0
 40
0.125
 40
0.125
 40
0.125
 40
0.125
 40
0.25
 40
0.25
 40
0.25
 40
0.25
 40
0.375
 40
0.375
 40
0.375
 40
0.375
 40
0.5
 40
0.5
 40
0.5
 40
0.5
 40
0.625
 40
0.625
 40
0.625
 40
0.625
 40
0.75
 40
0.75
 40
0.75
 40
0.75
 40
1.0
 40
1.0
 40
1.0
 40
1.0
 10
-10.52198
 20
11.28717
 30
0.0
 10
-10.51651
 20
11.30046
 30
0.0
 10
-10.51033
 20
11.31298
 30
0.0
 10
-10.50365
 20
11.32474
 30
0.0
 10
-10.50365
 20
11.32474
 30
0.0
 10
-10.50032
 20
11.33063
 30
0.0
 10
-10.49694
 20
11.33617
 30
0.0
 10
-10.49355
 20
11.34141
 30
0.0
 10
-10.49355
 20
11.34141
 30
0.0
 10
-10.49016
 20
11.34665
 30
0.0
 10
-10.48675
 20
11.35162
 30
0.0
 10
-10.48343
 20
11.3562
 30
0.0
 10
-10.48343
 20
11.3562
 30
0.0
 10
-10.48012
 20
11.36079
 30
0.0
 10
-10.47693
 20
11.36496
 30
0.0
 10
-10.47395
 20
11.36872
 30
0.0
 10
-10.47395
 20
11.36872
 30
0.0
 10
-10.47097
 20
11.37247
 30
0.0
 10
-10.4682
 20
11.37579
 30
0.0
 10
-10.46587
 20
11.37852
 30
0.0
 10
-10.46587
 20
11.37852
 30
0.0
 10
-10.46353
 20
11.38126
 30
0.0
 10
-10.46158
 20
11.38345
 30
0.0
 10
-10.46026
 20
11.38492
 30
0.0
 10
-10.46026
 20
11.38492
 30
0.0
 10
-10.45894
 20
11.3864
 30
0.0
 10
-10.45823
 20
11.38717
 30
0.0
 10
-10.45823
 20
11.38717
 30
0.0
  0
SPLINE
  5
EE
330
1F
100
AcDbEntity
  8
Ebene 1
370
    15
100
AcDbSpline
210
0.0
220
0.0
230
1.0
 70
     8
 71
     3
 72
     8
 73
     4
 74
     0
 42
0.0000000001
 43
0.0000000001
 40
0.0
 40
0.0
 40
0.0
 40
0.0
 40
1.0
 40
1.0
 40
1.0
 40
1.0
 10
-10.45823
 20
11.38717
 30
0.0
 10
-10.45578
 20
11.38717
 30
0.0
 10
-10.45344
 20
11.38825
 30
0.0
 10
-10.45186
 20
11.39013
 30
0.0
  0
SPLINE
  5
EF
330
1F
100
AcDbEntity
  8
Ebene 1
370
    15
100
AcDbSpline
210
0.0
220
0.0
230
1.0
 70
    24
 71
     3
 72
     8
 73
     4
 74
     0
 42
0.0000000001
 43
0.0000000001
 40
0.0
 40
0.0
 40
0.0
 40
0.0
 40
1.0
 40
1.0
 40
1.0
 40
1.0
 10
-10.53816
 20
11.15383
 30
0.0
 10
-10.53816
 20
11.15383
 30
0.0
 10
-10.54649
 20
11.15383
 30
0.0
 10
-10.54649
 20
11.15383
 30
0.0
  0
SPLINE
  5
F0
330
1F
100
AcDbEntity
  8
Ebene 1
370
    15
100
AcDbSpline
210
0.0
220
0.0
230
1.0
 70
     8
 71
     3
 72
     8
 73
     4
 74
     0
 42
0.0000000001
 43
0.0000000001
 40
0.0
 40
0.0
 40
0.0
 40
0.0
 40
1.0
 40
1.0
 40
1.0
 40
1.0
 10
-10.52198
 20
11.28717
 30
0.0
 10
-10.53819
 20
11.24458
 30
0.0
 10
-10.54649
 20
11.1994
 30
0.0
 10
-10.54649
 20
11.15383
 30
0.0
  0
SPLINE
  5
F1
330
1F
100
AcDbEntity
  8
Ebene 1
370
    15
100
AcDbSpline
210
0.0
220
0.0
230
1.0
 70
    24
 71
     3
 72
     8
 73
     4
 74
     0
 42
0.0000000001
 43
0.0000000001
 40
0.0
 40
0.0
 40
0.0
 40
0.0
 40
1.0
 40
1.0
 40
1.0
 40
1.0
 10
-10.54649
 20
10.15383
 30
0.0
 10
-10.54649
 20
10.15383
 30
0.0
 10
-10.54649
 20
11.15383
 30
0.0
 10
-10.54649
 20
11.15383
 30
0.0
  0
SPLINE
  5
F2
330
1F
100
AcDbEntity
  8
Ebene 1
370
    15
100
AcDbSpline
210
0.0
220
0.0
230
1.0
 70
    24
 71
     3
 72
     8
 73
     4
 74
     0
 42
0.0000000001
 43
0.0000000001
 40
0.0
 40
0.0
 40
0.0
 40
0.0
 40
1.0
 40
1.0
 40
1.0
 40
1.0
 10
-10.53816
 20
10.15383
 30
0.0
 10
-10.53816
 20
10.15383
 30
0.0
 10
-10.54649
 20
10.15383
 30
0.0
 10
-10.54649
 20
10.15383
 30
0.0
  0
SPLINE
  5
F3
330
1F
100
AcDbEntity
  8
Ebene 1
370
    15
100
AcDbSpline
210
0.0
220
0.0
230
1.0
 70
    24
 71
     3
 72
     8
 73
     4
 74
     0
 42
0.0000000001
 43
0.0000000001
 40
0.0
 40
0.0
 40
0.0
 40
0.0
 40
1.0
 40
1.0
 40
1.0
 40
1.0
 10
-10.58816
 20
11.38717
 30
0.0
 10
-10.58816
 20
11.38717
 30
0.0
 10
-10.58816
 20
11.28717
 30
0.0
 10
-10.58816
 20
11.28717
 30
0.0
  0
SPLINE
  5
F4
330
1F
100
AcDbEntity
  8
Ebene 1
370
    15
100
AcDbSpline
210
0.0
220
0.0
230
1.0
 70
    24
 71
     3
 72
     8
 73
     4
 74
     0
 42
0.0000000001
 43
0.0000000001
 40
0.0
 40
0.0
 40
0.0
 40
0.0
 40
1.0
 40
1.0
 40
1.0
 40
1.0
 10
-10.58816
 20
11.28717
 30
0.0
 10
-10.58816
 20
11.28717
 30
0.0
 10
-10.60482
 20
11.28717
 30
0.0
 10
-10.60482
 20
11.28717
 30
0.0
  0
SPLINE
  5
F5
330
1F
100
AcDbEntity
  8
Ebene 1
370
    15
100
AcDbSpline
210
0.0
220
0.0
230
1.0
 70
    24
 71
     3
 72
     8
 73
     4
 74
     0
 42
0.0000000001
 43
0.0000000001
 40
0.0
 40
0.0
 40
0.0
 40
0.0
 40
1.0
 40
1.0
 40
1.0
 40
1.0
 10
-10.60482
 20
11.28717
 30
0.0
 10
-10.60482
 20
11.28717
 30
0.0
 10
-10.60482
 20
11.3705
 30
0.0
 10
-10.60482
 20
11.3705
 30
0.0
  0
SPLINE
  5
F6
330
1F
100
AcDbEntity
  8
Ebene 1
370
    15
100
AcDbSpline
210
0.0
220
0.0
230
1.0
 70
     8
 71
     3
 72
    12
 73
     8
 74
     0
 42
0.0000000001
 43
0.0000000001
 40
0.0
 40
0.0
 40
0.0
 40
0.0
 40
0.3333333333333333
 40
0.3333333333333333
 40
0.3333333333333333
 40
0.3333333333333333
 40
1.0
 40
1.0
 40
1.0
 40
1.0
 10
-10.58816
 20
11.38717
 30
0.0
 10
-10.59258
 20
11.38717
 30
0.0
 10
-10.59682
 20
11.38541
 30
0.0
 10
-10.59994
 20
11.38228
 30
0.0
 10
-10.59994
 20
11.38228
 30
0.0
 10
-10.60307
 20
11.37916
 30
0.0
 10
-10.60482
 20
11.37492
 30
0.0
 10
-10.60482
 20
11.3705
 30
0.0
  0
SPLINE
  5
F7
330
1F
100
AcDbEntity
  8
Ebene 1
370
    15
100
AcDbSpline
210
0.0
220
0.0
230
1.0
 70
    24
 71
     3
 72
     8
 73
     4
 74
     0
 42
0.0000000001
 43
0.0000000001
 40
0.0
 40
0.0
 40
0.0
 40
0.0
 40
1.0
 40
1.0
 40
1.0
 40
1.0
 10
-10.58816
 20
11.28717
 30
0.0
 10
-10.58816
 20
11.28717
 30
0.0
 10
-10.58816
 20
10.15383
 30
0.0
 10
-10.58816
 20
10.15383
 30
0.0
  0
SPLINE
  5
F8
330
1F
100
AcDbEntity
  8
Ebene 1
370
    15
100
AcDbSpline
210
0.0
220
0.0
230
1.0
 70
    24
 71
     3
 72
     8
 73
     4
 74
     0
 42
0.0000000001
 43
0.0000000001
 40
0.0
 40
0.0
 40
0.0
 40
0.0
 40
1.0
 40
1.0
 40
1.0
 40
1.0
 10
-10.52198
 20
11.28717
 30
0.0
 10
-10.52198
 20
11.28717
 30
0.0
 10
-10.58816
 20
11.28717
 30
0.0
 10
-10.58816
 20
11.28717
 30
0.0
  0
SPLINE
  5
F9
330
1F
100
AcDbEntity
  8
Ebene 1
370
    15
100
AcDbSpline
210
0.0
220
0.0
230
1.0
 70
    24
 71
     3
 72
     8
 73
     4
 74
     0
 42
0.0000000001
 43
0.0000000001
 40
0.0
 40
0.0
 40
0.0
 40
0.0
 40
1.0
 40
1.0
 40
1.0
 40
1.0
 10
-10.58816
 20
10.15383
 30
0.0
 10
-10.58816
 20
10.15383
 30
0.0
 10
-10.54649
 20
10.15383
 30
0.0
 10
-10.54649
 20
10.15383
 30
0.0
  0
SPLINE
  5
FA
330
1F
100
AcDbEntity
  8
Ebene 1
370
    15
100
AcDbSpline
210
0.0
220
0.0
230
1.0
 70
    24
 71
     3
 72
     8
 73
     4
 74
     0
 42
0.0000000001
 43
0.0000000001
 40
0.0
 40
0.0
 40
0.0
 40
0.0
 40
1.0
 40
1.0
 40
1.0
 40
1.0
 10
-10.60482
 20
10.15383
 30
0.0
 10
-10.60482
 20
10.15383
 30
0.0
 10
-10.60482
 20
11.28717
 30
0.0
 10
-10.60482
 20
11.28717
 30
0.0
  0
SPLINE
  5
FB
330
1F
100
AcDbEntity
  8
Ebene 1
370
    15
100
AcDbSpline
210
0.0
220
0.0
230
1.0
 70
    24
 71
     3
 72
     8
 73
     4
 74
     0
 42
0.0000000001
 43
0.0000000001
 40
0.0
 40
0.0
 40
0.0
 40
0.0
 40
1.0
 40
1.0
 40
1.0
 40
1.0
 10
-10.58816
 20
10.15383
 30
0.0
 10
-10.58816
 20
10.15383
 30
0.0
 10
-10.60482
 20
10.15383
 30
0.0
 10
-10.60482
 20
10.15383
 30
0.0
  0
SPLINE
  5
FC
330
1F
100
AcDbEntity
  8
Ebene 1
370
    15
100
AcDbSpline
210
0.0
220
0.0
230
1.0
 70
    24
 71
     3
 72
     8
 73
     4
 74
     0
 42
0.0000000001
 43
0.0000000001
 40
0.0
 40
0.0
 40
0.0
 40
0.0
 40
1.0
 40
1.0
 40
1.0
 40
1.0
 10
-10.58816
 20
11.38717
 30
0.0
 10
-10.58816
 20
11.38717
 30
0.0
 10
-10.45823
 20
11.38717
 30
0.0
 10
-10.45823
 20
11.38717
 30
0.0
  0
SPLINE
  5
FD
330
1F
100
AcDbEntity
  8
Ebene 1
370
    15
100
AcDbSpline
210
0.0
220
0.0
230
1.0
 70
     8
 71
     3
 72
    16
 73
    12
 74
     0
 42
0.0000000001
 43
0.0000000001
 40
0.0
 40
0.0
 40
0.0
 40
0.0
 40
0.25
 40
0.25
 40
0.25
 40
0.25
 40
0.5
 40
0.5
 40
0.5
 40
0.5
 40
1.0
 40
1.0
 40
1.0
 40
1.0
 10
-10.5142
 20
11.2842
 30
0.0
 10
-10.50888
 20
11.29684
 30
0.0
 10
-10.50356
 20
11.30948
 30
0.0
 10
-10.49748
 20
11.32168
 30
0.0
 10
-10.49748
 20
11.32168
 30
0.0
 10
-10.49139
 20
11.3339
 30
0.0
 10
-10.48453
 20
11.34568
 30
0.0
 10
-10.47897
 20
11.35357
 30
0.0
 10
-10.47897
 20
11.35357
 30
0.0
 10
-10.47868
 20
11.35399
 30
0.0
 10
-10.47839
 20
11.3544
 30
0.0
 10
-10.4781
 20
11.3548
 30
0.0
  0
SPLINE
  5
FE
330
1F
100
AcDbEntity
  8
Ebene 1
100
AcDbSpline
210
0.0
220
0.0
230
1.0
 70
    27
 71
     3
 72
    12
 73
     8
 74
     0
 42
0.0000000001
 43
0.0000000001
 40
0.0
 40
0.0
 40
0.0
 40
0.0
 40
0.3333333333333333
 40
0.3333333333333333
 40
0.3333333333333333
 40
0.3333333333333333
 40
1.0
 40
1.0
 40
1.0
 40
1.0
 10
-10.60482
 20
12.06804
 30
0.0
 10
-10.60482
 20
12.06804
 30
0.0
 10
-10.27462
 20
12.11884
 30
0.0
 10
-10.27462
 20
12.11884
 30
0.0
 10
-10.27462
 20
12.11884
 30
0.0
 10
-10.27462
 20
12.11884
 30
0.0
 10
-10.60482
 20
12.06804
 30
0.0
 10
-10.60482
 20
12.06804
 30
0.0
  0
SPLINE
  5
FF
330
1F
100
AcDbEntity
  8
Ebene 1
100
AcDbSpline
210
0.0
220
0.0
230
1.0
 70
     8
 71
     3
 72
    12
 73
     8
 74
     0
 42
0.0000000001
 43
0.0000000001
 40
0.0
 40
0.0
 40
0.0
 40
0.0
 40
0.3333333333333333
 40
0.3333333333333333
 40
0.3333333333333333
 40
0.3333333333333333
 40
1.0
 40
1.0
 40
1.0
 40
1.0
 10
-10.27462
 20
12.11884
 30
0.0
 10
-10.27462
 20
12.11884
 30
0.0
 10
-10.27462
 20
12.01724
 30
0.0
 10
-10.27462
 20
12.01724
 30
0.0
 10
-10.27462
 20
12.01724
 30
0.0
 10
-10.27462
 20
12.01724
 30
0.0
 10
-10.60482
 20
12.06804
 30
0.0
 10
-10.60482
 20
12.06804
 30
0.0
  0
SPLINE
  5
100
330
1F
100
AcDbEntity
  8
Ebene 1
370
     9
100
AcDbSpline
210
0.0
220
0.0
230
1.0
 70
    24
 71
     3
 72
     8
 73
     4
 74
     0
 42
0.0000000001
 43
0.0000000001
 40
0.0
 40
0.0
 40
0.0
 40
0.0
 40
1.0
 40
1.0
 40
1.0
 40
1.0
 10
-10.60482
 20
12.06804
 30
0.0
 10
-10.60482
 20
12.06804
 30
0.0
 10
-10.27462
 20
12.11884
 30
0.0
 10
-10.27462
 20
12.11884
 30
0.0
  0
SPLINE
  5
101
330
1F
100
AcDbEntity
  8
Ebene 1
370
     9
100
AcDbSpline
210
0.0
220
0.0
230
1.0
 70
     8
 71
     3
 72
    12
 73
     8
 74
     0
 42
0.0000000001
 43
0.0000000001
 40
0.0
 40
0.0
 40
0.0
 40
0.0
 40
0.3333333333333333
 40
0.3333333333333333
 40
0.3333333333333333
 40
0.3333333333333333
 40
1.0
 40
1.0
 40
1.0
 40
1.0
 10
-10.27462
 20
12.11884
 30
0.0
 10
-10.27462
 20
12.11884
 30
0.0
 10
-10.27462
 20
12.01724
 30
0.0
 10
-10.27462
 20
12.01724
 30
0.0
 10
-10.27462
 20
12.01724
 30
0.0
 10
-10.27462
 20
12.01724
 30
0.0
 10
-10.60482
 20
12.06804
 30
0.0
 10
-10.60482
 20
12.06804
 30
0.0
  0
SPLINE
  5
102
330
1F
100
AcDbEntity
  8
Ebene 1
100
AcDbSpline
210
0.0
220
0.0
230
1.0
 70
    27
 71
     3
 72
    12
 73
     8
 74
     0
 42
0.0000000001
 43
0.0000000001
 40
0.0
 40
0.0
 40
0.0
 40
0.0
 40
0.3333333333333333
 40
0.3333333333333333
 40
0.3333333333333333
 40
0.3333333333333333
 40
1.0
 40
1.0
 40
1.0
 40
1.0
 10
2.91184
 20
12.06804
 30
0.0
 10
2.91184
 20
12.06804
 30
0.0
 10
2.58164
 20
12.01724
 30
0.0
 10
2.58164
 20
12.01724
 30
0.0
 10
2.58164
 20
12.01724
 30
0.0
 10
2.58164
 20
12.01724
 30
0.0
 10
2.91184
 20
12.06804
 30
0.0
 10
2.91184
 20
12.06804
 30
0.0
  0
SPLINE
  5
103
330
1F
100
AcDbEntity
  8
Ebene 1
100
AcDbSpline
210
0.0
220
0.0
230
1.0
 70
     8
 71
     3
 72
    12
 73
     8
 74
     0
 42
0.0000000001
 43
0.0000000001
 40
0.0
 40
0.0
 40
0.0
 40
0.0
 40
0.3333333333333333
 40
0.3333333333333333
 40
0.3333333333333333
 40
0.3333333333333333
 40
1.0
 40
1.0
 40
1.0
 40
1.0
 10
2.58164
 20
12.01724
 30
0.0
 10
2.58164
 20
12.01724
 30
0.0
 10
2.58164
 20
12.11884
 30
0.0
 10
2.58164
 20
12.11884
 30
0.0
 10
2.58164
 20
12.11884
 30
0.0
 10
2.58164
 20
12.11884
 30
0.0
 10
2.91184
 20
12.06804
 30
0.0
 10
2.91184
 20
12.06804
 30
0.0
  0
SPLINE
  5
104
330
1F
100
AcDbEntity
  8
Ebene 1
370
     9
100
AcDbSpline
210
0.0
220
0.0
230
1.0
 70
    24
 71
     3
 72
     8
 73
     4
 74
     0
 42
0.0000000001
 43
0.0000000001
 40
0.0
 40
0.0
 40
0.0
 40
0.0
 40
1.0
 40
1.0
 40
1.0
 40
1.0
 10
2.91184
 20
12.06804
 30
0.0
 10
2.91184
 20
12.06804
 30
0.0
 10
2.58164
 20
12.01724
 30
0.0
 10
2.58164
 20
12.01724
 30
0.0
  0
SPLINE
  5
105
330
1F
100
AcDbEntity
  8
Ebene 1
370
     9
100
AcDbSpline
210
0.0
220
0.0
230
1.0
 70
     8
 71
     3
 72
    12
 73
     8
 74
     0
 42
0.0000000001
 43
0.0000000001
 40
0.0
 40
0.0
 40
0.0
 40
0.0
 40
0.3333333333333333
 40
0.3333333333333333
 40
0.3333333333333333
 40
0.3333333333333333
 40
1.0
 40
1.0
 40
1.0
 40
1.0
 10
2.58164
 20
12.01724
 30
0.0
 10
2.58164
 20
12.01724
 30
0.0
 10
2.58164
 20
12.11884
 30
0.0
 10
2.58164
 20
12.11884
 30
0.0
 10
2.58164
 20
12.11884
 30
0.0
 10
2.58164
 20
12.11884
 30
0.0
 10
2.91184
 20
12.06804
 30
0.0
 10
2.91184
 20
12.06804
 30
0.0
  0
SPLINE
  5
106
330
1F
100
AcDbEntity
  8
Ebene 1
370
     9
100
AcDbSpline
210
0.0
220
0.0
230
1.0
 70
    24
 71
     3
 72
     8
 73
     4
 74
     0
 42
0.0000000001
 43
0.0000000001
 40
0.0
 40
0.0
 40
0.0
 40
0.0
 40
1.0
 40
1.0
 40
1.0
 40
1.0
 10
-10.60482
 20
11.38717
 30
0.0
 10
-10.60482
 20
11.38717
 30
0.0
 10
-10.60482
 20
12.16804
 30
0.0
 10
-10.60482
 20
12.16804
 30
0.0
  0
SPLINE
  5
107
330
1F
100
AcDbEntity
  8
Ebene 1
370
     9
100
AcDbSpline
210
0.0
220
0.0
230
1.0
 70
    24
 71
     3
 72
     8
 73
     4
 74
     0
 42
0.0000000001
 43
0.0000000001
 40
0.0
 40
0.0
 40
0.0
 40
0.0
 40
1.0
 40
1.0
 40
1.0
 40
1.0
 10
2.91184
 20
11.16717
 30
0.0
 10
2.91184
 20
11.16717
 30
0.0
 10
2.91184
 20
12.16804
 30
0.0
 10
2.91184
 20
12.16804
 30
0.0
  0
SPLINE
  5
108
330
1F
100
AcDbEntity
  8
Ebene 1
370
     9
100
AcDbSpline
210
0.0
220
0.0
230
1.0
 70
    24
 71
     3
 72
     8
 73
     4
 74
     0
 42
0.0000000001
 43
0.0000000001
 40
0.0
 40
0.0
 40
0.0
 40
0.0
 40
1.0
 40
1.0
 40
1.0
 40
1.0
 10
-10.60482
 20
12.06804
 30
0.0
 10
-10.60482
 20
12.06804
 30
0.0
 10
2.91184
 20
12.06804
 30
0.0
 10
2.91184
 20
12.06804
 30
0.0
  0
SPLINE
  5
109
330
1F
100
AcDbEntity
  8
Ebene 1
100
AcDbSpline
210
0.0
220
0.0
230
1.0
 70
    11
 71
     3
 72
    48
 73
    44
 74
     0
 42
0.0000000001
 43
0.0000000001
 40
0.0
 40
0.0
 40
0.0
 40
0.0
 40
0.0833333333333333
 40
0.0833333333333333
 40
0.0833333333333333
 40
0.0833333333333333
 40
0.1666666666666667
 40
0.1666666666666667
 40
0.1666666666666667
 40
0.1666666666666667
 40
0.25
 40
0.25
 40
0.25
 40
0.25
 40
0.3333333333333333
 40
0.3333333333333333
 40
0.3333333333333333
 40
0.3333333333333333
 40
0.4166666666666667
 40
0.4166666666666667
 40
0.4166666666666667
 40
0.4166666666666667
 40
0.5
 40
0.5
 40
0.5
 40
0.5
 40
0.5833333333333334
 40
0.5833333333333334
 40
0.5833333333333334
 40
0.5833333333333334
 40
0.6666666666666666
 40
0.6666666666666666
 40
0.6666666666666666
 40
0.6666666666666666
 40
0.75
 40
0.75
 40
0.75
 40
0.75
 40
0.8333333333333334
 40
0.8333333333333334
 40
0.8333333333333334
 40
0.8333333333333334
 40
1.0
 40
1.0
 40
1.0
 40
1.0
 10
-3.68348
 20
12.20234
 30
0.0
 10
-3.68348
 20
12.20234
 30
0.0
 10
-3.68348
 20
12.26231
 30
0.0
 10
-3.68348
 20
12.26231
 30
0.0
 10
-3.68348
 20
12.26231
 30
0.0
 10
-3.68348
 20
12.26231
 30
0.0
 10
-3.79216
 20
12.26231
 30
0.0
 10
-3.79216
 20
12.26231
 30
0.0
 10
-3.79216
 20
12.26231
 30
0.0
 10
-3.79216
 20
12.26231
 30
0.0
 10
-3.79216
 20
12.29054
 30
0.0
 10
-3.79216
 20
12.29054
 30
0.0
 10
-3.79216
 20
12.29054
 30
0.0
 10
-3.79216
 20
12.29054
 30
0.0
 10
-3.67782
 20
12.45288
 30
0.0
 10
-3.67782
 20
12.45288
 30
0.0
 10
-3.67782
 20
12.45288
 30
0.0
 10
-3.67782
 20
12.45288
 30
0.0
 10
-3.65268
 20
12.45288
 30
0.0
 10
-3.65268
 20
12.45288
 30
0.0
 10
-3.65268
 20
12.45288
 30
0.0
 10
-3.65268
 20
12.45288
 30
0.0
 10
-3.65268
 20
12.29054
 30
0.0
 10
-3.65268
 20
12.29054
 30
0.0
 10
-3.65268
 20
12.29054
 30
0.0
 10
-3.65268
 20
12.29054
 30
0.0
 10
-3.61885
 20
12.29054
 30
0.0
 10
-3.61885
 20
12.29054
 30
0.0
 10
-3.61885
 20
12.29054
 30
0.0
 10
-3.61885
 20
12.29054
 30
0.0
 10
-3.61885
 20
12.26231
 30
0.0
 10
-3.61885
 20
12.26231
 30
0.0
 10
-3.61885
 20
12.26231
 30
0.0
 10
-3.61885
 20
12.26231
 30
0.0
 10
-3.65268
 20
12.26231
 30
0.0
 10
-3.65268
 20
12.26231
 30
0.0
 10
-3.65268
 20
12.26231
 30
0.0
 10
-3.65268
 20
12.26231
 30
0.0
 10
-3.65268
 20
12.20234
 30
0.0
 10
-3.65268
 20
12.20234
 30
0.0
 10
-3.65268
 20
12.20234
 30
0.0
 10
-3.65268
 20
12.20234
 30
0.0
 10
-3.68348
 20
12.20234
 30
0.0
 10
-3.68348
 20
12.20234
 30
0.0
  0
SPLINE
  5
10A
330
1F
100
AcDbEntity
  8
Ebene 1
100
AcDbSpline
210
0.0
220
0.0
230
1.0
 70
    11
 71
     3
 72
    16
 73
    12
 74
     0
 42
0.0000000001
 43
0.0000000001
 40
0.0
 40
0.0
 40
0.0
 40
0.0
 40
0.25
 40
0.25
 40
0.25
 40
0.25
 40
0.5
 40
0.5
 40
0.5
 40
0.5
 40
1.0
 40
1.0
 40
1.0
 40
1.0
 10
-3.68348
 20
12.29054
 30
0.0
 10
-3.68348
 20
12.29054
 30
0.0
 10
-3.68348
 20
12.40347
 30
0.0
 10
-3.68348
 20
12.40347
 30
0.0
 10
-3.68348
 20
12.40347
 30
0.0
 10
-3.68348
 20
12.40347
 30
0.0
 10
-3.76188
 20
12.29054
 30
0.0
 10
-3.76188
 20
12.29054
 30
0.0
 10
-3.76188
 20
12.29054
 30
0.0
 10
-3.76188
 20
12.29054
 30
0.0
 10
-3.68348
 20
12.29054
 30
0.0
 10
-3.68348
 20
12.29054
 30
0.0
  0
SPLINE
  5
10B
330
1F
100
AcDbEntity
  8
Ebene 1
100
AcDbSpline
210
0.0
220
0.0
230
1.0
 70
    11
 71
     3
 72
    52
 73
    48
 74
     0
 42
0.0000000001
 43
0.0000000001
 40
0.0
 40
0.0
 40
0.0
 40
0.0
 40
0.0769230769230769
 40
0.0769230769230769
 40
0.0769230769230769
 40
0.0769230769230769
 40
0.1538461538461539
 40
0.1538461538461539
 40
0.1538461538461539
 40
0.1538461538461539
 40
0.2307692307692308
 40
0.2307692307692308
 40
0.2307692307692308
 40
0.2307692307692308
 40
0.3076923076923077
 40
0.3076923076923077
 40
0.3076923076923077
 40
0.3076923076923077
 40
0.3846153846153846
 40
0.3846153846153846
 40
0.3846153846153846
 40
0.3846153846153846
 40
0.4615384615384616
 40
0.4615384615384616
 40
0.4615384615384616
 40
0.4615384615384616
 40
0.5384615384615384
 40
0.5384615384615384
 40
0.5384615384615384
 40
0.5384615384615384
 40
0.6153846153846154
 40
0.6153846153846154
 40
0.6153846153846154
 40
0.6153846153846154
 40
0.6923076923076923
 40
0.6923076923076923
 40
0.6923076923076923
 40
0.6923076923076923
 40
0.7692307692307693
 40
0.7692307692307693
 40
0.7692307692307693
 40
0.7692307692307693
 40
0.8461538461538461
 40
0.8461538461538461
 40
0.8461538461538461
 40
0.8461538461538461
 40
1.0
 40
1.0
 40
1.0
 40
1.0
 10
-3.58741
 20
12.32589
 30
0.0
 10
-3.58741
 20
12.35552
 30
0.0
 10
-3.58437
 20
12.37938
 30
0.0
 10
-3.57825
 20
12.39741
 30
0.0
 10
-3.57825
 20
12.39741
 30
0.0
 10
-3.57218
 20
12.41549
 30
0.0
 10
-3.56308
 20
12.42943
 30
0.0
 10
-3.55106
 20
12.43923
 30
0.0
 10
-3.55106
 20
12.43923
 30
0.0
 10
-3.53905
 20
12.44903
 30
0.0
 10
-3.52394
 20
12.45393
 30
0.0
 10
-3.50574
 20
12.45393
 30
0.0
 10
-3.50574
 20
12.45393
 30
0.0
 10
-3.49226
 20
12.45393
 30
0.0
 10
-3.48048
 20
12.45119
 30
0.0
 10
-3.47033
 20
12.44576
 30
0.0
 10
-3.47033
 20
12.44576
 30
0.0
 10
-3.46018
 20
12.4404
 30
0.0
 10
-3.45184
 20
12.43258
 30
0.0
 10
-3.44519
 20
12.42237
 30
0.0
 10
-3.44519
 20
12.42237
 30
0.0
 10
-3.4386
 20
12.41216
 30
0.0
 10
-3.43341
 20
12.39974
 30
0.0
 10
-3.42967
 20
12.3851
 30
0.0
 10
-3.42967
 20
12.3851
 30
0.0
 10
-3.42588
 20
12.37046
 30
0.0
 10
-3.42401
 20
12.35074
 30
0.0
 10
-3.42401
 20
12.32589
 30
0.0
 10
-3.42401
 20
12.32589
 30
0.0
 10
-3.42401
 20
12.29649
 30
0.0
 10
-3.42705
 20
12.27281
 30
0.0
 10
-3.43306
 20
12.25472
 30
0.0
 10
-3.43306
 20
12.25472
 30
0.0
 10
-3.43912
 20
12.23664
 30
0.0
 10
-3.44816
 20
12.2227
 30
0.0
 10
-3.46018
 20
12.21284
 30
0.0
 10
-3.46018
 20
12.21284
 30
0.0
 10
-3.4722
 20
12.20298
 30
0.0
 10
-3.48736
 20
12.19808
 30
0.0
 10
-3.50574
 20
12.19808
 30
0.0
 10
-3.50574
 20
12.19808
 30
0.0
 10
-3.52989
 20
12.19808
 30
0.0
 10
-3.54885
 20
12.20671
 30
0.0
 10
-3.56261
 20
12.22404
 30
0.0
 10
-3.56261
 20
12.22404
 30
0.0
 10
-3.57912
 20
12.24486
 30
0.0
 10
-3.58741
 20
12.27887
 30
0.0
 10
-3.58741
 20
12.32589
 30
0.0
  0
SPLINE
  5
10C
330
1F
100
AcDbEntity
  8
Ebene 1
100
AcDbSpline
210
0.0
220
0.0
230
1.0
 70
    11
 71
     3
 72
    36
 73
    32
 74
     0
 42
0.0000000001
 43
0.0000000001
 40
0.0
 40
0.0
 40
0.0
 40
0.0
 40
0.1111111111111111
 40
0.1111111111111111
 40
0.1111111111111111
 40
0.1111111111111111
 40
0.2222222222222222
 40
0.2222222222222222
 40
0.2222222222222222
 40
0.2222222222222222
 40
0.3333333333333333
 40
0.3333333333333333
 40
0.3333333333333333
 40
0.3333333333333333
 40
0.4444444444444444
 40
0.4444444444444444
 40
0.4444444444444444
 40
0.4444444444444444
 40
0.5555555555555556
 40
0.5555555555555556
 40
0.5555555555555556
 40
0.5555555555555556
 40
0.6666666666666666
 40
0.6666666666666666
 40
0.6666666666666666
 40
0.6666666666666666
 40
0.7777777777777778
 40
0.7777777777777778
 40
0.7777777777777778
 40
0.7777777777777778
 40
1.0
 40
1.0
 40
1.0
 40
1.0
 10
-3.55579
 20
12.32589
 30
0.0
 10
-3.55579
 20
12.28476
 30
0.0
 10
-3.55095
 20
12.25741
 30
0.0
 10
-3.54132
 20
12.24376
 30
0.0
 10
-3.54132
 20
12.24376
 30
0.0
 10
-3.5317
 20
12.23016
 30
0.0
 10
-3.51986
 20
12.22334
 30
0.0
 10
-3.50574
 20
12.22334
 30
0.0
 10
-3.50574
 20
12.22334
 30
0.0
 10
-3.49156
 20
12.22334
 30
0.0
 10
-3.47972
 20
12.23022
 30
0.0
 10
-3.4701
 20
12.24387
 30
0.0
 10
-3.4701
 20
12.24387
 30
0.0
 10
-3.46047
 20
12.25752
 30
0.0
 10
-3.45563
 20
12.28488
 30
0.0
 10
-3.45563
 20
12.32589
 30
0.0
 10
-3.45563
 20
12.32589
 30
0.0
 10
-3.45563
 20
12.36713
 30
0.0
 10
-3.46047
 20
12.39455
 30
0.0
 10
-3.4701
 20
12.40808
 30
0.0
 10
-3.4701
 20
12.40808
 30
0.0
 10
-3.47972
 20
12.42167
 30
0.0
 10
-3.49168
 20
12.42844
 30
0.0
 10
-3.50603
 20
12.42844
 30
0.0
 10
-3.50603
 20
12.42844
 30
0.0
 10
-3.52021
 20
12.42844
 30
0.0
 10
-3.53146
 20
12.42243
 30
0.0
 10
-3.53992
 20
12.41047
 30
0.0
 10
-3.53992
 20
12.41047
 30
0.0
 10
-3.55048
 20
12.39525
 30
0.0
 10
-3.55579
 20
12.36701
 30
0.0
 10
-3.55579
 20
12.32589
 30
0.0
  0
SPLINE
  5
10D
330
1F
100
AcDbEntity
  8
Ebene 1
100
AcDbSpline
210
0.0
220
0.0
230
1.0
 70
    11
 71
     3
 72
    80
 73
    76
 74
     0
 42
0.0000000001
 43
0.0000000001
 40
0.0
 40
0.0
 40
0.0
 40
0.0
 40
0.05
 40
0.05
 40
0.05
 40
0.05
 40
0.1
 40
0.1
 40
0.1
 40
0.1
 40
0.15
 40
0.15
 40
0.15
 40
0.15
 40
0.2
 40
0.2
 40
0.2
 40
0.2
 40
0.25
 40
0.25
 40
0.25
 40
0.25
 40
0.3
 40
0.3
 40
0.3
 40
0.3
 40
0.35
 40
0.35
 40
0.35
 40
0.35
 40
0.4
 40
0.4
 40
0.4
 40
0.4
 40
0.45
 40
0.45
 40
0.45
 40
0.45
 40
0.5
 40
0.5
 40
0.5
 40
0.5
 40
0.55
 40
0.55
 40
0.55
 40
0.55
 40
0.6
 40
0.6
 40
0.6
 40
0.6
 40
0.65
 40
0.65
 40
0.65
 40
0.65
 40
0.7
 40
0.7
 40
0.7
 40
0.7
 40
0.75
 40
0.75
 40
0.75
 40
0.75
 40
0.8
 40
0.8
 40
0.8
 40
0.8
 40
0.85
 40
0.85
 40
0.85
 40
0.85
 40
0.9
 40
0.9
 40
0.9
 40
0.9
 40
1.0
 40
1.0
 40
1.0
 40
1.0
 10
-3.23315
 20
12.39151
 30
0.0
 10
-3.23315
 20
12.39151
 30
0.0
 10
-3.26371
 20
12.38912
 30
0.0
 10
-3.26371
 20
12.38912
 30
0.0
 10
-3.26371
 20
12.38912
 30
0.0
 10
-3.26645
 20
12.4012
 30
0.0
 10
-3.2703
 20
12.41001
 30
0.0
 10
-3.27532
 20
12.41543
 30
0.0
 10
-3.27532
 20
12.41543
 30
0.0
 10
-3.28366
 20
12.42424
 30
0.0
 10
-3.29393
 20
12.42861
 30
0.0
 10
-3.30612
 20
12.42861
 30
0.0
 10
-3.30612
 20
12.42861
 30
0.0
 10
-3.31592
 20
12.42861
 30
0.0
 10
-3.3245
 20
12.42587
 30
0.0
 10
-3.3319
 20
12.42039
 30
0.0
 10
-3.3319
 20
12.42039
 30
0.0
 10
-3.34159
 20
12.41333
 30
0.0
 10
-3.34923
 20
12.40301
 30
0.0
 10
-3.35483
 20
12.38947
 30
0.0
 10
-3.35483
 20
12.38947
 30
0.0
 10
-3.36037
 20
12.37594
 30
0.0
 10
-3.36329
 20
12.35663
 30
0.0
 10
-3.36352
 20
12.33155
 30
0.0
 10
-3.36352
 20
12.33155
 30
0.0
 10
-3.35611
 20
12.34281
 30
0.0
 10
-3.34707
 20
12.35121
 30
0.0
 10
-3.33634
 20
12.35669
 30
0.0
 10
-3.33634
 20
12.35669
 30
0.0
 10
-3.32566
 20
12.36211
 30
0.0
 10
-3.3144
 20
12.36486
 30
0.0
 10
-3.30268
 20
12.36486
 30
0.0
 10
-3.30268
 20
12.36486
 30
0.0
 10
-3.28215
 20
12.36486
 30
0.0
 10
-3.2647
 20
12.35733
 30
0.0
 10
-3.2503
 20
12.34222
 30
0.0
 10
-3.2503
 20
12.34222
 30
0.0
 10
-3.23589
 20
12.32711
 30
0.0
 10
-3.22865
 20
12.30763
 30
0.0
 10
-3.22865
 20
12.28371
 30
0.0
 10
-3.22865
 20
12.28371
 30
0.0
 10
-3.22865
 20
12.26796
 30
0.0
 10
-3.2321
 20
12.25338
 30
0.0
 10
-3.23886
 20
12.23985
 30
0.0
 10
-3.23886
 20
12.23985
 30
0.0
 10
-3.24563
 20
12.22637
 30
0.0
 10
-3.25496
 20
12.21599
 30
0.0
 10
-3.2668
 20
12.20881
 30
0.0
 10
-3.2668
 20
12.20881
 30
0.0
 10
-3.27865
 20
12.20164
 30
0.0
 10
-3.29206
 20
12.19808
 30
0.0
 10
-3.30711
 20
12.19808
 30
0.0
 10
-3.30711
 20
12.19808
 30
0.0
 10
-3.33278
 20
12.19808
 30
0.0
 10
-3.35366
 20
12.20747
 30
0.0
 10
-3.36982
 20
12.22637
 30
0.0
 10
-3.36982
 20
12.22637
 30
0.0
 10
-3.38604
 20
12.24521
 30
0.0
 10
-3.39409
 20
12.27631
 30
0.0
 10
-3.39409
 20
12.31959
 30
0.0
 10
-3.39409
 20
12.31959
 30
0.0
 10
-3.39409
 20
12.36801
 30
0.0
 10
-3.38516
 20
12.40318
 30
0.0
 10
-3.36725
 20
12.42517
 30
0.0
 10
-3.36725
 20
12.42517
 30
0.0
 10
-3.35168
 20
12.44431
 30
0.0
 10
-3.33068
 20
12.45393
 30
0.0
 10
-3.3042
 20
12.45393
 30
0.0
 10
-3.3042
 20
12.45393
 30
0.0
 10
-3.28454
 20
12.45393
 30
0.0
 10
-3.26838
 20
12.44839
 30
0.0
 10
-3.25578
 20
12.43731
 30
0.0
 10
-3.25578
 20
12.43731
 30
0.0
 10
-3.24318
 20
12.42628
 30
0.0
 10
-3.23565
 20
12.411
 30
0.0
 10
-3.23315
 20
12.39151
 30
0.0
  0
SPLINE
  5
10E
330
1F
100
AcDbEntity
  8
Ebene 1
100
AcDbSpline
210
0.0
220
0.0
230
1.0
 70
    11
 71
     3
 72
    40
 73
    36
 74
     0
 42
0.0000000001
 43
0.0000000001
 40
0.0
 40
0.0
 40
0.0
 40
0.0
 40
0.1
 40
0.1
 40
0.1
 40
0.1
 40
0.2
 40
0.2
 40
0.2
 40
0.2
 40
0.3
 40
0.3
 40
0.3
 40
0.3
 40
0.4
 40
0.4
 40
0.4
 40
0.4
 40
0.5
 40
0.5
 40
0.5
 40
0.5
 40
0.6
 40
0.6
 40
0.6
 40
0.6
 40
0.7
 40
0.7
 40
0.7
 40
0.7
 40
0.8
 40
0.8
 40
0.8
 40
0.8
 40
1.0
 40
1.0
 40
1.0
 40
1.0
 10
-3.35874
 20
12.28354
 30
0.0
 10
-3.35874
 20
12.27292
 30
0.0
 10
-3.35646
 20
12.26277
 30
0.0
 10
-3.35197
 20
12.25309
 30
0.0
 10
-3.35197
 20
12.25309
 30
0.0
 10
-3.34748
 20
12.24341
 30
0.0
 10
-3.34118
 20
12.23606
 30
0.0
 10
-3.33313
 20
12.23098
 30
0.0
 10
-3.33313
 20
12.23098
 30
0.0
 10
-3.32502
 20
12.22591
 30
0.0
 10
-3.3165
 20
12.22334
 30
0.0
 10
-3.30764
 20
12.22334
 30
0.0
 10
-3.30764
 20
12.22334
 30
0.0
 10
-3.29463
 20
12.22334
 30
0.0
 10
-3.28349
 20
12.22859
 30
0.0
 10
-3.27415
 20
12.23909
 30
0.0
 10
-3.27415
 20
12.23909
 30
0.0
 10
-3.26482
 20
12.24959
 30
0.0
 10
-3.26015
 20
12.26382
 30
0.0
 10
-3.26015
 20
12.28179
 30
0.0
 10
-3.26015
 20
12.28179
 30
0.0
 10
-3.26015
 20
12.29911
 30
0.0
 10
-3.26476
 20
12.31276
 30
0.0
 10
-3.27398
 20
12.32274
 30
0.0
 10
-3.27398
 20
12.32274
 30
0.0
 10
-3.2832
 20
12.33271
 30
0.0
 10
-3.2948
 20
12.33767
 30
0.0
 10
-3.3088
 20
12.33767
 30
0.0
 10
-3.3088
 20
12.33767
 30
0.0
 10
-3.32275
 20
12.33767
 30
0.0
 10
-3.33453
 20
12.33271
 30
0.0
 10
-3.34421
 20
12.32274
 30
0.0
 10
-3.34421
 20
12.32274
 30
0.0
 10
-3.3539
 20
12.31276
 30
0.0
 10
-3.35874
 20
12.2997
 30
0.0
 10
-3.35874
 20
12.28354
 30
0.0
  0
SPLINE
  5
10F
330
1F
100
AcDbEntity
  8
Ebene 1
100
AcDbSpline
210
0.0
220
0.0
230
1.0
 70
    27
 71
     3
 72
    12
 73
     8
 74
     0
 42
0.0000000001
 43
0.0000000001
 40
0.0
 40
0.0
 40
0.0
 40
0.0
 40
0.3333333333333333
 40
0.3333333333333333
 40
0.3333333333333333
 40
0.3333333333333333
 40
1.0
 40
1.0
 40
1.0
 40
1.0
 10
3.91184
 20
11.2005
 30
0.0
 10
3.91184
 20
11.2005
 30
0.0
 10
3.86104
 20
11.5307
 30
0.0
 10
3.86104
 20
11.5307
 30
0.0
 10
3.86104
 20
11.5307
 30
0.0
 10
3.86104
 20
11.5307
 30
0.0
 10
3.91184
 20
11.2005
 30
0.0
 10
3.91184
 20
11.2005
 30
0.0
  0
SPLINE
  5
110
330
1F
100
AcDbEntity
  8
Ebene 1
100
AcDbSpline
210
0.0
220
0.0
230
1.0
 70
     8
 71
     3
 72
    12
 73
     8
 74
     0
 42
0.0000000001
 43
0.0000000001
 40
0.0
 40
0.0
 40
0.0
 40
0.0
 40
0.3333333333333333
 40
0.3333333333333333
 40
0.3333333333333333
 40
0.3333333333333333
 40
1.0
 40
1.0
 40
1.0
 40
1.0
 10
3.86104
 20
11.5307
 30
0.0
 10
3.86104
 20
11.5307
 30
0.0
 10
3.96264
 20
11.5307
 30
0.0
 10
3.96264
 20
11.5307
 30
0.0
 10
3.96264
 20
11.5307
 30
0.0
 10
3.96264
 20
11.5307
 30
0.0
 10
3.91184
 20
11.2005
 30
0.0
 10
3.91184
 20
11.2005
 30
0.0
  0
SPLINE
  5
111
330
1F
100
AcDbEntity
  8
Ebene 1
370
     9
100
AcDbSpline
210
0.0
220
0.0
230
1.0
 70
    24
 71
     3
 72
     8
 73
     4
 74
     0
 42
0.0000000001
 43
0.0000000001
 40
0.0
 40
0.0
 40
0.0
 40
0.0
 40
1.0
 40
1.0
 40
1.0
 40
1.0
 10
3.91184
 20
11.2005
 30
0.0
 10
3.91184
 20
11.2005
 30
0.0
 10
3.86104
 20
11.5307
 30
0.0
 10
3.86104
 20
11.5307
 30
0.0
  0
SPLINE
  5
112
330
1F
100
AcDbEntity
  8
Ebene 1
370
     9
100
AcDbSpline
210
0.0
220
0.0
230
1.0
 70
     8
 71
     3
 72
    12
 73
     8
 74
     0
 42
0.0000000001
 43
0.0000000001
 40
0.0
 40
0.0
 40
0.0
 40
0.0
 40
0.3333333333333333
 40
0.3333333333333333
 40
0.3333333333333333
 40
0.3333333333333333
 40
1.0
 40
1.0
 40
1.0
 40
1.0
 10
3.86104
 20
11.5307
 30
0.0
 10
3.86104
 20
11.5307
 30
0.0
 10
3.96264
 20
11.5307
 30
0.0
 10
3.96264
 20
11.5307
 30
0.0
 10
3.96264
 20
11.5307
 30
0.0
 10
3.96264
 20
11.5307
 30
0.0
 10
3.91184
 20
11.2005
 30
0.0
 10
3.91184
 20
11.2005
 30
0.0
  0
SPLINE
  5
113
330
1F
100
AcDbEntity
  8
Ebene 1
100
AcDbSpline
210
0.0
220
0.0
230
1.0
 70
    27
 71
     3
 72
    12
 73
     8
 74
     0
 42
0.0000000001
 43
0.0000000001
 40
0.0
 40
0.0
 40
0.0
 40
0.0
 40
0.3333333333333333
 40
0.3333333333333333
 40
0.3333333333333333
 40
0.3333333333333333
 40
1.0
 40
1.0
 40
1.0
 40
1.0
 10
3.91184
 20
10.46717
 30
0.0
 10
3.91184
 20
10.46717
 30
0.0
 10
3.96264
 20
10.13697
 30
0.0
 10
3.96264
 20
10.13697
 30
0.0
 10
3.96264
 20
10.13697
 30
0.0
 10
3.96264
 20
10.13697
 30
0.0
 10
3.91184
 20
10.46717
 30
0.0
 10
3.91184
 20
10.46717
 30
0.0
  0
SPLINE
  5
114
330
1F
100
AcDbEntity
  8
Ebene 1
100
AcDbSpline
210
0.0
220
0.0
230
1.0
 70
     8
 71
     3
 72
    12
 73
     8
 74
     0
 42
0.0000000001
 43
0.0000000001
 40
0.0
 40
0.0
 40
0.0
 40
0.0
 40
0.3333333333333333
 40
0.3333333333333333
 40
0.3333333333333333
 40
0.3333333333333333
 40
1.0
 40
1.0
 40
1.0
 40
1.0
 10
3.96264
 20
10.13697
 30
0.0
 10
3.96264
 20
10.13697
 30
0.0
 10
3.86104
 20
10.13697
 30
0.0
 10
3.86104
 20
10.13697
 30
0.0
 10
3.86104
 20
10.13697
 30
0.0
 10
3.86104
 20
10.13697
 30
0.0
 10
3.91184
 20
10.46717
 30
0.0
 10
3.91184
 20
10.46717
 30
0.0
  0
SPLINE
  5
115
330
1F
100
AcDbEntity
  8
Ebene 1
370
     9
100
AcDbSpline
210
0.0
220
0.0
230
1.0
 70
    24
 71
     3
 72
     8
 73
     4
 74
     0
 42
0.0000000001
 43
0.0000000001
 40
0.0
 40
0.0
 40
0.0
 40
0.0
 40
1.0
 40
1.0
 40
1.0
 40
1.0
 10
3.91184
 20
10.46717
 30
0.0
 10
3.91184
 20
10.46717
 30
0.0
 10
3.96264
 20
10.13697
 30
0.0
 10
3.96264
 20
10.13697
 30
0.0
  0
SPLINE
  5
116
330
1F
100
AcDbEntity
  8
Ebene 1
370
     9
100
AcDbSpline
210
0.0
220
0.0
230
1.0
 70
     8
 71
     3
 72
    12
 73
     8
 74
     0
 42
0.0000000001
 43
0.0000000001
 40
0.0
 40
0.0
 40
0.0
 40
0.0
 40
0.3333333333333333
 40
0.3333333333333333
 40
0.3333333333333333
 40
0.3333333333333333
 40
1.0
 40
1.0
 40
1.0
 40
1.0
 10
3.96264
 20
10.13697
 30
0.0
 10
3.96264
 20
10.13697
 30
0.0
 10
3.86104
 20
10.13697
 30
0.0
 10
3.86104
 20
10.13697
 30
0.0
 10
3.86104
 20
10.13697
 30
0.0
 10
3.86104
 20
10.13697
 30
0.0
 10
3.91184
 20
10.46717
 30
0.0
 10
3.91184
 20
10.46717
 30
0.0
  0
SPLINE
  5
117
330
1F
100
AcDbEntity
  8
Ebene 1
370
     9
100
AcDbSpline
210
0.0
220
0.0
230
1.0
 70
    24
 71
     3
 72
     8
 73
     4
 74
     0
 42
0.0000000001
 43
0.0000000001
 40
0.0
 40
0.0
 40
0.0
 40
0.0
 40
1.0
 40
1.0
 40
1.0
 40
1.0
 10
2.87851
 20
11.2005
 30
0.0
 10
2.87851
 20
11.2005
 30
0.0
 10
4.01184
 20
11.2005
 30
0.0
 10
4.01184
 20
11.2005
 30
0.0
  0
SPLINE
  5
118
330
1F
100
AcDbEntity
  8
Ebene 1
370
     9
100
AcDbSpline
210
0.0
220
0.0
230
1.0
 70
    24
 71
     3
 72
     8
 73
     4
 74
     0
 42
0.0000000001
 43
0.0000000001
 40
0.0
 40
0.0
 40
0.0
 40
0.0
 40
1.0
 40
1.0
 40
1.0
 40
1.0
 10
2.87851
 20
10.46717
 30
0.0
 10
2.87851
 20
10.46717
 30
0.0
 10
4.01184
 20
10.46717
 30
0.0
 10
4.01184
 20
10.46717
 30
0.0
  0
SPLINE
  5
119
330
1F
100
AcDbEntity
  8
Ebene 1
370
     9
100
AcDbSpline
210
0.0
220
0.0
230
1.0
 70
    24
 71
     3
 72
     8
 73
     4
 74
     0
 42
0.0000000001
 43
0.0000000001
 40
0.0
 40
0.0
 40
0.0
 40
0.0
 40
1.0
 40
1.0
 40
1.0
 40
1.0
 10
3.91184
 20
11.2005
 30
0.0
 10
3.91184
 20
11.2005
 30
0.0
 10
3.91184
 20
11.8355
 30
0.0
 10
3.91184
 20
11.8355
 30
0.0
  0
SPLINE
  5
11A
330
1F
100
AcDbEntity
  8
Ebene 1
370
     9
100
AcDbSpline
210
0.0
220
0.0
230
1.0
 70
    24
 71
     3
 72
     8
 73
     4
 74
     0
 42
0.0000000001
 43
0.0000000001
 40
0.0
 40
0.0
 40
0.0
 40
0.0
 40
1.0
 40
1.0
 40
1.0
 40
1.0
 10
3.91184
 20
11.2005
 30
0.0
 10
3.91184
 20
11.2005
 30
0.0
 10
3.91184
 20
10.46717
 30
0.0
 10
3.91184
 20
10.46717
 30
0.0
  0
SPLINE
  5
11B
330
1F
100
AcDbEntity
  8
Ebene 1
370
     9
100
AcDbSpline
210
0.0
220
0.0
230
1.0
 70
    24
 71
     3
 72
     8
 73
     4
 74
     0
 42
0.0000000001
 43
0.0000000001
 40
0.0
 40
0.0
 40
0.0
 40
0.0
 40
1.0
 40
1.0
 40
1.0
 40
1.0
 10
3.91184
 20
10.46717
 30
0.0
 10
3.91184
 20
10.46717
 30
0.0
 10
3.91184
 20
9.83217
 30
0.0
 10
3.91184
 20
9.83217
 30
0.0
  0
SPLINE
  5
11C
330
1F
100
AcDbEntity
  8
Ebene 1
100
AcDbSpline
210
0.0
220
0.0
230
1.0
 70
    11
 71
     3
 72
    92
 73
    88
 74
     0
 42
0.0000000001
 43
0.0000000001
 40
0.0
 40
0.0
 40
0.0
 40
0.0
 40
0.0434782608695652
 40
0.0434782608695652
 40
0.0434782608695652
 40
0.0434782608695652
 40
0.0869565217391304
 40
0.0869565217391304
 40
0.0869565217391304
 40
0.0869565217391304
 40
0.1304347826086956
 40
0.1304347826086956
 40
0.1304347826086956
 40
0.1304347826086956
 40
0.1739130434782609
 40
0.1739130434782609
 40
0.1739130434782609
 40
0.1739130434782609
 40
0.2173913043478261
 40
0.2173913043478261
 40
0.2173913043478261
 40
0.2173913043478261
 40
0.2608695652173913
 40
0.2608695652173913
 40
0.2608695652173913
 40
0.2608695652173913
 40
0.3043478260869565
 40
0.3043478260869565
 40
0.3043478260869565
 40
0.3043478260869565
 40
0.3478260869565217
 40
0.3478260869565217
 40
0.3478260869565217
 40
0.3478260869565217
 40
0.391304347826087
 40
0.391304347826087
 40
0.391304347826087
 40
0.391304347826087
 40
0.4347826086956522
 40
0.4347826086956522
 40
0.4347826086956522
 40
0.4347826086956522
 40
0.4782608695652174
 40
0.4782608695652174
 40
0.4782608695652174
 40
0.4782608695652174
 40
0.5217391304347826
 40
0.5217391304347826
 40
0.5217391304347826
 40
0.5217391304347826
 40
0.5652173913043478
 40
0.5652173913043478
 40
0.5652173913043478
 40
0.5652173913043478
 40
0.6086956521739131
 40
0.6086956521739131
 40
0.6086956521739131
 40
0.6086956521739131
 40
0.6521739130434783
 40
0.6521739130434783
 40
0.6521739130434783
 40
0.6521739130434783
 40
0.6956521739130435
 40
0.6956521739130435
 40
0.6956521739130435
 40
0.6956521739130435
 40
0.7391304347826086
 40
0.7391304347826086
 40
0.7391304347826086
 40
0.7391304347826086
 40
0.782608695652174
 40
0.782608695652174
 40
0.782608695652174
 40
0.782608695652174
 40
0.8260869565217391
 40
0.8260869565217391
 40
0.8260869565217391
 40
0.8260869565217391
 40
0.8695652173913043
 40
0.8695652173913043
 40
0.8695652173913043
 40
0.8695652173913043
 40
0.9130434782608695
 40
0.9130434782608695
 40
0.9130434782608695
 40
0.9130434782608695
 40
1.0
 40
1.0
 40
1.0
 40
1.0
 10
3.74797
 20
10.61014
 30
0.0
 10
3.74797
 20
10.61014
 30
0.0
 10
3.77754
 20
10.61014
 30
0.0
 10
3.77754
 20
10.61014
 30
0.0
 10
3.77754
 20
10.61014
 30
0.0
 10
3.77754
 20
10.61014
 30
0.0
 10
3.77754
 20
10.44454
 30
0.0
 10
3.77754
 20
10.44454
 30
0.0
 10
3.77754
 20
10.44454
 30
0.0
 10
3.77013
 20
10.4443
 30
0.0
 10
3.76302
 20
10.44547
 30
0.0
 10
3.75619
 20
10.44809
 30
0.0
 10
3.75619
 20
10.44809
 30
0.0
 10
3.74487
 20
10.45229
 30
0.0
 10
3.73379
 20
10.45906
 30
0.0
 10
3.72288
 20
10.46834
 30
0.0
 10
3.72288
 20
10.46834
 30
0.0
 10
3.71192
 20
10.47767
 30
0.0
 10
3.69926
 20
10.49109
 30
0.0
 10
3.68491
 20
10.50859
 30
0.0
 10
3.68491
 20
10.50859
 30
0.0
 10
3.66257
 20
10.53583
 30
0.0
 10
3.64489
 20
10.55426
 30
0.0
 10
3.63182
 20
10.56383
 30
0.0
 10
3.63182
 20
10.56383
 30
0.0
 10
3.61882
 20
10.57339
 30
0.0
 10
3.60645
 20
10.57818
 30
0.0
 10
3.59484
 20
10.57818
 30
0.0
 10
3.59484
 20
10.57818
 30
0.0
 10
3.58265
 20
10.57818
 30
0.0
 10
3.57238
 20
10.5738
 30
0.0
 10
3.56398
 20
10.56511
 30
0.0
 10
3.56398
 20
10.56511
 30
0.0
 10
3.55564
 20
10.55636
 30
0.0
 10
3.55144
 20
10.54499
 30
0.0
 10
3.55144
 20
10.53099
 30
0.0
 10
3.55144
 20
10.53099
 30
0.0
 10
3.55144
 20
10.51617
 30
0.0
 10
3.55587
 20
10.50433
 30
0.0
 10
3.5648
 20
10.49546
 30
0.0
 10
3.5648
 20
10.49546
 30
0.0
 10
3.57367
 20
10.48654
 30
0.0
 10
3.58597
 20
10.48204
 30
0.0
 10
3.60167
 20
10.48193
 30
0.0
 10
3.60167
 20
10.48193
 30
0.0
 10
3.60167
 20
10.48193
 30
0.0
 10
3.59846
 20
10.45031
 30
0.0
 10
3.59846
 20
10.45031
 30
0.0
 10
3.59846
 20
10.45031
 30
0.0
 10
3.57483
 20
10.45247
 30
0.0
 10
3.55687
 20
10.46064
 30
0.0
 10
3.5445
 20
10.47475
 30
0.0
 10
3.5445
 20
10.47475
 30
0.0
 10
3.53213
 20
10.48887
 30
0.0
 10
3.52601
 20
10.50789
 30
0.0
 10
3.52601
 20
10.53169
 30
0.0
 10
3.52601
 20
10.53169
 30
0.0
 10
3.52601
 20
10.55572
 30
0.0
 10
3.53266
 20
10.57474
 30
0.0
 10
3.54596
 20
10.58874
 30
0.0
 10
3.54596
 20
10.58874
 30
0.0
 10
3.55932
 20
10.60279
 30
0.0
 10
3.57582
 20
10.60979
 30
0.0
 10
3.59554
 20
10.60979
 30
0.0
 10
3.59554
 20
10.60979
 30
0.0
 10
3.60557
 20
10.60979
 30
0.0
 10
3.61543
 20
10.60775
 30
0.0
 10
3.62512
 20
10.60361
 30
0.0
 10
3.62512
 20
10.60361
 30
0.0
 10
3.6348
 20
10.59953
 30
0.0
 10
3.64501
 20
10.5927
 30
0.0
 10
3.65568
 20
10.58319
 30
0.0
 10
3.65568
 20
10.58319
 30
0.0
 10
3.66642
 20
10.57369
 30
0.0
 10
3.68112
 20
10.55788
 30
0.0
 10
3.69978
 20
10.53577
 30
0.0
 10
3.69978
 20
10.53577
 30
0.0
 10
3.7153
 20
10.51734
 30
0.0
 10
3.7258
 20
10.50549
 30
0.0
 10
3.73134
 20
10.50024
 30
0.0
 10
3.73134
 20
10.50024
 30
0.0
 10
3.73682
 20
10.49499
 30
0.0
 10
3.74237
 20
10.49068
 30
0.0
 10
3.74797
 20
10.48724
 30
0.0
 10
3.74797
 20
10.48724
 30
0.0
 10
3.74797
 20
10.48724
 30
0.0
 10
3.74797
 20
10.61014
 30
0.0
 10
3.74797
 20
10.61014
 30
0.0
  0
SPLINE
  5
11D
330
1F
100
AcDbEntity
  8
Ebene 1
100
AcDbSpline
210
0.0
220
0.0
230
1.0
 70
    11
 71
     3
 72
    92
 73
    88
 74
     0
 42
0.0000000001
 43
0.0000000001
 40
0.0
 40
0.0
 40
0.0
 40
0.0
 40
0.0434782608695652
 40
0.0434782608695652
 40
0.0434782608695652
 40
0.0434782608695652
 40
0.0869565217391304
 40
0.0869565217391304
 40
0.0869565217391304
 40
0.0869565217391304
 40
0.1304347826086956
 40
0.1304347826086956
 40
0.1304347826086956
 40
0.1304347826086956
 40
0.1739130434782609
 40
0.1739130434782609
 40
0.1739130434782609
 40
0.1739130434782609
 40
0.2173913043478261
 40
0.2173913043478261
 40
0.2173913043478261
 40
0.2173913043478261
 40
0.2608695652173913
 40
0.2608695652173913
 40
0.2608695652173913
 40
0.2608695652173913
 40
0.3043478260869565
 40
0.3043478260869565
 40
0.3043478260869565
 40
0.3043478260869565
 40
0.3478260869565217
 40
0.3478260869565217
 40
0.3478260869565217
 40
0.3478260869565217
 40
0.391304347826087
 40
0.391304347826087
 40
0.391304347826087
 40
0.391304347826087
 40
0.4347826086956522
 40
0.4347826086956522
 40
0.4347826086956522
 40
0.4347826086956522
 40
0.4782608695652174
 40
0.4782608695652174
 40
0.4782608695652174
 40
0.4782608695652174
 40
0.5217391304347826
 40
0.5217391304347826
 40
0.5217391304347826
 40
0.5217391304347826
 40
0.5652173913043478
 40
0.5652173913043478
 40
0.5652173913043478
 40
0.5652173913043478
 40
0.6086956521739131
 40
0.6086956521739131
 40
0.6086956521739131
 40
0.6086956521739131
 40
0.6521739130434783
 40
0.6521739130434783
 40
0.6521739130434783
 40
0.6521739130434783
 40
0.6956521739130435
 40
0.6956521739130435
 40
0.6956521739130435
 40
0.6956521739130435
 40
0.7391304347826086
 40
0.7391304347826086
 40
0.7391304347826086
 40
0.7391304347826086
 40
0.782608695652174
 40
0.782608695652174
 40
0.782608695652174
 40
0.782608695652174
 40
0.8260869565217391
 40
0.8260869565217391
 40
0.8260869565217391
 40
0.8260869565217391
 40
0.8695652173913043
 40
0.8695652173913043
 40
0.8695652173913043
 40
0.8695652173913043
 40
0.9130434782608695
 40
0.9130434782608695
 40
0.9130434782608695
 40
0.9130434782608695
 40
1.0
 40
1.0
 40
1.0
 40
1.0
 10
3.74797
 20
10.8048
 30
0.0
 10
3.74797
 20
10.8048
 30
0.0
 10
3.77754
 20
10.8048
 30
0.0
 10
3.77754
 20
10.8048
 30
0.0
 10
3.77754
 20
10.8048
 30
0.0
 10
3.77754
 20
10.8048
 30
0.0
 10
3.77754
 20
10.6392
 30
0.0
 10
3.77754
 20
10.6392
 30
0.0
 10
3.77754
 20
10.6392
 30
0.0
 10
3.77013
 20
10.63896
 30
0.0
 10
3.76302
 20
10.64013
 30
0.0
 10
3.75619
 20
10.64275
 30
0.0
 10
3.75619
 20
10.64275
 30
0.0
 10
3.74487
 20
10.64695
 30
0.0
 10
3.73379
 20
10.65372
 30
0.0
 10
3.72288
 20
10.663
 30
0.0
 10
3.72288
 20
10.663
 30
0.0
 10
3.71192
 20
10.67233
 30
0.0
 10
3.69926
 20
10.68575
 30
0.0
 10
3.68491
 20
10.70325
 30
0.0
 10
3.68491
 20
10.70325
 30
0.0
 10
3.66257
 20
10.73049
 30
0.0
 10
3.64489
 20
10.74892
 30
0.0
 10
3.63182
 20
10.75849
 30
0.0
 10
3.63182
 20
10.75849
 30
0.0
 10
3.61882
 20
10.76805
 30
0.0
 10
3.60645
 20
10.77284
 30
0.0
 10
3.59484
 20
10.77284
 30
0.0
 10
3.59484
 20
10.77284
 30
0.0
 10
3.58265
 20
10.77284
 30
0.0
 10
3.57238
 20
10.76846
 30
0.0
 10
3.56398
 20
10.75977
 30
0.0
 10
3.56398
 20
10.75977
 30
0.0
 10
3.55564
 20
10.75102
 30
0.0
 10
3.55144
 20
10.73965
 30
0.0
 10
3.55144
 20
10.72565
 30
0.0
 10
3.55144
 20
10.72565
 30
0.0
 10
3.55144
 20
10.71083
 30
0.0
 10
3.55587
 20
10.69899
 30
0.0
 10
3.5648
 20
10.69012
 30
0.0
 10
3.5648
 20
10.69012
 30
0.0
 10
3.57367
 20
10.6812
 30
0.0
 10
3.58597
 20
10.6767
 30
0.0
 10
3.60167
 20
10.67659
 30
0.0
 10
3.60167
 20
10.67659
 30
0.0
 10
3.60167
 20
10.67659
 30
0.0
 10
3.59846
 20
10.64497
 30
0.0
 10
3.59846
 20
10.64497
 30
0.0
 10
3.59846
 20
10.64497
 30
0.0
 10
3.57483
 20
10.64713
 30
0.0
 10
3.55687
 20
10.6553
 30
0.0
 10
3.5445
 20
10.66941
 30
0.0
 10
3.5445
 20
10.66941
 30
0.0
 10
3.53213
 20
10.68353
 30
0.0
 10
3.52601
 20
10.70255
 30
0.0
 10
3.52601
 20
10.72635
 30
0.0
 10
3.52601
 20
10.72635
 30
0.0
 10
3.52601
 20
10.75038
 30
0.0
 10
3.53266
 20
10.7694
 30
0.0
 10
3.54596
 20
10.7834
 30
0.0
 10
3.54596
 20
10.7834
 30
0.0
 10
3.55932
 20
10.79745
 30
0.0
 10
3.57582
 20
10.80445
 30
0.0
 10
3.59554
 20
10.80445
 30
0.0
 10
3.59554
 20
10.80445
 30
0.0
 10
3.60557
 20
10.80445
 30
0.0
 10
3.61543
 20
10.80241
 30
0.0
 10
3.62512
 20
10.79827
 30
0.0
 10
3.62512
 20
10.79827
 30
0.0
 10
3.6348
 20
10.79419
 30
0.0
 10
3.64501
 20
10.78736
 30
0.0
 10
3.65568
 20
10.77785
 30
0.0
 10
3.65568
 20
10.77785
 30
0.0
 10
3.66642
 20
10.76835
 30
0.0
 10
3.68112
 20
10.75254
 30
0.0
 10
3.69978
 20
10.73043
 30
0.0
 10
3.69978
 20
10.73043
 30
0.0
 10
3.7153
 20
10.712
 30
0.0
 10
3.7258
 20
10.70015
 30
0.0
 10
3.73134
 20
10.6949
 30
0.0
 10
3.73134
 20
10.6949
 30
0.0
 10
3.73682
 20
10.68965
 30
0.0
 10
3.74237
 20
10.68534
 30
0.0
 10
3.74797
 20
10.6819
 30
0.0
 10
3.74797
 20
10.6819
 30
0.0
 10
3.74797
 20
10.6819
 30
0.0
 10
3.74797
 20
10.8048
 30
0.0
 10
3.74797
 20
10.8048
 30
0.0
  0
SPLINE
  5
11E
330
1F
100
AcDbEntity
  8
Ebene 1
100
AcDbSpline
210
0.0
220
0.0
230
1.0
 70
    27
 71
     3
 72
    12
 73
     8
 74
     0
 42
0.0000000001
 43
0.0000000001
 40
0.0
 40
0.0
 40
0.0
 40
0.0
 40
0.3333333333333333
 40
0.3333333333333333
 40
0.3333333333333333
 40
0.3333333333333333
 40
1.0
 40
1.0
 40
1.0
 40
1.0
 10
-9.42149
 20
9.38769
 30
0.0
 10
-9.42149
 20
9.38769
 30
0.0
 10
-9.09129
 20
9.43849
 30
0.0
 10
-9.09129
 20
9.43849
 30
0.0
 10
-9.09129
 20
9.43849
 30
0.0
 10
-9.09129
 20
9.43849
 30
0.0
 10
-9.42149
 20
9.38769
 30
0.0
 10
-9.42149
 20
9.38769
 30
0.0
  0
SPLINE
  5
11F
330
1F
100
AcDbEntity
  8
Ebene 1
100
AcDbSpline
210
0.0
220
0.0
230
1.0
 70
     8
 71
     3
 72
    12
 73
     8
 74
     0
 42
0.0000000001
 43
0.0000000001
 40
0.0
 40
0.0
 40
0.0
 40
0.0
 40
0.3333333333333333
 40
0.3333333333333333
 40
0.3333333333333333
 40
0.3333333333333333
 40
1.0
 40
1.0
 40
1.0
 40
1.0
 10
-9.09129
 20
9.43849
 30
0.0
 10
-9.09129
 20
9.43849
 30
0.0
 10
-9.09129
 20
9.33689
 30
0.0
 10
-9.09129
 20
9.33689
 30
0.0
 10
-9.09129
 20
9.33689
 30
0.0
 10
-9.09129
 20
9.33689
 30
0.0
 10
-9.42149
 20
9.38769
 30
0.0
 10
-9.42149
 20
9.38769
 30
0.0
  0
SPLINE
  5
120
330
1F
100
AcDbEntity
  8
Ebene 1
370
     9
100
AcDbSpline
210
0.0
220
0.0
230
1.0
 70
    24
 71
     3
 72
     8
 73
     4
 74
     0
 42
0.0000000001
 43
0.0000000001
 40
0.0
 40
0.0
 40
0.0
 40
0.0
 40
1.0
 40
1.0
 40
1.0
 40
1.0
 10
-9.42149
 20
9.38769
 30
0.0
 10
-9.42149
 20
9.38769
 30
0.0
 10
-9.09129
 20
9.43849
 30
0.0
 10
-9.09129
 20
9.43849
 30
0.0
  0
SPLINE
  5
121
330
1F
100
AcDbEntity
  8
Ebene 1
370
     9
100
AcDbSpline
210
0.0
220
0.0
230
1.0
 70
     8
 71
     3
 72
    12
 73
     8
 74
     0
 42
0.0000000001
 43
0.0000000001
 40
0.0
 40
0.0
 40
0.0
 40
0.0
 40
0.3333333333333333
 40
0.3333333333333333
 40
0.3333333333333333
 40
0.3333333333333333
 40
1.0
 40
1.0
 40
1.0
 40
1.0
 10
-9.09129
 20
9.43849
 30
0.0
 10
-9.09129
 20
9.43849
 30
0.0
 10
-9.09129
 20
9.33689
 30
0.0
 10
-9.09129
 20
9.33689
 30
0.0
 10
-9.09129
 20
9.33689
 30
0.0
 10
-9.09129
 20
9.33689
 30
0.0
 10
-9.42149
 20
9.38769
 30
0.0
 10
-9.42149
 20
9.38769
 30
0.0
  0
SPLINE
  5
122
330
1F
100
AcDbEntity
  8
Ebene 1
100
AcDbSpline
210
0.0
220
0.0
230
1.0
 70
    27
 71
     3
 72
    12
 73
     8
 74
     0
 42
0.0000000001
 43
0.0000000001
 40
0.0
 40
0.0
 40
0.0
 40
0.0
 40
0.3333333333333333
 40
0.3333333333333333
 40
0.3333333333333333
 40
0.3333333333333333
 40
1.0
 40
1.0
 40
1.0
 40
1.0
 10
2.91184
 20
9.38769
 30
0.0
 10
2.91184
 20
9.38769
 30
0.0
 10
2.58164
 20
9.33689
 30
0.0
 10
2.58164
 20
9.33689
 30
0.0
 10
2.58164
 20
9.33689
 30
0.0
 10
2.58164
 20
9.33689
 30
0.0
 10
2.91184
 20
9.38769
 30
0.0
 10
2.91184
 20
9.38769
 30
0.0
  0
SPLINE
  5
123
330
1F
100
AcDbEntity
  8
Ebene 1
100
AcDbSpline
210
0.0
220
0.0
230
1.0
 70
     8
 71
     3
 72
    12
 73
     8
 74
     0
 42
0.0000000001
 43
0.0000000001
 40
0.0
 40
0.0
 40
0.0
 40
0.0
 40
0.3333333333333333
 40
0.3333333333333333
 40
0.3333333333333333
 40
0.3333333333333333
 40
1.0
 40
1.0
 40
1.0
 40
1.0
 10
2.58164
 20
9.33689
 30
0.0
 10
2.58164
 20
9.33689
 30
0.0
 10
2.58164
 20
9.43849
 30
0.0
 10
2.58164
 20
9.43849
 30
0.0
 10
2.58164
 20
9.43849
 30
0.0
 10
2.58164
 20
9.43849
 30
0.0
 10
2.91184
 20
9.38769
 30
0.0
 10
2.91184
 20
9.38769
 30
0.0
  0
SPLINE
  5
124
330
1F
100
AcDbEntity
  8
Ebene 1
370
     9
100
AcDbSpline
210
0.0
220
0.0
230
1.0
 70
    24
 71
     3
 72
     8
 73
     4
 74
     0
 42
0.0000000001
 43
0.0000000001
 40
0.0
 40
0.0
 40
0.0
 40
0.0
 40
1.0
 40
1.0
 40
1.0
 40
1.0
 10
2.91184
 20
9.38769
 30
0.0
 10
2.91184
 20
9.38769
 30
0.0
 10
2.58164
 20
9.33689
 30
0.0
 10
2.58164
 20
9.33689
 30
0.0
  0
SPLINE
  5
125
330
1F
100
AcDbEntity
  8
Ebene 1
370
     9
100
AcDbSpline
210
0.0
220
0.0
230
1.0
 70
     8
 71
     3
 72
    12
 73
     8
 74
     0
 42
0.0000000001
 43
0.0000000001
 40
0.0
 40
0.0
 40
0.0
 40
0.0
 40
0.3333333333333333
 40
0.3333333333333333
 40
0.3333333333333333
 40
0.3333333333333333
 40
1.0
 40
1.0
 40
1.0
 40
1.0
 10
2.58164
 20
9.33689
 30
0.0
 10
2.58164
 20
9.33689
 30
0.0
 10
2.58164
 20
9.43849
 30
0.0
 10
2.58164
 20
9.43849
 30
0.0
 10
2.58164
 20
9.43849
 30
0.0
 10
2.58164
 20
9.43849
 30
0.0
 10
2.91184
 20
9.38769
 30
0.0
 10
2.91184
 20
9.38769
 30
0.0
  0
SPLINE
  5
126
330
1F
100
AcDbEntity
  8
Ebene 1
370
     9
100
AcDbSpline
210
0.0
220
0.0
230
1.0
 70
    24
 71
     3
 72
     8
 73
     4
 74
     0
 42
0.0000000001
 43
0.0000000001
 40
0.0
 40
0.0
 40
0.0
 40
0.0
 40
1.0
 40
1.0
 40
1.0
 40
1.0
 10
-9.42149
 20
10.36717
 30
0.0
 10
-9.42149
 20
10.36717
 30
0.0
 10
-9.42149
 20
9.28769
 30
0.0
 10
-9.42149
 20
9.28769
 30
0.0
  0
SPLINE
  5
127
330
1F
100
AcDbEntity
  8
Ebene 1
370
     9
100
AcDbSpline
210
0.0
220
0.0
230
1.0
 70
    24
 71
     3
 72
     8
 73
     4
 74
     0
 42
0.0000000001
 43
0.0000000001
 40
0.0
 40
0.0
 40
0.0
 40
0.0
 40
1.0
 40
1.0
 40
1.0
 40
1.0
 10
2.91184
 20
10.5005
 30
0.0
 10
2.91184
 20
10.5005
 30
0.0
 10
2.91184
 20
9.28769
 30
0.0
 10
2.91184
 20
9.28769
 30
0.0
  0
SPLINE
  5
128
330
1F
100
AcDbEntity
  8
Ebene 1
370
     9
100
AcDbSpline
210
0.0
220
0.0
230
1.0
 70
    24
 71
     3
 72
     8
 73
     4
 74
     0
 42
0.0000000001
 43
0.0000000001
 40
0.0
 40
0.0
 40
0.0
 40
0.0
 40
1.0
 40
1.0
 40
1.0
 40
1.0
 10
-9.42149
 20
9.38769
 30
0.0
 10
-9.42149
 20
9.38769
 30
0.0
 10
2.91184
 20
9.38769
 30
0.0
 10
2.91184
 20
9.38769
 30
0.0
  0
SPLINE
  5
129
330
1F
100
AcDbEntity
  8
Ebene 1
100
AcDbSpline
210
0.0
220
0.0
230
1.0
 70
    11
 71
     3
 72
   124
 73
   120
 74
     0
 42
0.0000000001
 43
0.0000000001
 40
0.0
 40
0.0
 40
0.0
 40
0.0
 40
0.032258064516129
 40
0.032258064516129
 40
0.032258064516129
 40
0.032258064516129
 40
0.0645161290322581
 40
0.0645161290322581
 40
0.0645161290322581
 40
0.0645161290322581
 40
0.0967741935483871
 40
0.0967741935483871
 40
0.0967741935483871
 40
0.0967741935483871
 40
0.1290322580645161
 40
0.1290322580645161
 40
0.1290322580645161
 40
0.1290322580645161
 40
0.1612903225806452
 40
0.1612903225806452
 40
0.1612903225806452
 40
0.1612903225806452
 40
0.1935483870967742
 40
0.1935483870967742
 40
0.1935483870967742
 40
0.1935483870967742
 40
0.2258064516129032
 40
0.2258064516129032
 40
0.2258064516129032
 40
0.2258064516129032
 40
0.2580645161290323
 40
0.2580645161290323
 40
0.2580645161290323
 40
0.2580645161290323
 40
0.2903225806451613
 40
0.2903225806451613
 40
0.2903225806451613
 40
0.2903225806451613
 40
0.3225806451612903
 40
0.3225806451612903
 40
0.3225806451612903
 40
0.3225806451612903
 40
0.3548387096774194
 40
0.3548387096774194
 40
0.3548387096774194
 40
0.3548387096774194
 40
0.3870967741935484
 40
0.3870967741935484
 40
0.3870967741935484
 40
0.3870967741935484
 40
0.4193548387096774
 40
0.4193548387096774
 40
0.4193548387096774
 40
0.4193548387096774
 40
0.4516129032258064
 40
0.4516129032258064
 40
0.4516129032258064
 40
0.4516129032258064
 40
0.4838709677419355
 40
0.4838709677419355
 40
0.4838709677419355
 40
0.4838709677419355
 40
0.5161290322580645
 40
0.5161290322580645
 40
0.5161290322580645
 40
0.5161290322580645
 40
0.5483870967741935
 40
0.5483870967741935
 40
0.5483870967741935
 40
0.5483870967741935
 40
0.5806451612903226
 40
0.5806451612903226
 40
0.5806451612903226
 40
0.5806451612903226
 40
0.6129032258064516
 40
0.6129032258064516
 40
0.6129032258064516
 40
0.6129032258064516
 40
0.6451612903225806
 40
0.6451612903225806
 40
0.6451612903225806
 40
0.6451612903225806
 40
0.6774193548387096
 40
0.6774193548387096
 40
0.6774193548387096
 40
0.6774193548387096
 40
0.7096774193548387
 40
0.7096774193548387
 40
0.7096774193548387
 40
0.7096774193548387
 40
0.7419354838709677
 40
0.7419354838709677
 40
0.7419354838709677
 40
0.7419354838709677
 40
0.7741935483870968
 40
0.7741935483870968
 40
0.7741935483870968
 40
0.7741935483870968
 40
0.8064516129032258
 40
0.8064516129032258
 40
0.8064516129032258
 40
0.8064516129032258
 40
0.8387096774193549
 40
0.8387096774193549
 40
0.8387096774193549
 40
0.8387096774193549
 40
0.8709677419354839
 40
0.8709677419354839
 40
0.8709677419354839
 40
0.8709677419354839
 40
0.9032258064516129
 40
0.9032258064516129
 40
0.9032258064516129
 40
0.9032258064516129
 40
0.9354838709677419
 40
0.9354838709677419
 40
0.9354838709677419
 40
0.9354838709677419
 40
1.0
 40
1.0
 40
1.0
 40
1.0
 10
-4.01216
 20
9.58814
 30
0.0
 10
-4.01216
 20
9.58814
 30
0.0
 10
-3.98142
 20
9.59222
 30
0.0
 10
-3.98142
 20
9.59222
 30
0.0
 10
-3.98142
 20
9.59222
 30
0.0
 10
-3.97786
 20
9.57478
 30
0.0
 10
-3.97185
 20
9.56224
 30
0.0
 10
-3.96339
 20
9.55454
 30
0.0
 10
-3.96339
 20
9.55454
 30
0.0
 10
-3.95488
 20
9.54684
 30
0.0
 10
-3.94455
 20
9.54299
 30
0.0
 10
-3.93236
 20
9.54299
 30
0.0
 10
-3.93236
 20
9.54299
 30
0.0
 10
-3.91789
 20
9.54299
 30
0.0
 10
-3.90564
 20
9.54801
 30
0.0
 10
-3.89567
 20
9.55804
 30
0.0
 10
-3.89567
 20
9.55804
 30
0.0
 10
-3.88575
 20
9.56807
 30
0.0
 10
-3.88074
 20
9.5805
 30
0.0
 10
-3.88074
 20
9.59531
 30
0.0
 10
-3.88074
 20
9.59531
 30
0.0
 10
-3.88074
 20
9.60943
 30
0.0
 10
-3.88534
 20
9.6211
 30
0.0
 10
-3.89456
 20
9.63026
 30
0.0
 10
-3.89456
 20
9.63026
 30
0.0
 10
-3.90384
 20
9.63941
 30
0.0
 10
-3.91556
 20
9.64402
 30
0.0
 10
-3.92979
 20
9.64402
 30
0.0
 10
-3.92979
 20
9.64402
 30
0.0
 10
-3.93563
 20
9.64402
 30
0.0
 10
-3.94286
 20
9.64286
 30
0.0
 10
-3.95149
 20
9.64058
 30
0.0
 10
-3.95149
 20
9.64058
 30
0.0
 10
-3.95149
 20
9.64058
 30
0.0
 10
-3.94805
 20
9.66759
 30
0.0
 10
-3.94805
 20
9.66759
 30
0.0
 10
-3.94805
 20
9.66759
 30
0.0
 10
-3.94601
 20
9.66736
 30
0.0
 10
-3.94438
 20
9.66724
 30
0.0
 10
-3.94309
 20
9.66724
 30
0.0
 10
-3.94309
 20
9.66724
 30
0.0
 10
-3.93003
 20
9.66724
 30
0.0
 10
-3.91824
 20
9.67068
 30
0.0
 10
-3.90774
 20
9.67751
 30
0.0
 10
-3.90774
 20
9.67751
 30
0.0
 10
-3.89724
 20
9.68433
 30
0.0
 10
-3.89199
 20
9.69489
 30
0.0
 10
-3.89199
 20
9.70912
 30
0.0
 10
-3.89199
 20
9.70912
 30
0.0
 10
-3.89199
 20
9.72038
 30
0.0
 10
-3.89584
 20
9.72977
 30
0.0
 10
-3.90349
 20
9.73712
 30
0.0
 10
-3.90349
 20
9.73712
 30
0.0
 10
-3.91113
 20
9.74453
 30
0.0
 10
-3.92099
 20
9.74826
 30
0.0
 10
-3.93306
 20
9.74826
 30
0.0
 10
-3.93306
 20
9.74826
 30
0.0
 10
-3.94502
 20
9.74826
 30
0.0
 10
-3.95499
 20
9.74447
 30
0.0
 10
-3.96293
 20
9.73701
 30
0.0
 10
-3.96293
 20
9.73701
 30
0.0
 10
-3.97092
 20
9.72948
 30
0.0
 10
-3.97605
 20
9.71816
 30
0.0
 10
-3.97833
 20
9.70311
 30
0.0
 10
-3.97833
 20
9.70311
 30
0.0
 10
-3.97833
 20
9.70311
 30
0.0
 10
-4.00907
 20
9.7086
 30
0.0
 10
-4.00907
 20
9.7086
 30
0.0
 10
-4.00907
 20
9.7086
 30
0.0
 10
-4.00534
 20
9.72925
 30
0.0
 10
-3.99676
 20
9.74523
 30
0.0
 10
-3.98346
 20
9.75655
 30
0.0
 10
-3.98346
 20
9.75655
 30
0.0
 10
-3.9701
 20
9.76786
 30
0.0
 10
-3.95354
 20
9.77358
 30
0.0
 10
-3.9337
 20
9.77358
 30
0.0
 10
-3.9337
 20
9.77358
 30
0.0
 10
-3.92005
 20
9.77358
 30
0.0
 10
-3.90745
 20
9.77061
 30
0.0
 10
-3.89596
 20
9.76477
 30
0.0
 10
-3.89596
 20
9.76477
 30
0.0
 10
-3.88447
 20
9.75888
 30
0.0
 10
-3.87566
 20
9.75089
 30
0.0
 10
-3.86954
 20
9.74074
 30
0.0
 10
-3.86954
 20
9.74074
 30
0.0
 10
-3.86347
 20
9.73059
 30
0.0
 10
-3.86038
 20
9.71986
 30
0.0
 10
-3.86038
 20
9.70842
 30
0.0
 10
-3.86038
 20
9.70842
 30
0.0
 10
-3.86038
 20
9.69763
 30
0.0
 10
-3.86329
 20
9.68777
 30
0.0
 10
-3.86913
 20
9.67885
 30
0.0
 10
-3.86913
 20
9.67885
 30
0.0
 10
-3.87496
 20
9.66998
 30
0.0
 10
-3.88354
 20
9.66292
 30
0.0
 10
-3.89491
 20
9.65767
 30
0.0
 10
-3.89491
 20
9.65767
 30
0.0
 10
-3.88009
 20
9.65429
 30
0.0
 10
-3.8686
 20
9.64717
 30
0.0
 10
-3.86038
 20
9.63638
 30
0.0
 10
-3.86038
 20
9.63638
 30
0.0
 10
-3.85221
 20
9.62565
 30
0.0
 10
-3.84813
 20
9.61217
 30
0.0
 10
-3.84813
 20
9.59601
 30
0.0
 10
-3.84813
 20
9.59601
 30
0.0
 10
-3.84813
 20
9.57414
 30
0.0
 10
-3.85606
 20
9.55559
 30
0.0
 10
-3.87204
 20
9.54036
 30
0.0
 10
-3.87204
 20
9.54036
 30
0.0
 10
-3.88797
 20
9.52514
 30
0.0
 10
-3.90815
 20
9.51756
 30
0.0
 10
-3.93254
 20
9.51756
 30
0.0
 10
-3.93254
 20
9.51756
 30
0.0
 10
-3.95453
 20
9.51756
 30
0.0
 10
-3.97279
 20
9.52409
 30
0.0
 10
-3.98731
 20
9.53721
 30
0.0
 10
-3.98731
 20
9.53721
 30
0.0
 10
-4.00184
 20
9.55028
 30
0.0
 10
-4.01012
 20
9.56726
 30
0.0
 10
-4.01216
 20
9.58814
 30
0.0
  0
SPLINE
  5
12A
330
1F
100
AcDbEntity
  8
Ebene 1
100
AcDbSpline
210
0.0
220
0.0
230
1.0
 70
    11
 71
     3
 72
    48
 73
    44
 74
     0
 42
0.0000000001
 43
0.0000000001
 40
0.0
 40
0.0
 40
0.0
 40
0.0
 40
0.0833333333333333
 40
0.0833333333333333
 40
0.0833333333333333
 40
0.0833333333333333
 40
0.1666666666666667
 40
0.1666666666666667
 40
0.1666666666666667
 40
0.1666666666666667
 40
0.25
 40
0.25
 40
0.25
 40
0.25
 40
0.3333333333333333
 40
0.3333333333333333
 40
0.3333333333333333
 40
0.3333333333333333
 40
0.4166666666666667
 40
0.4166666666666667
 40
0.4166666666666667
 40
0.4166666666666667
 40
0.5
 40
0.5
 40
0.5
 40
0.5
 40
0.5833333333333334
 40
0.5833333333333334
 40
0.5833333333333334
 40
0.5833333333333334
 40
0.6666666666666666
 40
0.6666666666666666
 40
0.6666666666666666
 40
0.6666666666666666
 40
0.75
 40
0.75
 40
0.75
 40
0.75
 40
0.8333333333333334
 40
0.8333333333333334
 40
0.8333333333333334
 40
0.8333333333333334
 40
1.0
 40
1.0
 40
1.0
 40
1.0
 10
-3.81563
 20
9.73969
 30
0.0
 10
-3.81563
 20
9.73969
 30
0.0
 10
-3.81563
 20
9.76926
 30
0.0
 10
-3.81563
 20
9.76926
 30
0.0
 10
-3.81563
 20
9.76926
 30
0.0
 10
-3.81563
 20
9.76926
 30
0.0
 10
-3.65347
 20
9.76926
 30
0.0
 10
-3.65347
 20
9.76926
 30
0.0
 10
-3.65347
 20
9.76926
 30
0.0
 10
-3.65347
 20
9.76926
 30
0.0
 10
-3.65347
 20
9.74535
 30
0.0
 10
-3.65347
 20
9.74535
 30
0.0
 10
-3.65347
 20
9.74535
 30
0.0
 10
-3.66939
 20
9.72837
 30
0.0
 10
-3.6852
 20
9.7058
 30
0.0
 10
-3.70089
 20
9.67768
 30
0.0
 10
-3.70089
 20
9.67768
 30
0.0
 10
-3.71653
 20
9.64956
 30
0.0
 10
-3.72866
 20
9.62057
 30
0.0
 10
-3.73718
 20
9.59088
 30
0.0
 10
-3.73718
 20
9.59088
 30
0.0
 10
-3.74336
 20
9.56988
 30
0.0
 10
-3.74727
 20
9.54696
 30
0.0
 10
-3.74896
 20
9.52199
 30
0.0
 10
-3.74896
 20
9.52199
 30
0.0
 10
-3.74896
 20
9.52199
 30
0.0
 10
-3.78058
 20
9.52199
 30
0.0
 10
-3.78058
 20
9.52199
 30
0.0
 10
-3.78058
 20
9.52199
 30
0.0
 10
-3.78023
 20
9.54171
 30
0.0
 10
-3.77638
 20
9.56551
 30
0.0
 10
-3.76897
 20
9.59345
 30
0.0
 10
-3.76897
 20
9.59345
 30
0.0
 10
-3.76156
 20
9.62133
 30
0.0
 10
-3.75094
 20
9.64828
 30
0.0
 10
-3.73712
 20
9.67418
 30
0.0
 10
-3.73712
 20
9.67418
 30
0.0
 10
-3.72323
 20
9.70008
 30
0.0
 10
-3.70853
 20
9.72196
 30
0.0
 10
-3.6929
 20
9.73969
 30
0.0
 10
-3.6929
 20
9.73969
 30
0.0
 10
-3.6929
 20
9.73969
 30
0.0
 10
-3.81563
 20
9.73969
 30
0.0
 10
-3.81563
 20
9.73969
 30
0.0
  0
SPLINE
  5
12B
330
1F
100
AcDbEntity
  8
Ebene 1
100
AcDbSpline
210
0.0
220
0.0
230
1.0
 70
    11
 71
     3
 72
    52
 73
    48
 74
     0
 42
0.0000000001
 43
0.0000000001
 40
0.0
 40
0.0
 40
0.0
 40
0.0
 40
0.0769230769230769
 40
0.0769230769230769
 40
0.0769230769230769
 40
0.0769230769230769
 40
0.1538461538461539
 40
0.1538461538461539
 40
0.1538461538461539
 40
0.1538461538461539
 40
0.2307692307692308
 40
0.2307692307692308
 40
0.2307692307692308
 40
0.2307692307692308
 40
0.3076923076923077
 40
0.3076923076923077
 40
0.3076923076923077
 40
0.3076923076923077
 40
0.3846153846153846
 40
0.3846153846153846
 40
0.3846153846153846
 40
0.3846153846153846
 40
0.4615384615384616
 40
0.4615384615384616
 40
0.4615384615384616
 40
0.4615384615384616
 40
0.5384615384615384
 40
0.5384615384615384
 40
0.5384615384615384
 40
0.5384615384615384
 40
0.6153846153846154
 40
0.6153846153846154
 40
0.6153846153846154
 40
0.6153846153846154
 40
0.6923076923076923
 40
0.6923076923076923
 40
0.6923076923076923
 40
0.6923076923076923
 40
0.7692307692307693
 40
0.7692307692307693
 40
0.7692307692307693
 40
0.7692307692307693
 40
0.8461538461538461
 40
0.8461538461538461
 40
0.8461538461538461
 40
0.8461538461538461
 40
1.0
 40
1.0
 40
1.0
 40
1.0
 10
-3.62302
 20
9.64554
 30
0.0
 10
-3.62302
 20
9.67517
 30
0.0
 10
-3.61998
 20
9.69903
 30
0.0
 10
-3.61386
 20
9.71706
 30
0.0
 10
-3.61386
 20
9.71706
 30
0.0
 10
-3.60779
 20
9.73514
 30
0.0
 10
-3.59869
 20
9.74908
 30
0.0
 10
-3.58667
 20
9.75888
 30
0.0
 10
-3.58667
 20
9.75888
 30
0.0
 10
-3.57466
 20
9.76868
 30
0.0
 10
-3.55955
 20
9.77358
 30
0.0
 10
-3.54135
 20
9.77358
 30
0.0
 10
-3.54135
 20
9.77358
 30
0.0
 10
-3.52787
 20
9.77358
 30
0.0
 10
-3.51609
 20
9.77084
 30
0.0
 10
-3.50594
 20
9.76541
 30
0.0
 10
-3.50594
 20
9.76541
 30
0.0
 10
-3.49579
 20
9.76005
 30
0.0
 10
-3.48745
 20
9.75223
 30
0.0
 10
-3.4808
 20
9.74202
 30
0.0
 10
-3.4808
 20
9.74202
 30
0.0
 10
-3.47421
 20
9.73181
 30
0.0
 10
-3.46902
 20
9.71939
 30
0.0
 10
-3.46528
 20
9.70475
 30
0.0
 10
-3.46528
 20
9.70475
 30
0.0
 10
-3.46149
 20
9.69011
 30
0.0
 10
-3.45962
 20
9.67039
 30
0.0
 10
-3.45962
 20
9.64554
 30
0.0
 10
-3.45962
 20
9.64554
 30
0.0
 10
-3.45962
 20
9.61614
 30
0.0
 10
-3.46266
 20
9.59246
 30
0.0
 10
-3.46867
 20
9.57437
 30
0.0
 10
-3.46867
 20
9.57437
 30
0.0
 10
-3.47473
 20
9.55629
 30
0.0
 10
-3.48377
 20
9.54235
 30
0.0
 10
-3.49579
 20
9.53249
 30
0.0
 10
-3.49579
 20
9.53249
 30
0.0
 10
-3.50781
 20
9.52263
 30
0.0
 10
-3.52297
 20
9.51773
 30
0.0
 10
-3.54135
 20
9.51773
 30
0.0
 10
-3.54135
 20
9.51773
 30
0.0
 10
-3.5655
 20
9.51773
 30
0.0
 10
-3.58446
 20
9.52636
 30
0.0
 10
-3.59822
 20
9.54369
 30
0.0
 10
-3.59822
 20
9.54369
 30
0.0
 10
-3.61473
 20
9.56451
 30
0.0
 10
-3.62302
 20
9.59852
 30
0.0
 10
-3.62302
 20
9.64554
 30
0.0
  0
SPLINE
  5
12C
330
1F
100
AcDbEntity
  8
Ebene 1
100
AcDbSpline
210
0.0
220
0.0
230
1.0
 70
    11
 71
     3
 72
    36
 73
    32
 74
     0
 42
0.0000000001
 43
0.0000000001
 40
0.0
 40
0.0
 40
0.0
 40
0.0
 40
0.1111111111111111
 40
0.1111111111111111
 40
0.1111111111111111
 40
0.1111111111111111
 40
0.2222222222222222
 40
0.2222222222222222
 40
0.2222222222222222
 40
0.2222222222222222
 40
0.3333333333333333
 40
0.3333333333333333
 40
0.3333333333333333
 40
0.3333333333333333
 40
0.4444444444444444
 40
0.4444444444444444
 40
0.4444444444444444
 40
0.4444444444444444
 40
0.5555555555555556
 40
0.5555555555555556
 40
0.5555555555555556
 40
0.5555555555555556
 40
0.6666666666666666
 40
0.6666666666666666
 40
0.6666666666666666
 40
0.6666666666666666
 40
0.7777777777777778
 40
0.7777777777777778
 40
0.7777777777777778
 40
0.7777777777777778
 40
1.0
 40
1.0
 40
1.0
 40
1.0
 10
-3.5914
 20
9.64554
 30
0.0
 10
-3.5914
 20
9.60441
 30
0.0
 10
-3.58656
 20
9.57706
 30
0.0
 10
-3.57693
 20
9.56341
 30
0.0
 10
-3.57693
 20
9.56341
 30
0.0
 10
-3.56731
 20
9.54981
 30
0.0
 10
-3.55547
 20
9.54299
 30
0.0
 10
-3.54135
 20
9.54299
 30
0.0
 10
-3.54135
 20
9.54299
 30
0.0
 10
-3.52717
 20
9.54299
 30
0.0
 10
-3.51533
 20
9.54987
 30
0.0
 10
-3.50571
 20
9.56352
 30
0.0
 10
-3.50571
 20
9.56352
 30
0.0
 10
-3.49608
 20
9.57717
 30
0.0
 10
-3.49124
 20
9.60453
 30
0.0
 10
-3.49124
 20
9.64554
 30
0.0
 10
-3.49124
 20
9.64554
 30
0.0
 10
-3.49124
 20
9.68678
 30
0.0
 10
-3.49608
 20
9.7142
 30
0.0
 10
-3.50571
 20
9.72773
 30
0.0
 10
-3.50571
 20
9.72773
 30
0.0
 10
-3.51533
 20
9.74132
 30
0.0
 10
-3.52729
 20
9.74809
 30
0.0
 10
-3.54164
 20
9.74809
 30
0.0
 10
-3.54164
 20
9.74809
 30
0.0
 10
-3.55582
 20
9.74809
 30
0.0
 10
-3.56707
 20
9.74208
 30
0.0
 10
-3.57553
 20
9.73012
 30
0.0
 10
-3.57553
 20
9.73012
 30
0.0
 10
-3.58609
 20
9.7149
 30
0.0
 10
-3.5914
 20
9.68666
 30
0.0
 10
-3.5914
 20
9.64554
 30
0.0
  0
SPLINE
  5
12D
330
1F
100
AcDbEntity
  8
Ebene 1
370
    15
100
AcDbSpline
210
0.0
220
0.0
230
1.0
 70
    24
 71
     3
 72
     8
 73
     4
 74
     0
 42
0.0000000001
 43
0.0000000001
 40
0.0
 40
0.0
 40
0.0
 40
0.0
 40
1.0
 40
1.0
 40
1.0
 40
1.0
 10
-10.17149
 20
7.14523
 30
0.0
 10
-10.17149
 20
7.14523
 30
0.0
 10
-10.40482
 20
7.14523
 30
0.0
 10
-10.40482
 20
7.14523
 30
0.0
  0
SPLINE
  5
12E
330
1F
100
AcDbEntity
  8
Ebene 1
370
    15
100
AcDbSpline
210
0.0
220
0.0
230
1.0
 70
    24
 71
     3
 72
     8
 73
     4
 74
     0
 42
0.0000000001
 43
0.0000000001
 40
0.0
 40
0.0
 40
0.0
 40
0.0
 40
1.0
 40
1.0
 40
1.0
 40
1.0
 10
-9.67149
 20
7.14523
 30
0.0
 10
-9.67149
 20
7.14523
 30
0.0
 10
-10.17149
 20
7.14523
 30
0.0
 10
-10.17149
 20
7.14523
 30
0.0
  0
SPLINE
  5
12F
330
1F
100
AcDbEntity
  8
Ebene 1
370
    15
100
AcDbSpline
210
0.0
220
0.0
230
1.0
 70
     8
 71
     3
 72
    12
 73
     8
 74
     0
 42
0.0000000001
 43
0.0000000001
 40
0.0
 40
0.0
 40
0.0
 40
0.0
 40
0.3333333333333333
 40
0.3333333333333333
 40
0.3333333333333333
 40
0.3333333333333333
 40
1.0
 40
1.0
 40
1.0
 40
1.0
 10
-9.34861
 20
6.82235
 30
0.0
 10
-9.34861
 20
6.90799
 30
0.0
 10
-9.38263
 20
6.99011
 30
0.0
 10
-9.44318
 20
7.05066
 30
0.0
 10
-9.44318
 20
7.05066
 30
0.0
 10
-9.50373
 20
7.11121
 30
0.0
 10
-9.58586
 20
7.14523
 30
0.0
 10
-9.67149
 20
7.14523
 30
0.0
  0
SPLINE
  5
130
330
1F
100
AcDbEntity
  8
Ebene 1
370
    15
100
AcDbSpline
210
0.0
220
0.0
230
1.0
 70
    24
 71
     3
 72
     8
 73
     4
 74
     0
 42
0.0000000001
 43
0.0000000001
 40
0.0
 40
0.0
 40
0.0
 40
0.0
 40
1.0
 40
1.0
 40
1.0
 40
1.0
 10
-9.34861
 20
5.22235
 30
0.0
 10
-9.34861
 20
5.22235
 30
0.0
 10
-9.34861
 20
6.82235
 30
0.0
 10
-9.34861
 20
6.82235
 30
0.0
  0
SPLINE
  5
131
330
1F
100
AcDbEntity
  8
Ebene 1
370
    15
100
AcDbSpline
210
0.0
220
0.0
230
1.0
 70
     8
 71
     3
 72
     8
 73
     4
 74
     0
 42
0.0000000001
 43
0.0000000001
 40
0.0
 40
0.0
 40
0.0
 40
0.0
 40
1.0
 40
1.0
 40
1.0
 40
1.0
 10
-9.67149
 20
4.89948
 30
0.0
 10
-9.49317
 20
4.89948
 30
0.0
 10
-9.34861
 20
5.04403
 30
0.0
 10
-9.34861
 20
5.22235
 30
0.0
  0
SPLINE
  5
132
330
1F
100
AcDbEntity
  8
Ebene 1
370
    15
100
AcDbSpline
210
0.0
220
0.0
230
1.0
 70
    24
 71
     3
 72
     8
 73
     4
 74
     0
 42
0.0000000001
 43
0.0000000001
 40
0.0
 40
0.0
 40
0.0
 40
0.0
 40
1.0
 40
1.0
 40
1.0
 40
1.0
 10
-10.40482
 20
4.89948
 30
0.0
 10
-10.40482
 20
4.89948
 30
0.0
 10
-10.17149
 20
4.89948
 30
0.0
 10
-10.17149
 20
4.89948
 30
0.0
  0
SPLINE
  5
133
330
1F
100
AcDbEntity
  8
Ebene 1
370
    15
100
AcDbSpline
210
0.0
220
0.0
230
1.0
 70
    24
 71
     3
 72
     8
 73
     4
 74
     0
 42
0.0000000001
 43
0.0000000001
 40
0.0
 40
0.0
 40
0.0
 40
0.0
 40
1.0
 40
1.0
 40
1.0
 40
1.0
 10
-10.17149
 20
4.89948
 30
0.0
 10
-10.17149
 20
4.89948
 30
0.0
 10
-9.67149
 20
4.89948
 30
0.0
 10
-9.67149
 20
4.89948
 30
0.0
  0
SPLINE
  5
134
330
1F
100
AcDbEntity
  8
Ebene 1
370
    15
100
AcDbSpline
210
0.0
220
0.0
230
1.0
 70
    24
 71
     3
 72
     8
 73
     4
 74
     0
 42
0.0000000001
 43
0.0000000001
 40
0.0
 40
0.0
 40
0.0
 40
0.0
 40
1.0
 40
1.0
 40
1.0
 40
1.0
 10
2.77851
 20
6.92235
 30
0.0
 10
2.77851
 20
6.92235
 30
0.0
 10
-9.36449
 20
6.92235
 30
0.0
 10
-9.36449
 20
6.92235
 30
0.0
  0
SPLINE
  5
135
330
1F
100
AcDbEntity
  8
Ebene 1
370
    15
100
AcDbSpline
210
0.0
220
0.0
230
1.0
 70
    24
 71
     3
 72
     8
 73
     4
 74
     0
 42
0.0000000001
 43
0.0000000001
 40
0.0
 40
0.0
 40
0.0
 40
0.0
 40
1.0
 40
1.0
 40
1.0
 40
1.0
 10
2.77851
 20
6.72235
 30
0.0
 10
2.77851
 20
6.72235
 30
0.0
 10
2.77851
 20
6.92235
 30
0.0
 10
2.77851
 20
6.92235
 30
0.0
  0
SPLINE
  5
136
330
1F
100
AcDbEntity
  8
Ebene 1
370
    15
100
AcDbSpline
210
0.0
220
0.0
230
1.0
 70
    24
 71
     3
 72
     8
 73
     4
 74
     0
 42
0.0000000001
 43
0.0000000001
 40
0.0
 40
0.0
 40
0.0
 40
0.0
 40
1.0
 40
1.0
 40
1.0
 40
1.0
 10
2.77851
 20
6.72235
 30
0.0
 10
2.77851
 20
6.72235
 30
0.0
 10
-9.34861
 20
6.72235
 30
0.0
 10
-9.34861
 20
6.72235
 30
0.0
  0
SPLINE
  5
137
330
1F
100
AcDbEntity
  8
Ebene 1
370
    15
100
AcDbSpline
210
0.0
220
0.0
230
1.0
 70
    24
 71
     3
 72
     8
 73
     4
 74
     0
 42
0.0000000001
 43
0.0000000001
 40
0.0
 40
0.0
 40
0.0
 40
0.0
 40
1.0
 40
1.0
 40
1.0
 40
1.0
 10
2.91184
 20
6.92235
 30
0.0
 10
2.91184
 20
6.92235
 30
0.0
 10
2.91184
 20
6.72235
 30
0.0
 10
2.91184
 20
6.72235
 30
0.0
  0
SPLINE
  5
138
330
1F
100
AcDbEntity
  8
Ebene 1
370
    15
100
AcDbSpline
210
0.0
220
0.0
230
1.0
 70
    24
 71
     3
 72
     8
 73
     4
 74
     0
 42
0.0000000001
 43
0.0000000001
 40
0.0
 40
0.0
 40
0.0
 40
0.0
 40
1.0
 40
1.0
 40
1.0
 40
1.0
 10
2.91184
 20
6.72235
 30
0.0
 10
2.91184
 20
6.72235
 30
0.0
 10
2.77851
 20
6.72235
 30
0.0
 10
2.77851
 20
6.72235
 30
0.0
  0
SPLINE
  5
139
330
1F
100
AcDbEntity
  8
Ebene 1
370
    15
100
AcDbSpline
210
0.0
220
0.0
230
1.0
 70
    24
 71
     3
 72
     8
 73
     4
 74
     0
 42
0.0000000001
 43
0.0000000001
 40
0.0
 40
0.0
 40
0.0
 40
0.0
 40
1.0
 40
1.0
 40
1.0
 40
1.0
 10
2.77851
 20
6.92235
 30
0.0
 10
2.77851
 20
6.92235
 30
0.0
 10
2.91184
 20
6.92235
 30
0.0
 10
2.91184
 20
6.92235
 30
0.0
  0
SPLINE
  5
13A
330
1F
100
AcDbEntity
  8
Ebene 1
370
    15
100
AcDbSpline
210
0.0
220
0.0
230
1.0
 70
    24
 71
     3
 72
     8
 73
     4
 74
     0
 42
0.0000000001
 43
0.0000000001
 40
0.0
 40
0.0
 40
0.0
 40
0.0
 40
1.0
 40
1.0
 40
1.0
 40
1.0
 10
2.77851
 20
5.32235
 30
0.0
 10
2.77851
 20
5.32235
 30
0.0
 10
-9.34861
 20
5.32235
 30
0.0
 10
-9.34861
 20
5.32235
 30
0.0
  0
SPLINE
  5
13B
330
1F
100
AcDbEntity
  8
Ebene 1
370
    15
100
AcDbSpline
210
0.0
220
0.0
230
1.0
 70
    24
 71
     3
 72
     8
 73
     4
 74
     0
 42
0.0000000001
 43
0.0000000001
 40
0.0
 40
0.0
 40
0.0
 40
0.0
 40
1.0
 40
1.0
 40
1.0
 40
1.0
 10
2.77851
 20
5.12235
 30
0.0
 10
2.77851
 20
5.12235
 30
0.0
 10
2.77851
 20
5.32235
 30
0.0
 10
2.77851
 20
5.32235
 30
0.0
  0
SPLINE
  5
13C
330
1F
100
AcDbEntity
  8
Ebene 1
370
    15
100
AcDbSpline
210
0.0
220
0.0
230
1.0
 70
    24
 71
     3
 72
     8
 73
     4
 74
     0
 42
0.0000000001
 43
0.0000000001
 40
0.0
 40
0.0
 40
0.0
 40
0.0
 40
1.0
 40
1.0
 40
1.0
 40
1.0
 10
2.77851
 20
5.12235
 30
0.0
 10
2.77851
 20
5.12235
 30
0.0
 10
-9.36449
 20
5.12235
 30
0.0
 10
-9.36449
 20
5.12235
 30
0.0
  0
SPLINE
  5
13D
330
1F
100
AcDbEntity
  8
Ebene 1
370
    15
100
AcDbSpline
210
0.0
220
0.0
230
1.0
 70
    24
 71
     3
 72
     8
 73
     4
 74
     0
 42
0.0000000001
 43
0.0000000001
 40
0.0
 40
0.0
 40
0.0
 40
0.0
 40
1.0
 40
1.0
 40
1.0
 40
1.0
 10
2.91184
 20
5.32235
 30
0.0
 10
2.91184
 20
5.32235
 30
0.0
 10
2.91184
 20
5.12235
 30
0.0
 10
2.91184
 20
5.12235
 30
0.0
  0
SPLINE
  5
13E
330
1F
100
AcDbEntity
  8
Ebene 1
370
    15
100
AcDbSpline
210
0.0
220
0.0
230
1.0
 70
    24
 71
     3
 72
     8
 73
     4
 74
     0
 42
0.0000000001
 43
0.0000000001
 40
0.0
 40
0.0
 40
0.0
 40
0.0
 40
1.0
 40
1.0
 40
1.0
 40
1.0
 10
2.91184
 20
5.12235
 30
0.0
 10
2.91184
 20
5.12235
 30
0.0
 10
2.77851
 20
5.12235
 30
0.0
 10
2.77851
 20
5.12235
 30
0.0
  0
SPLINE
  5
13F
330
1F
100
AcDbEntity
  8
Ebene 1
370
    15
100
AcDbSpline
210
0.0
220
0.0
230
1.0
 70
    24
 71
     3
 72
     8
 73
     4
 74
     0
 42
0.0000000001
 43
0.0000000001
 40
0.0
 40
0.0
 40
0.0
 40
0.0
 40
1.0
 40
1.0
 40
1.0
 40
1.0
 10
2.77851
 20
5.32235
 30
0.0
 10
2.77851
 20
5.32235
 30
0.0
 10
2.91184
 20
5.32235
 30
0.0
 10
2.91184
 20
5.32235
 30
0.0
  0
SPLINE
  5
140
330
1F
100
AcDbEntity
  8
Ebene 1
370
    15
100
AcDbSpline
210
0.0
220
0.0
230
1.0
 70
    24
 71
     3
 72
     8
 73
     4
 74
     0
 42
0.0000000001
 43
0.0000000001
 40
0.0
 40
0.0
 40
0.0
 40
0.0
 40
1.0
 40
1.0
 40
1.0
 40
1.0
 10
-10.60816
 20
6.87166
 30
0.0
 10
-10.60816
 20
6.87166
 30
0.0
 10
-10.60816
 20
5.17304
 30
0.0
 10
-10.60816
 20
5.17304
 30
0.0
  0
SPLINE
  5
141
330
1F
100
AcDbEntity
  8
Ebene 1
370
    15
100
AcDbSpline
210
0.0
220
0.0
230
1.0
 70
    24
 71
     3
 72
     8
 73
     4
 74
     0
 42
0.0000000001
 43
0.0000000001
 40
0.0
 40
0.0
 40
0.0
 40
0.0
 40
1.0
 40
1.0
 40
1.0
 40
1.0
 10
-10.60482
 20
6.87166
 30
0.0
 10
-10.60482
 20
6.87166
 30
0.0
 10
-10.60816
 20
6.87166
 30
0.0
 10
-10.60816
 20
6.87166
 30
0.0
  0
SPLINE
  5
142
330
1F
100
AcDbEntity
  8
Ebene 1
370
    15
100
AcDbSpline
210
0.0
220
0.0
230
1.0
 70
    24
 71
     3
 72
     8
 73
     4
 74
     0
 42
0.0000000001
 43
0.0000000001
 40
0.0
 40
0.0
 40
0.0
 40
0.0
 40
1.0
 40
1.0
 40
1.0
 40
1.0
 10
-10.60816
 20
5.17304
 30
0.0
 10
-10.60816
 20
5.17304
 30
0.0
 10
-10.60482
 20
5.17304
 30
0.0
 10
-10.60482
 20
5.17304
 30
0.0
  0
SPLINE
  5
143
330
1F
100
AcDbEntity
  8
Ebene 1
370
    15
100
AcDbSpline
210
0.0
220
0.0
230
1.0
 70
    24
 71
     3
 72
     8
 73
     4
 74
     0
 42
0.0000000001
 43
0.0000000001
 40
0.0
 40
0.0
 40
0.0
 40
0.0
 40
1.0
 40
1.0
 40
1.0
 40
1.0
 10
-10.60482
 20
6.88069
 30
0.0
 10
-10.60482
 20
6.88069
 30
0.0
 10
-10.60816
 20
6.88069
 30
0.0
 10
-10.60816
 20
6.88069
 30
0.0
  0
SPLINE
  5
144
330
1F
100
AcDbEntity
  8
Ebene 1
370
    15
100
AcDbSpline
210
0.0
220
0.0
230
1.0
 70
    24
 71
     3
 72
     8
 73
     4
 74
     0
 42
0.0000000001
 43
0.0000000001
 40
0.0
 40
0.0
 40
0.0
 40
0.0
 40
1.0
 40
1.0
 40
1.0
 40
1.0
 10
-10.60816
 20
6.87166
 30
0.0
 10
-10.60816
 20
6.87166
 30
0.0
 10
-10.60816
 20
6.88069
 30
0.0
 10
-10.60816
 20
6.88069
 30
0.0
  0
SPLINE
  5
145
330
1F
100
AcDbEntity
  8
Ebene 1
370
    15
100
AcDbSpline
210
0.0
220
0.0
230
1.0
 70
    24
 71
     3
 72
     8
 73
     4
 74
     0
 42
0.0000000001
 43
0.0000000001
 40
0.0
 40
0.0
 40
0.0
 40
0.0
 40
1.0
 40
1.0
 40
1.0
 40
1.0
 10
-10.60816
 20
5.16402
 30
0.0
 10
-10.60816
 20
5.16402
 30
0.0
 10
-10.60482
 20
5.16402
 30
0.0
 10
-10.60482
 20
5.16402
 30
0.0
  0
SPLINE
  5
146
330
1F
100
AcDbEntity
  8
Ebene 1
370
    15
100
AcDbSpline
210
0.0
220
0.0
230
1.0
 70
    24
 71
     3
 72
     8
 73
     4
 74
     0
 42
0.0000000001
 43
0.0000000001
 40
0.0
 40
0.0
 40
0.0
 40
0.0
 40
1.0
 40
1.0
 40
1.0
 40
1.0
 10
-10.60816
 20
5.17304
 30
0.0
 10
-10.60816
 20
5.17304
 30
0.0
 10
-10.60816
 20
5.16402
 30
0.0
 10
-10.60816
 20
5.16402
 30
0.0
  0
SPLINE
  5
147
330
1F
100
AcDbEntity
  8
Ebene 1
370
    15
100
AcDbSpline
210
0.0
220
0.0
230
1.0
 70
    24
 71
     3
 72
     8
 73
     4
 74
     0
 42
0.0000000001
 43
0.0000000001
 40
0.0
 40
0.0
 40
0.0
 40
0.0
 40
1.0
 40
1.0
 40
1.0
 40
1.0
 10
-10.17149
 20
7.12625
 30
0.0
 10
-10.17149
 20
7.12625
 30
0.0
 10
-9.67149
 20
7.12625
 30
0.0
 10
-9.67149
 20
7.12625
 30
0.0
  0
SPLINE
  5
148
330
1F
100
AcDbEntity
  8
Ebene 1
370
    15
100
AcDbSpline
210
0.0
220
0.0
230
1.0
 70
    24
 71
     3
 72
     8
 73
     4
 74
     0
 42
0.0000000001
 43
0.0000000001
 40
0.0
 40
0.0
 40
0.0
 40
0.0
 40
1.0
 40
1.0
 40
1.0
 40
1.0
 10
-9.67149
 20
7.12625
 30
0.0
 10
-9.67149
 20
7.12625
 30
0.0
 10
-9.67149
 20
7.11038
 30
0.0
 10
-9.67149
 20
7.11038
 30
0.0
  0
SPLINE
  5
149
330
1F
100
AcDbEntity
  8
Ebene 1
370
    15
100
AcDbSpline
210
0.0
220
0.0
230
1.0
 70
    24
 71
     3
 72
     8
 73
     4
 74
     0
 42
0.0000000001
 43
0.0000000001
 40
0.0
 40
0.0
 40
0.0
 40
0.0
 40
1.0
 40
1.0
 40
1.0
 40
1.0
 10
-9.67149
 20
7.11038
 30
0.0
 10
-9.67149
 20
7.11038
 30
0.0
 10
-10.17149
 20
7.11038
 30
0.0
 10
-10.17149
 20
7.11038
 30
0.0
  0
SPLINE
  5
14A
330
1F
100
AcDbEntity
  8
Ebene 1
370
    15
100
AcDbSpline
210
0.0
220
0.0
230
1.0
 70
    24
 71
     3
 72
     8
 73
     4
 74
     0
 42
0.0000000001
 43
0.0000000001
 40
0.0
 40
0.0
 40
0.0
 40
0.0
 40
1.0
 40
1.0
 40
1.0
 40
1.0
 10
-10.17149
 20
7.12625
 30
0.0
 10
-10.17149
 20
7.12625
 30
0.0
 10
-10.17149
 20
7.11038
 30
0.0
 10
-10.17149
 20
7.11038
 30
0.0
  0
SPLINE
  5
14B
330
1F
100
AcDbEntity
  8
Ebene 1
370
    15
100
AcDbSpline
210
0.0
220
0.0
230
1.0
 70
    24
 71
     3
 72
     8
 73
     4
 74
     0
 42
0.0000000001
 43
0.0000000001
 40
0.0
 40
0.0
 40
0.0
 40
0.0
 40
1.0
 40
1.0
 40
1.0
 40
1.0
 10
-10.52656
 20
7.12625
 30
0.0
 10
-10.52656
 20
7.12625
 30
0.0
 10
-10.17149
 20
7.12625
 30
0.0
 10
-10.17149
 20
7.12625
 30
0.0
  0
SPLINE
  5
14C
330
1F
100
AcDbEntity
  8
Ebene 1
370
    15
100
AcDbSpline
210
0.0
220
0.0
230
1.0
 70
    24
 71
     3
 72
     8
 73
     4
 74
     0
 42
0.0000000001
 43
0.0000000001
 40
0.0
 40
0.0
 40
0.0
 40
0.0
 40
1.0
 40
1.0
 40
1.0
 40
1.0
 10
-10.17149
 20
7.11038
 30
0.0
 10
-10.17149
 20
7.11038
 30
0.0
 10
-10.53816
 20
7.11038
 30
0.0
 10
-10.53816
 20
7.11038
 30
0.0
  0
SPLINE
  5
14D
330
1F
100
AcDbEntity
  8
Ebene 1
370
    15
100
AcDbSpline
210
0.0
220
0.0
230
1.0
 70
     8
 71
     3
 72
     8
 73
     4
 74
     0
 42
0.0000000001
 43
0.0000000001
 40
0.0
 40
0.0
 40
0.0
 40
0.0
 40
1.0
 40
1.0
 40
1.0
 40
1.0
 10
-10.52656
 20
7.12625
 30
0.0
 10
-10.53347
 20
7.12405
 30
0.0
 10
-10.53816
 20
7.11763
 30
0.0
 10
-10.53816
 20
7.11038
 30
0.0
  0
SPLINE
  5
14E
330
1F
100
AcDbEntity
  8
Ebene 1
370
    15
100
AcDbSpline
210
0.0
220
0.0
230
1.0
 70
     8
 71
     3
 72
    12
 73
     8
 74
     0
 42
0.0000000001
 43
0.0000000001
 40
0.0
 40
0.0
 40
0.0
 40
0.0
 40
0.3333333333333333
 40
0.3333333333333333
 40
0.3333333333333333
 40
0.3333333333333333
 40
1.0
 40
1.0
 40
1.0
 40
1.0
 10
-9.36759
 20
6.82235
 30
0.0
 10
-9.36759
 20
6.90295
 30
0.0
 10
-9.39961
 20
6.98025
 30
0.0
 10
-9.4566
 20
7.03724
 30
0.0
 10
-9.4566
 20
7.03724
 30
0.0
 10
-9.51359
 20
7.09424
 30
0.0
 10
-9.59089
 20
7.12625
 30
0.0
 10
-9.67149
 20
7.12625
 30
0.0
  0
SPLINE
  5
14F
330
1F
100
AcDbEntity
  8
Ebene 1
370
    15
100
AcDbSpline
210
0.0
220
0.0
230
1.0
 70
    24
 71
     3
 72
     8
 73
     4
 74
     0
 42
0.0000000001
 43
0.0000000001
 40
0.0
 40
0.0
 40
0.0
 40
0.0
 40
1.0
 40
1.0
 40
1.0
 40
1.0
 10
-9.36759
 20
6.82235
 30
0.0
 10
-9.36759
 20
6.82235
 30
0.0
 10
-9.38346
 20
6.82235
 30
0.0
 10
-9.38346
 20
6.82235
 30
0.0
  0
SPLINE
  5
150
330
1F
100
AcDbEntity
  8
Ebene 1
370
    15
100
AcDbSpline
210
0.0
220
0.0
230
1.0
 70
     8
 71
     3
 72
    12
 73
     8
 74
     0
 42
0.0000000001
 43
0.0000000001
 40
0.0
 40
0.0
 40
0.0
 40
0.0
 40
0.3333333333333333
 40
0.3333333333333333
 40
0.3333333333333333
 40
0.3333333333333333
 40
1.0
 40
1.0
 40
1.0
 40
1.0
 10
-9.38346
 20
6.82235
 30
0.0
 10
-9.38346
 20
6.89874
 30
0.0
 10
-9.41381
 20
6.972
 30
0.0
 10
-9.46782
 20
7.02602
 30
0.0
 10
-9.46782
 20
7.02602
 30
0.0
 10
-9.52184
 20
7.08003
 30
0.0
 10
-9.5951
 20
7.11038
 30
0.0
 10
-9.67149
 20
7.11038
 30
0.0
  0
SPLINE
  5
151
330
1F
100
AcDbEntity
  8
Ebene 1
370
    15
100
AcDbSpline
210
0.0
220
0.0
230
1.0
 70
    24
 71
     3
 72
     8
 73
     4
 74
     0
 42
0.0000000001
 43
0.0000000001
 40
0.0
 40
0.0
 40
0.0
 40
0.0
 40
1.0
 40
1.0
 40
1.0
 40
1.0
 10
-10.5142
 20
4.94735
 30
0.0
 10
-10.5142
 20
4.94735
 30
0.0
 10
-10.53816
 20
4.94735
 30
0.0
 10
-10.53816
 20
4.94735
 30
0.0
  0
SPLINE
  5
152
330
1F
100
AcDbEntity
  8
Ebene 1
370
    15
100
AcDbSpline
210
0.0
220
0.0
230
1.0
 70
     8
 71
     3
 72
    32
 73
    28
 74
     0
 42
0.0000000001
 43
0.0000000001
 40
0.0
 40
0.0
 40
0.0
 40
0.0
 40
0.125
 40
0.125
 40
0.125
 40
0.125
 40
0.25
 40
0.25
 40
0.25
 40
0.25
 40
0.375
 40
0.375
 40
0.375
 40
0.375
 40
0.5
 40
0.5
 40
0.5
 40
0.5
 40
0.625
 40
0.625
 40
0.625
 40
0.625
 40
0.75
 40
0.75
 40
0.75
 40
0.75
 40
1.0
 40
1.0
 40
1.0
 40
1.0
 10
-10.45186
 20
5.05569
 30
0.0
 10
-10.45186
 20
5.04807
 30
0.0
 10
-10.45252
 20
5.04063
 30
0.0
 10
-10.45376
 20
5.03336
 30
0.0
 10
-10.45376
 20
5.03336
 30
0.0
 10
-10.455
 20
5.0261
 30
0.0
 10
-10.45684
 20
5.01899
 30
0.0
 10
-10.45907
 20
5.01238
 30
0.0
 10
-10.45907
 20
5.01238
 30
0.0
 10
-10.4613
 20
5.00577
 30
0.0
 10
-10.46396
 20
4.99951
 30
0.0
 10
-10.46685
 20
4.99374
 30
0.0
 10
-10.46685
 20
4.99374
 30
0.0
 10
-10.46974
 20
4.98797
 30
0.0
 10
-10.47285
 20
4.98271
 30
0.0
 10
-10.4761
 20
4.9779
 30
0.0
 10
-10.4761
 20
4.9779
 30
0.0
 10
-10.47935
 20
4.9731
 30
0.0
 10
-10.48272
 20
4.96878
 30
0.0
 10
-10.48606
 20
4.96505
 30
0.0
 10
-10.48606
 20
4.96505
 30
0.0
 10
-10.4894
 20
4.96131
 30
0.0
 10
-10.49275
 20
4.95811
 30
0.0
 10
-10.49605
 20
4.95547
 30
0.0
 10
-10.49605
 20
4.95547
 30
0.0
 10
-10.50267
 20
4.95019
 30
0.0
 10
-10.50879
 20
4.94735
 30
0.0
 10
-10.5142
 20
4.94735
 30
0.0
  0
SPLINE
  5
153
330
1F
100
AcDbEntity
  8
Ebene 1
370
    15
100
AcDbSpline
210
0.0
220
0.0
230
1.0
 70
    24
 71
     3
 72
     8
 73
     4
 74
     0
 42
0.0000000001
 43
0.0000000001
 40
0.0
 40
0.0
 40
0.0
 40
0.0
 40
1.0
 40
1.0
 40
1.0
 40
1.0
 10
-10.45186
 20
6.98902
 30
0.0
 10
-10.45186
 20
6.98902
 30
0.0
 10
-10.45186
 20
5.05569
 30
0.0
 10
-10.45186
 20
5.05569
 30
0.0
  0
SPLINE
  5
154
330
1F
100
AcDbEntity
  8
Ebene 1
370
    15
100
AcDbSpline
210
0.0
220
0.0
230
1.0
 70
     8
 71
     3
 72
    36
 73
    32
 74
     0
 42
0.0000000001
 43
0.0000000001
 40
0.0
 40
0.0
 40
0.0
 40
0.0
 40
0.1111111111111111
 40
0.1111111111111111
 40
0.1111111111111111
 40
0.1111111111111111
 40
0.2222222222222222
 40
0.2222222222222222
 40
0.2222222222222222
 40
0.2222222222222222
 40
0.3333333333333333
 40
0.3333333333333333
 40
0.3333333333333333
 40
0.3333333333333333
 40
0.4444444444444444
 40
0.4444444444444444
 40
0.4444444444444444
 40
0.4444444444444444
 40
0.5555555555555556
 40
0.5555555555555556
 40
0.5555555555555556
 40
0.5555555555555556
 40
0.6666666666666666
 40
0.6666666666666666
 40
0.6666666666666666
 40
0.6666666666666666
 40
0.7777777777777778
 40
0.7777777777777778
 40
0.7777777777777778
 40
0.7777777777777778
 40
1.0
 40
1.0
 40
1.0
 40
1.0
 10
-10.5142
 20
7.09735
 30
0.0
 10
-10.51149
 20
7.09735
 30
0.0
 10
-10.50861
 20
7.09663
 30
0.0
 10
-10.50558
 20
7.09526
 30
0.0
 10
-10.50558
 20
7.09526
 30
0.0
 10
-10.50255
 20
7.09389
 30
0.0
 10
-10.49934
 20
7.09186
 30
0.0
 10
-10.49603
 20
7.08922
 30
0.0
 10
-10.49603
 20
7.08922
 30
0.0
 10
-10.49273
 20
7.08658
 30
0.0
 10
-10.48939
 20
7.08339
 30
0.0
 10
-10.48605
 20
7.07965
 30
0.0
 10
-10.48605
 20
7.07965
 30
0.0
 10
-10.48271
 20
7.07591
 30
0.0
 10
-10.47933
 20
7.07158
 30
0.0
 10
-10.47609
 20
7.06679
 30
0.0
 10
-10.47609
 20
7.06679
 30
0.0
 10
-10.47285
 20
7.062
 30
0.0
 10
-10.46976
 20
7.05677
 30
0.0
 10
-10.4669
 20
7.05106
 30
0.0
 10
-10.4669
 20
7.05106
 30
0.0
 10
-10.46403
 20
7.04535
 30
0.0
 10
-10.46136
 20
7.03908
 30
0.0
 10
-10.45912
 20
7.03245
 30
0.0
 10
-10.45912
 20
7.03245
 30
0.0
 10
-10.45687
 20
7.02582
 30
0.0
 10
-10.45506
 20
7.01887
 30
0.0
 10
-10.45379
 20
7.01153
 30
0.0
 10
-10.45379
 20
7.01153
 30
0.0
 10
-10.45253
 20
7.00419
 30
0.0
 10
-10.45186
 20
6.99665
 30
0.0
 10
-10.45186
 20
6.98902
 30
0.0
  0
SPLINE
  5
155
330
1F
100
AcDbEntity
  8
Ebene 1
370
    15
100
AcDbSpline
210
0.0
220
0.0
230
1.0
 70
    24
 71
     3
 72
     8
 73
     4
 74
     0
 42
0.0000000001
 43
0.0000000001
 40
0.0
 40
0.0
 40
0.0
 40
0.0
 40
1.0
 40
1.0
 40
1.0
 40
1.0
 10
-10.53816
 20
7.09735
 30
0.0
 10
-10.53816
 20
7.09735
 30
0.0
 10
-10.5142
 20
7.09735
 30
0.0
 10
-10.5142
 20
7.09735
 30
0.0
  0
SPLINE
  5
156
330
1F
100
AcDbEntity
  8
Ebene 1
370
    15
100
AcDbSpline
210
0.0
220
0.0
230
1.0
 70
    24
 71
     3
 72
     8
 73
     4
 74
     0
 42
0.0000000001
 43
0.0000000001
 40
0.0
 40
0.0
 40
0.0
 40
0.0
 40
1.0
 40
1.0
 40
1.0
 40
1.0
 10
-10.53816
 20
7.11038
 30
0.0
 10
-10.53816
 20
7.11038
 30
0.0
 10
-10.53816
 20
7.09735
 30
0.0
 10
-10.53816
 20
7.09735
 30
0.0
  0
SPLINE
  5
157
330
1F
100
AcDbEntity
  8
Ebene 1
370
    15
100
AcDbSpline
210
0.0
220
0.0
230
1.0
 70
    24
 71
     3
 72
     8
 73
     4
 74
     0
 42
0.0000000001
 43
0.0000000001
 40
0.0
 40
0.0
 40
0.0
 40
0.0
 40
1.0
 40
1.0
 40
1.0
 40
1.0
 10
-10.17149
 20
7.11038
 30
0.0
 10
-10.17149
 20
7.11038
 30
0.0
 10
-10.17149
 20
4.93433
 30
0.0
 10
-10.17149
 20
4.93433
 30
0.0
  0
SPLINE
  5
158
330
1F
100
AcDbEntity
  8
Ebene 1
370
    15
100
AcDbSpline
210
0.0
220
0.0
230
1.0
 70
    24
 71
     3
 72
     8
 73
     4
 74
     0
 42
0.0000000001
 43
0.0000000001
 40
0.0
 40
0.0
 40
0.0
 40
0.0
 40
1.0
 40
1.0
 40
1.0
 40
1.0
 10
-10.53816
 20
4.93433
 30
0.0
 10
-10.53816
 20
4.93433
 30
0.0
 10
-10.17149
 20
4.93433
 30
0.0
 10
-10.17149
 20
4.93433
 30
0.0
  0
SPLINE
  5
159
330
1F
100
AcDbEntity
  8
Ebene 1
370
    15
100
AcDbSpline
210
0.0
220
0.0
230
1.0
 70
    24
 71
     3
 72
     8
 73
     4
 74
     0
 42
0.0000000001
 43
0.0000000001
 40
0.0
 40
0.0
 40
0.0
 40
0.0
 40
1.0
 40
1.0
 40
1.0
 40
1.0
 10
-10.53816
 20
4.94735
 30
0.0
 10
-10.53816
 20
4.94735
 30
0.0
 10
-10.53816
 20
4.93433
 30
0.0
 10
-10.53816
 20
4.93433
 30
0.0
  0
SPLINE
  5
15A
330
1F
100
AcDbEntity
  8
Ebene 1
370
    15
100
AcDbSpline
210
0.0
220
0.0
230
1.0
 70
    24
 71
     3
 72
     8
 73
     4
 74
     0
 42
0.0000000001
 43
0.0000000001
 40
0.0
 40
0.0
 40
0.0
 40
0.0
 40
1.0
 40
1.0
 40
1.0
 40
1.0
 10
-9.38346
 20
5.22235
 30
0.0
 10
-9.38346
 20
5.22235
 30
0.0
 10
-9.38346
 20
6.82235
 30
0.0
 10
-9.38346
 20
6.82235
 30
0.0
  0
SPLINE
  5
15B
330
1F
100
AcDbEntity
  8
Ebene 1
370
    15
100
AcDbSpline
210
0.0
220
0.0
230
1.0
 70
     8
 71
     3
 72
     8
 73
     4
 74
     0
 42
0.0000000001
 43
0.0000000001
 40
0.0
 40
0.0
 40
0.0
 40
0.0
 40
1.0
 40
1.0
 40
1.0
 40
1.0
 10
-9.67149
 20
4.93433
 30
0.0
 10
-9.51242
 20
4.93433
 30
0.0
 10
-9.38347
 20
5.06328
 30
0.0
 10
-9.38346
 20
5.22235
 30
0.0
  0
SPLINE
  5
15C
330
1F
100
AcDbEntity
  8
Ebene 1
370
    15
100
AcDbSpline
210
0.0
220
0.0
230
1.0
 70
    24
 71
     3
 72
     8
 73
     4
 74
     0
 42
0.0000000001
 43
0.0000000001
 40
0.0
 40
0.0
 40
0.0
 40
0.0
 40
1.0
 40
1.0
 40
1.0
 40
1.0
 10
-10.17149
 20
4.93433
 30
0.0
 10
-10.17149
 20
4.93433
 30
0.0
 10
-9.67149
 20
4.93433
 30
0.0
 10
-9.67149
 20
4.93433
 30
0.0
  0
SPLINE
  5
15D
330
1F
100
AcDbEntity
  8
Ebene 1
370
    15
100
AcDbSpline
210
0.0
220
0.0
230
1.0
 70
    24
 71
     3
 72
     8
 73
     4
 74
     0
 42
0.0000000001
 43
0.0000000001
 40
0.0
 40
0.0
 40
0.0
 40
0.0
 40
1.0
 40
1.0
 40
1.0
 40
1.0
 10
-9.36759
 20
6.82235
 30
0.0
 10
-9.36759
 20
6.82235
 30
0.0
 10
-9.36759
 20
5.22235
 30
0.0
 10
-9.36759
 20
5.22235
 30
0.0
  0
SPLINE
  5
15E
330
1F
100
AcDbEntity
  8
Ebene 1
370
    15
100
AcDbSpline
210
0.0
220
0.0
230
1.0
 70
    24
 71
     3
 72
     8
 73
     4
 74
     0
 42
0.0000000001
 43
0.0000000001
 40
0.0
 40
0.0
 40
0.0
 40
0.0
 40
1.0
 40
1.0
 40
1.0
 40
1.0
 10
-9.36759
 20
5.22235
 30
0.0
 10
-9.36759
 20
5.22235
 30
0.0
 10
-9.38346
 20
5.22235
 30
0.0
 10
-9.38346
 20
5.22235
 30
0.0
  0
SPLINE
  5
15F
330
1F
100
AcDbEntity
  8
Ebene 1
370
    15
100
AcDbSpline
210
0.0
220
0.0
230
1.0
 70
     8
 71
     3
 72
     8
 73
     4
 74
     0
 42
0.0000000001
 43
0.0000000001
 40
0.0
 40
0.0
 40
0.0
 40
0.0
 40
1.0
 40
1.0
 40
1.0
 40
1.0
 10
-9.67149
 20
4.91845
 30
0.0
 10
-9.50365
 20
4.91845
 30
0.0
 10
-9.36759
 20
5.05451
 30
0.0
 10
-9.36759
 20
5.22235
 30
0.0
  0
SPLINE
  5
160
330
1F
100
AcDbEntity
  8
Ebene 1
370
    15
100
AcDbSpline
210
0.0
220
0.0
230
1.0
 70
    24
 71
     3
 72
     8
 73
     4
 74
     0
 42
0.0000000001
 43
0.0000000001
 40
0.0
 40
0.0
 40
0.0
 40
0.0
 40
1.0
 40
1.0
 40
1.0
 40
1.0
 10
-9.67149
 20
4.91845
 30
0.0
 10
-9.67149
 20
4.91845
 30
0.0
 10
-9.67149
 20
4.93433
 30
0.0
 10
-9.67149
 20
4.93433
 30
0.0
  0
SPLINE
  5
161
330
1F
100
AcDbEntity
  8
Ebene 1
370
    15
100
AcDbSpline
210
0.0
220
0.0
230
1.0
 70
    24
 71
     3
 72
     8
 73
     4
 74
     0
 42
0.0000000001
 43
0.0000000001
 40
0.0
 40
0.0
 40
0.0
 40
0.0
 40
1.0
 40
1.0
 40
1.0
 40
1.0
 10
-9.67149
 20
4.91845
 30
0.0
 10
-9.67149
 20
4.91845
 30
0.0
 10
-10.17149
 20
4.91845
 30
0.0
 10
-10.17149
 20
4.91845
 30
0.0
  0
SPLINE
  5
162
330
1F
100
AcDbEntity
  8
Ebene 1
370
    15
100
AcDbSpline
210
0.0
220
0.0
230
1.0
 70
    24
 71
     3
 72
     8
 73
     4
 74
     0
 42
0.0000000001
 43
0.0000000001
 40
0.0
 40
0.0
 40
0.0
 40
0.0
 40
1.0
 40
1.0
 40
1.0
 40
1.0
 10
-10.17149
 20
4.91845
 30
0.0
 10
-10.17149
 20
4.91845
 30
0.0
 10
-10.17149
 20
4.93433
 30
0.0
 10
-10.17149
 20
4.93433
 30
0.0
  0
SPLINE
  5
163
330
1F
100
AcDbEntity
  8
Ebene 1
370
    15
100
AcDbSpline
210
0.0
220
0.0
230
1.0
 70
    24
 71
     3
 72
     8
 73
     4
 74
     0
 42
0.0000000001
 43
0.0000000001
 40
0.0
 40
0.0
 40
0.0
 40
0.0
 40
1.0
 40
1.0
 40
1.0
 40
1.0
 10
-10.17149
 20
4.91845
 30
0.0
 10
-10.17149
 20
4.91845
 30
0.0
 10
-10.52656
 20
4.91845
 30
0.0
 10
-10.52656
 20
4.91845
 30
0.0
  0
SPLINE
  5
164
330
1F
100
AcDbEntity
  8
Ebene 1
370
    15
100
AcDbSpline
210
0.0
220
0.0
230
1.0
 70
     8
 71
     3
 72
     8
 73
     4
 74
     0
 42
0.0000000001
 43
0.0000000001
 40
0.0
 40
0.0
 40
0.0
 40
0.0
 40
1.0
 40
1.0
 40
1.0
 40
1.0
 10
-10.53816
 20
4.93433
 30
0.0
 10
-10.53816
 20
4.92708
 30
0.0
 10
-10.53347
 20
4.92066
 30
0.0
 10
-10.52656
 20
4.91845
 30
0.0
  0
SPLINE
  5
165
330
1F
100
AcDbEntity
  8
Ebene 1
370
    15
100
AcDbSpline
210
0.0
220
0.0
230
1.0
 70
     8
 71
     3
 72
     8
 73
     4
 74
     0
 42
0.0000000001
 43
0.0000000001
 40
0.0
 40
0.0
 40
0.0
 40
0.0
 40
1.0
 40
1.0
 40
1.0
 40
1.0
 10
-10.40482
 20
7.14523
 30
0.0
 10
-10.44614
 20
7.14523
 30
0.0
 10
-10.48721
 20
7.13883
 30
0.0
 10
-10.52656
 20
7.12625
 30
0.0
  0
SPLINE
  5
166
330
1F
100
AcDbEntity
  8
Ebene 1
370
    15
100
AcDbSpline
210
0.0
220
0.0
230
1.0
 70
     8
 71
     3
 72
     8
 73
     4
 74
     0
 42
0.0000000001
 43
0.0000000001
 40
0.0
 40
0.0
 40
0.0
 40
0.0
 40
1.0
 40
1.0
 40
1.0
 40
1.0
 10
-10.52656
 20
4.91845
 30
0.0
 10
-10.48721
 20
4.90588
 30
0.0
 10
-10.44614
 20
4.89948
 30
0.0
 10
-10.40482
 20
4.89948
 30
0.0
  0
SPLINE
  5
167
330
1F
100
AcDbEntity
  8
Ebene 1
370
    15
100
AcDbSpline
210
0.0
220
0.0
230
1.0
 70
    24
 71
     3
 72
     8
 73
     4
 74
     0
 42
0.0000000001
 43
0.0000000001
 40
0.0
 40
0.0
 40
0.0
 40
0.0
 40
1.0
 40
1.0
 40
1.0
 40
1.0
 10
-10.45186
 20
6.98902
 30
0.0
 10
-10.45186
 20
6.98902
 30
0.0
 10
-10.45823
 20
6.98902
 30
0.0
 10
-10.45823
 20
6.98902
 30
0.0
  0
SPLINE
  5
168
330
1F
100
AcDbEntity
  8
Ebene 1
370
    15
100
AcDbSpline
210
0.0
220
0.0
230
1.0
 70
     8
 71
     3
 72
    36
 73
    32
 74
     0
 42
0.0000000001
 43
0.0000000001
 40
0.0
 40
0.0
 40
0.0
 40
0.0
 40
0.1111111111111111
 40
0.1111111111111111
 40
0.1111111111111111
 40
0.1111111111111111
 40
0.2222222222222222
 40
0.2222222222222222
 40
0.2222222222222222
 40
0.2222222222222222
 40
0.3333333333333333
 40
0.3333333333333333
 40
0.3333333333333333
 40
0.3333333333333333
 40
0.4444444444444444
 40
0.4444444444444444
 40
0.4444444444444444
 40
0.4444444444444444
 40
0.5555555555555556
 40
0.5555555555555556
 40
0.5555555555555556
 40
0.5555555555555556
 40
0.6666666666666666
 40
0.6666666666666666
 40
0.6666666666666666
 40
0.6666666666666666
 40
0.7777777777777778
 40
0.7777777777777778
 40
0.7777777777777778
 40
0.7777777777777778
 40
1.0
 40
1.0
 40
1.0
 40
1.0
 10
-10.45823
 20
6.98902
 30
0.0
 10
-10.45823
 20
6.99624
 30
0.0
 10
-10.45896
 20
7.00337
 30
0.0
 10
-10.4603
 20
7.01027
 30
0.0
 10
-10.4603
 20
7.01027
 30
0.0
 10
-10.46165
 20
7.01716
 30
0.0
 10
-10.46357
 20
7.02365
 30
0.0
 10
-10.46592
 20
7.02982
 30
0.0
 10
-10.46592
 20
7.02982
 30
0.0
 10
-10.46827
 20
7.03598
 30
0.0
 10
-10.47105
 20
7.04175
 30
0.0
 10
-10.474
 20
7.04698
 30
0.0
 10
-10.474
 20
7.04698
 30
0.0
 10
-10.47696
 20
7.05222
 30
0.0
 10
-10.48013
 20
7.057
 30
0.0
 10
-10.48343
 20
7.06136
 30
0.0
 10
-10.48343
 20
7.06136
 30
0.0
 10
-10.48673
 20
7.06572
 30
0.0
 10
-10.49016
 20
7.06964
 30
0.0
 10
-10.49354
 20
7.07302
 30
0.0
 10
-10.49354
 20
7.07302
 30
0.0
 10
-10.49693
 20
7.07641
 30
0.0
 10
-10.50031
 20
7.0793
 30
0.0
 10
-10.50364
 20
7.08168
 30
0.0
 10
-10.50364
 20
7.08168
 30
0.0
 10
-10.50697
 20
7.08406
 30
0.0
 10
-10.51021
 20
7.08589
 30
0.0
 10
-10.51327
 20
7.08713
 30
0.0
 10
-10.51327
 20
7.08713
 30
0.0
 10
-10.51634
 20
7.08836
 30
0.0
 10
-10.51925
 20
7.08902
 30
0.0
 10
-10.52198
 20
7.08902
 30
0.0
  0
SPLINE
  5
169
330
1F
100
AcDbEntity
  8
Ebene 1
370
    15
100
AcDbSpline
210
0.0
220
0.0
230
1.0
 70
     8
 71
     3
 72
     8
 73
     4
 74
     0
 42
0.0000000001
 43
0.0000000001
 40
0.0
 40
0.0
 40
0.0
 40
0.0
 40
1.0
 40
1.0
 40
1.0
 40
1.0
 10
-10.52198
 20
7.08902
 30
0.0
 10
-10.51754
 20
7.08918
 30
0.0
 10
-10.51405
 20
7.0929
 30
0.0
 10
-10.5142
 20
7.09735
 30
0.0
  0
SPLINE
  5
16A
330
1F
100
AcDbEntity
  8
Ebene 1
370
    15
100
AcDbSpline
210
0.0
220
0.0
230
1.0
 70
     8
 71
     3
 72
     8
 73
     4
 74
     0
 42
0.0000000001
 43
0.0000000001
 40
0.0
 40
0.0
 40
0.0
 40
0.0
 40
1.0
 40
1.0
 40
1.0
 40
1.0
 10
-10.5142
 20
4.94735
 30
0.0
 10
-10.51405
 20
4.9518
 30
0.0
 10
-10.51754
 20
4.95553
 30
0.0
 10
-10.52198
 20
4.95569
 30
0.0
  0
SPLINE
  5
16B
330
1F
100
AcDbEntity
  8
Ebene 1
370
    15
100
AcDbSpline
210
0.0
220
0.0
230
1.0
 70
     8
 71
     3
 72
    32
 73
    28
 74
     0
 42
0.0000000001
 43
0.0000000001
 40
0.0
 40
0.0
 40
0.0
 40
0.0
 40
0.125
 40
0.125
 40
0.125
 40
0.125
 40
0.25
 40
0.25
 40
0.25
 40
0.25
 40
0.375
 40
0.375
 40
0.375
 40
0.375
 40
0.5
 40
0.5
 40
0.5
 40
0.5
 40
0.625
 40
0.625
 40
0.625
 40
0.625
 40
0.75
 40
0.75
 40
0.75
 40
0.75
 40
1.0
 40
1.0
 40
1.0
 40
1.0
 10
-10.52198
 20
4.95569
 30
0.0
 10
-10.51651
 20
4.95569
 30
0.0
 10
-10.51033
 20
4.95825
 30
0.0
 10
-10.50365
 20
4.96302
 30
0.0
 10
-10.50365
 20
4.96302
 30
0.0
 10
-10.50032
 20
4.9654
 30
0.0
 10
-10.49694
 20
4.96829
 30
0.0
 10
-10.49355
 20
4.97168
 30
0.0
 10
-10.49355
 20
4.97168
 30
0.0
 10
-10.49016
 20
4.97506
 30
0.0
 10
-10.48675
 20
4.97897
 30
0.0
 10
-10.48343
 20
4.98334
 30
0.0
 10
-10.48343
 20
4.98334
 30
0.0
 10
-10.48012
 20
4.98772
 30
0.0
 10
-10.47693
 20
4.99252
 30
0.0
 10
-10.47395
 20
4.99781
 30
0.0
 10
-10.47395
 20
4.99781
 30
0.0
 10
-10.47097
 20
5.0031
 30
0.0
 10
-10.4682
 20
5.00888
 30
0.0
 10
-10.46587
 20
5.01502
 30
0.0
 10
-10.46587
 20
5.01502
 30
0.0
 10
-10.46353
 20
5.02116
 30
0.0
 10
-10.46158
 20
5.0278
 30
0.0
 10
-10.46026
 20
5.03463
 30
0.0
 10
-10.46026
 20
5.03463
 30
0.0
 10
-10.45894
 20
5.04146
 30
0.0
 10
-10.45823
 20
5.04847
 30
0.0
 10
-10.45823
 20
5.05569
 30
0.0
  0
SPLINE
  5
16C
330
1F
100
AcDbEntity
  8
Ebene 1
370
    15
100
AcDbSpline
210
0.0
220
0.0
230
1.0
 70
    24
 71
     3
 72
     8
 73
     4
 74
     0
 42
0.0000000001
 43
0.0000000001
 40
0.0
 40
0.0
 40
0.0
 40
0.0
 40
1.0
 40
1.0
 40
1.0
 40
1.0
 10
-10.45186
 20
5.05569
 30
0.0
 10
-10.45186
 20
5.05569
 30
0.0
 10
-10.45823
 20
5.05569
 30
0.0
 10
-10.45823
 20
5.05569
 30
0.0
  0
SPLINE
  5
16D
330
1F
100
AcDbEntity
  8
Ebene 1
370
    15
100
AcDbSpline
210
0.0
220
0.0
230
1.0
 70
    24
 71
     3
 72
     8
 73
     4
 74
     0
 42
0.0000000001
 43
0.0000000001
 40
0.0
 40
0.0
 40
0.0
 40
0.0
 40
1.0
 40
1.0
 40
1.0
 40
1.0
 10
-10.45823
 20
5.05569
 30
0.0
 10
-10.45823
 20
5.05569
 30
0.0
 10
-10.45823
 20
6.98902
 30
0.0
 10
-10.45823
 20
6.98902
 30
0.0
  0
SPLINE
  5
16E
330
1F
100
AcDbEntity
  8
Ebene 1
370
    15
100
AcDbSpline
210
0.0
220
0.0
230
1.0
 70
    24
 71
     3
 72
     8
 73
     4
 74
     0
 42
0.0000000001
 43
0.0000000001
 40
0.0
 40
0.0
 40
0.0
 40
0.0
 40
1.0
 40
1.0
 40
1.0
 40
1.0
 10
-10.45823
 20
6.98902
 30
0.0
 10
-10.45823
 20
6.98902
 30
0.0
 10
-10.58816
 20
6.98902
 30
0.0
 10
-10.58816
 20
6.98902
 30
0.0
  0
SPLINE
  5
16F
330
1F
100
AcDbEntity
  8
Ebene 1
370
    15
100
AcDbSpline
210
0.0
220
0.0
230
1.0
 70
    24
 71
     3
 72
     8
 73
     4
 74
     0
 42
0.0000000001
 43
0.0000000001
 40
0.0
 40
0.0
 40
0.0
 40
0.0
 40
1.0
 40
1.0
 40
1.0
 40
1.0
 10
-10.58816
 20
7.08902
 30
0.0
 10
-10.58816
 20
7.08902
 30
0.0
 10
-10.58816
 20
6.98902
 30
0.0
 10
-10.58816
 20
6.98902
 30
0.0
  0
SPLINE
  5
170
330
1F
100
AcDbEntity
  8
Ebene 1
370
    15
100
AcDbSpline
210
0.0
220
0.0
230
1.0
 70
    24
 71
     3
 72
     8
 73
     4
 74
     0
 42
0.0000000001
 43
0.0000000001
 40
0.0
 40
0.0
 40
0.0
 40
0.0
 40
1.0
 40
1.0
 40
1.0
 40
1.0
 10
-10.58816
 20
7.08902
 30
0.0
 10
-10.58816
 20
7.08902
 30
0.0
 10
-10.52198
 20
7.08902
 30
0.0
 10
-10.52198
 20
7.08902
 30
0.0
  0
SPLINE
  5
171
330
1F
100
AcDbEntity
  8
Ebene 1
370
    15
100
AcDbSpline
210
0.0
220
0.0
230
1.0
 70
    24
 71
     3
 72
     8
 73
     4
 74
     0
 42
0.0000000001
 43
0.0000000001
 40
0.0
 40
0.0
 40
0.0
 40
0.0
 40
1.0
 40
1.0
 40
1.0
 40
1.0
 10
-10.58816
 20
6.98902
 30
0.0
 10
-10.58816
 20
6.98902
 30
0.0
 10
-10.60482
 20
6.98902
 30
0.0
 10
-10.60482
 20
6.98902
 30
0.0
  0
SPLINE
  5
172
330
1F
100
AcDbEntity
  8
Ebene 1
370
    15
100
AcDbSpline
210
0.0
220
0.0
230
1.0
 70
    24
 71
     3
 72
     8
 73
     4
 74
     0
 42
0.0000000001
 43
0.0000000001
 40
0.0
 40
0.0
 40
0.0
 40
0.0
 40
1.0
 40
1.0
 40
1.0
 40
1.0
 10
-10.60482
 20
6.98902
 30
0.0
 10
-10.60482
 20
6.98902
 30
0.0
 10
-10.60482
 20
7.07235
 30
0.0
 10
-10.60482
 20
7.07235
 30
0.0
  0
SPLINE
  5
173
330
1F
100
AcDbEntity
  8
Ebene 1
370
    15
100
AcDbSpline
210
0.0
220
0.0
230
1.0
 70
     8
 71
     3
 72
    12
 73
     8
 74
     0
 42
0.0000000001
 43
0.0000000001
 40
0.0
 40
0.0
 40
0.0
 40
0.0
 40
0.3333333333333333
 40
0.3333333333333333
 40
0.3333333333333333
 40
0.3333333333333333
 40
1.0
 40
1.0
 40
1.0
 40
1.0
 10
-10.58816
 20
7.08902
 30
0.0
 10
-10.59258
 20
7.08902
 30
0.0
 10
-10.59682
 20
7.08726
 30
0.0
 10
-10.59994
 20
7.08414
 30
0.0
 10
-10.59994
 20
7.08414
 30
0.0
 10
-10.60307
 20
7.08101
 30
0.0
 10
-10.60482
 20
7.07677
 30
0.0
 10
-10.60482
 20
7.07235
 30
0.0
  0
SPLINE
  5
174
330
1F
100
AcDbEntity
  8
Ebene 1
370
    15
100
AcDbSpline
210
0.0
220
0.0
230
1.0
 70
    24
 71
     3
 72
     8
 73
     4
 74
     0
 42
0.0000000001
 43
0.0000000001
 40
0.0
 40
0.0
 40
0.0
 40
0.0
 40
1.0
 40
1.0
 40
1.0
 40
1.0
 10
-10.58816
 20
5.05569
 30
0.0
 10
-10.58816
 20
5.05569
 30
0.0
 10
-10.45823
 20
5.05569
 30
0.0
 10
-10.45823
 20
5.05569
 30
0.0
  0
SPLINE
  5
175
330
1F
100
AcDbEntity
  8
Ebene 1
370
    15
100
AcDbSpline
210
0.0
220
0.0
230
1.0
 70
    24
 71
     3
 72
     8
 73
     4
 74
     0
 42
0.0000000001
 43
0.0000000001
 40
0.0
 40
0.0
 40
0.0
 40
0.0
 40
1.0
 40
1.0
 40
1.0
 40
1.0
 10
-10.58816
 20
6.98902
 30
0.0
 10
-10.58816
 20
6.98902
 30
0.0
 10
-10.58816
 20
5.05569
 30
0.0
 10
-10.58816
 20
5.05569
 30
0.0
  0
SPLINE
  5
176
330
1F
100
AcDbEntity
  8
Ebene 1
370
    15
100
AcDbSpline
210
0.0
220
0.0
230
1.0
 70
    24
 71
     3
 72
     8
 73
     4
 74
     0
 42
0.0000000001
 43
0.0000000001
 40
0.0
 40
0.0
 40
0.0
 40
0.0
 40
1.0
 40
1.0
 40
1.0
 40
1.0
 10
-10.58816
 20
5.05569
 30
0.0
 10
-10.58816
 20
5.05569
 30
0.0
 10
-10.60482
 20
5.05569
 30
0.0
 10
-10.60482
 20
5.05569
 30
0.0
  0
SPLINE
  5
177
330
1F
100
AcDbEntity
  8
Ebene 1
370
    15
100
AcDbSpline
210
0.0
220
0.0
230
1.0
 70
    24
 71
     3
 72
     8
 73
     4
 74
     0
 42
0.0000000001
 43
0.0000000001
 40
0.0
 40
0.0
 40
0.0
 40
0.0
 40
1.0
 40
1.0
 40
1.0
 40
1.0
 10
-10.60482
 20
5.05569
 30
0.0
 10
-10.60482
 20
5.05569
 30
0.0
 10
-10.60482
 20
6.98902
 30
0.0
 10
-10.60482
 20
6.98902
 30
0.0
  0
SPLINE
  5
178
330
1F
100
AcDbEntity
  8
Ebene 1
370
    15
100
AcDbSpline
210
0.0
220
0.0
230
1.0
 70
    24
 71
     3
 72
     8
 73
     4
 74
     0
 42
0.0000000001
 43
0.0000000001
 40
0.0
 40
0.0
 40
0.0
 40
0.0
 40
1.0
 40
1.0
 40
1.0
 40
1.0
 10
-10.52198
 20
4.95569
 30
0.0
 10
-10.52198
 20
4.95569
 30
0.0
 10
-10.58816
 20
4.95569
 30
0.0
 10
-10.58816
 20
4.95569
 30
0.0
  0
SPLINE
  5
179
330
1F
100
AcDbEntity
  8
Ebene 1
370
    15
100
AcDbSpline
210
0.0
220
0.0
230
1.0
 70
    24
 71
     3
 72
     8
 73
     4
 74
     0
 42
0.0000000001
 43
0.0000000001
 40
0.0
 40
0.0
 40
0.0
 40
0.0
 40
1.0
 40
1.0
 40
1.0
 40
1.0
 10
-10.58816
 20
5.05569
 30
0.0
 10
-10.58816
 20
5.05569
 30
0.0
 10
-10.58816
 20
4.95569
 30
0.0
 10
-10.58816
 20
4.95569
 30
0.0
  0
SPLINE
  5
17A
330
1F
100
AcDbEntity
  8
Ebene 1
370
    15
100
AcDbSpline
210
0.0
220
0.0
230
1.0
 70
     8
 71
     3
 72
    12
 73
     8
 74
     0
 42
0.0000000001
 43
0.0000000001
 40
0.0
 40
0.0
 40
0.0
 40
0.0
 40
0.3333333333333333
 40
0.3333333333333333
 40
0.3333333333333333
 40
0.3333333333333333
 40
1.0
 40
1.0
 40
1.0
 40
1.0
 10
-10.60482
 20
4.97235
 30
0.0
 10
-10.60482
 20
4.96793
 30
0.0
 10
-10.60307
 20
4.96369
 30
0.0
 10
-10.59994
 20
4.96057
 30
0.0
 10
-10.59994
 20
4.96057
 30
0.0
 10
-10.59682
 20
4.95744
 30
0.0
 10
-10.59258
 20
4.95569
 30
0.0
 10
-10.58816
 20
4.95569
 30
0.0
  0
SPLINE
  5
17B
330
1F
100
AcDbEntity
  8
Ebene 1
370
    15
100
AcDbSpline
210
0.0
220
0.0
230
1.0
 70
    24
 71
     3
 72
     8
 73
     4
 74
     0
 42
0.0000000001
 43
0.0000000001
 40
0.0
 40
0.0
 40
0.0
 40
0.0
 40
1.0
 40
1.0
 40
1.0
 40
1.0
 10
-10.60482
 20
4.97235
 30
0.0
 10
-10.60482
 20
4.97235
 30
0.0
 10
-10.60482
 20
5.05569
 30
0.0
 10
-10.60482
 20
5.05569
 30
0.0
  0
SPLINE
  5
17C
330
1F
100
AcDbEntity
  8
Ebene 1
370
    15
100
AcDbSpline
210
0.0
220
0.0
230
1.0
 70
     8
 71
     3
 72
     8
 73
     4
 74
     0
 42
0.0000000001
 43
0.0000000001
 40
0.0
 40
0.0
 40
0.0
 40
0.0
 40
1.0
 40
1.0
 40
1.0
 40
1.0
 10
-10.54649
 20
7.08902
 30
0.0
 10
-10.54189
 20
7.08902
 30
0.0
 10
-10.53816
 20
7.09275
 30
0.0
 10
-10.53816
 20
7.09735
 30
0.0
  0
SPLINE
  5
17D
330
1F
100
AcDbEntity
  8
Ebene 1
370
    15
100
AcDbSpline
210
0.0
220
0.0
230
1.0
 70
     8
 71
     3
 72
    12
 73
     8
 74
     0
 42
0.0000000001
 43
0.0000000001
 40
0.0
 40
0.0
 40
0.0
 40
0.0
 40
0.3333333333333333
 40
0.3333333333333333
 40
0.3333333333333333
 40
0.3333333333333333
 40
1.0
 40
1.0
 40
1.0
 40
1.0
 10
-10.53816
 20
4.94735
 30
0.0
 10
-10.53816
 20
4.94956
 30
0.0
 10
-10.53903
 20
4.95168
 30
0.0
 10
-10.5406
 20
4.95325
 30
0.0
 10
-10.5406
 20
4.95325
 30
0.0
 10
-10.54216
 20
4.95481
 30
0.0
 10
-10.54428
 20
4.95569
 30
0.0
 10
-10.54649
 20
4.95569
 30
0.0
  0
SPLINE
  5
17E
330
1F
100
AcDbEntity
  8
Ebene 1
 62
     8
370
    15
100
AcDbSpline
210
0.0
220
0.0
230
1.0
 70
    24
 71
     3
 72
     8
 73
     4
 74
     0
 42
0.0000000001
 43
0.0000000001
 40
0.0
 40
0.0
 40
0.0
 40
0.0
 40
1.0
 40
1.0
 40
1.0
 40
1.0
 10
-10.17149
 20
7.12625
 30
0.0
 10
-10.17149
 20
7.12625
 30
0.0
 10
-10.17149
 20
7.14523
 30
0.0
 10
-10.17149
 20
7.14523
 30
0.0
  0
SPLINE
  5
17F
330
1F
100
AcDbEntity
  8
Ebene 1
 62
     8
370
    15
100
AcDbSpline
210
0.0
220
0.0
230
1.0
 70
    24
 71
     3
 72
     8
 73
     4
 74
     0
 42
0.0000000001
 43
0.0000000001
 40
0.0
 40
0.0
 40
0.0
 40
0.0
 40
1.0
 40
1.0
 40
1.0
 40
1.0
 10
-9.67149
 20
7.12625
 30
0.0
 10
-9.67149
 20
7.12625
 30
0.0
 10
-9.67149
 20
7.14523
 30
0.0
 10
-9.67149
 20
7.14523
 30
0.0
  0
SPLINE
  5
180
330
1F
100
AcDbEntity
  8
Ebene 1
 62
     8
370
    15
100
AcDbSpline
210
0.0
220
0.0
230
1.0
 70
    24
 71
     3
 72
     8
 73
     4
 74
     0
 42
0.0000000001
 43
0.0000000001
 40
0.0
 40
0.0
 40
0.0
 40
0.0
 40
1.0
 40
1.0
 40
1.0
 40
1.0
 10
-9.36759
 20
6.82235
 30
0.0
 10
-9.36759
 20
6.82235
 30
0.0
 10
-9.34861
 20
6.82235
 30
0.0
 10
-9.34861
 20
6.82235
 30
0.0
  0
SPLINE
  5
181
330
1F
100
AcDbEntity
  8
Ebene 1
 62
     8
370
    15
100
AcDbSpline
210
0.0
220
0.0
230
1.0
 70
    24
 71
     3
 72
     8
 73
     4
 74
     0
 42
0.0000000001
 43
0.0000000001
 40
0.0
 40
0.0
 40
0.0
 40
0.0
 40
1.0
 40
1.0
 40
1.0
 40
1.0
 10
-9.36759
 20
5.22235
 30
0.0
 10
-9.36759
 20
5.22235
 30
0.0
 10
-9.34861
 20
5.22235
 30
0.0
 10
-9.34861
 20
5.22235
 30
0.0
  0
SPLINE
  5
182
330
1F
100
AcDbEntity
  8
Ebene 1
 62
     8
370
    15
100
AcDbSpline
210
0.0
220
0.0
230
1.0
 70
    24
 71
     3
 72
     8
 73
     4
 74
     0
 42
0.0000000001
 43
0.0000000001
 40
0.0
 40
0.0
 40
0.0
 40
0.0
 40
1.0
 40
1.0
 40
1.0
 40
1.0
 10
-9.67149
 20
4.91845
 30
0.0
 10
-9.67149
 20
4.91845
 30
0.0
 10
-9.67149
 20
4.89948
 30
0.0
 10
-9.67149
 20
4.89948
 30
0.0
  0
SPLINE
  5
183
330
1F
100
AcDbEntity
  8
Ebene 1
 62
     8
370
    15
100
AcDbSpline
210
0.0
220
0.0
230
1.0
 70
    24
 71
     3
 72
     8
 73
     4
 74
     0
 42
0.0000000001
 43
0.0000000001
 40
0.0
 40
0.0
 40
0.0
 40
0.0
 40
1.0
 40
1.0
 40
1.0
 40
1.0
 10
-10.17149
 20
4.91845
 30
0.0
 10
-10.17149
 20
4.91845
 30
0.0
 10
-10.17149
 20
4.89948
 30
0.0
 10
-10.17149
 20
4.89948
 30
0.0
  0
SPLINE
  5
184
330
1F
100
AcDbEntity
  8
Ebene 1
100
AcDbSpline
210
0.0
220
0.0
230
1.0
 70
    27
 71
     3
 72
    12
 73
     8
 74
     0
 42
0.0000000001
 43
0.0000000001
 40
0.0
 40
0.0
 40
0.0
 40
0.0
 40
0.3333333333333333
 40
0.3333333333333333
 40
0.3333333333333333
 40
0.3333333333333333
 40
1.0
 40
1.0
 40
1.0
 40
1.0
 10
3.84231
 20
6.72235
 30
0.0
 10
3.84231
 20
6.72235
 30
0.0
 10
3.79151
 20
7.05255
 30
0.0
 10
3.79151
 20
7.05255
 30
0.0
 10
3.79151
 20
7.05255
 30
0.0
 10
3.79151
 20
7.05255
 30
0.0
 10
3.84231
 20
6.72235
 30
0.0
 10
3.84231
 20
6.72235
 30
0.0
  0
SPLINE
  5
185
330
1F
100
AcDbEntity
  8
Ebene 1
100
AcDbSpline
210
0.0
220
0.0
230
1.0
 70
     8
 71
     3
 72
    12
 73
     8
 74
     0
 42
0.0000000001
 43
0.0000000001
 40
0.0
 40
0.0
 40
0.0
 40
0.0
 40
0.3333333333333333
 40
0.3333333333333333
 40
0.3333333333333333
 40
0.3333333333333333
 40
1.0
 40
1.0
 40
1.0
 40
1.0
 10
3.79151
 20
7.05255
 30
0.0
 10
3.79151
 20
7.05255
 30
0.0
 10
3.89311
 20
7.05255
 30
0.0
 10
3.89311
 20
7.05255
 30
0.0
 10
3.89311
 20
7.05255
 30
0.0
 10
3.89311
 20
7.05255
 30
0.0
 10
3.84231
 20
6.72235
 30
0.0
 10
3.84231
 20
6.72235
 30
0.0
  0
SPLINE
  5
186
330
1F
100
AcDbEntity
  8
Ebene 1
370
     9
100
AcDbSpline
210
0.0
220
0.0
230
1.0
 70
    24
 71
     3
 72
     8
 73
     4
 74
     0
 42
0.0000000001
 43
0.0000000001
 40
0.0
 40
0.0
 40
0.0
 40
0.0
 40
1.0
 40
1.0
 40
1.0
 40
1.0
 10
3.84231
 20
6.72235
 30
0.0
 10
3.84231
 20
6.72235
 30
0.0
 10
3.79151
 20
7.05255
 30
0.0
 10
3.79151
 20
7.05255
 30
0.0
  0
SPLINE
  5
187
330
1F
100
AcDbEntity
  8
Ebene 1
370
     9
100
AcDbSpline
210
0.0
220
0.0
230
1.0
 70
     8
 71
     3
 72
    12
 73
     8
 74
     0
 42
0.0000000001
 43
0.0000000001
 40
0.0
 40
0.0
 40
0.0
 40
0.0
 40
0.3333333333333333
 40
0.3333333333333333
 40
0.3333333333333333
 40
0.3333333333333333
 40
1.0
 40
1.0
 40
1.0
 40
1.0
 10
3.79151
 20
7.05255
 30
0.0
 10
3.79151
 20
7.05255
 30
0.0
 10
3.89311
 20
7.05255
 30
0.0
 10
3.89311
 20
7.05255
 30
0.0
 10
3.89311
 20
7.05255
 30
0.0
 10
3.89311
 20
7.05255
 30
0.0
 10
3.84231
 20
6.72235
 30
0.0
 10
3.84231
 20
6.72235
 30
0.0
  0
SPLINE
  5
188
330
1F
100
AcDbEntity
  8
Ebene 1
100
AcDbSpline
210
0.0
220
0.0
230
1.0
 70
    27
 71
     3
 72
    12
 73
     8
 74
     0
 42
0.0000000001
 43
0.0000000001
 40
0.0
 40
0.0
 40
0.0
 40
0.0
 40
0.3333333333333333
 40
0.3333333333333333
 40
0.3333333333333333
 40
0.3333333333333333
 40
1.0
 40
1.0
 40
1.0
 40
1.0
 10
3.84231
 20
5.32235
 30
0.0
 10
3.84231
 20
5.32235
 30
0.0
 10
3.89311
 20
4.99215
 30
0.0
 10
3.89311
 20
4.99215
 30
0.0
 10
3.89311
 20
4.99215
 30
0.0
 10
3.89311
 20
4.99215
 30
0.0
 10
3.84231
 20
5.32235
 30
0.0
 10
3.84231
 20
5.32235
 30
0.0
  0
SPLINE
  5
189
330
1F
100
AcDbEntity
  8
Ebene 1
100
AcDbSpline
210
0.0
220
0.0
230
1.0
 70
     8
 71
     3
 72
    12
 73
     8
 74
     0
 42
0.0000000001
 43
0.0000000001
 40
0.0
 40
0.0
 40
0.0
 40
0.0
 40
0.3333333333333333
 40
0.3333333333333333
 40
0.3333333333333333
 40
0.3333333333333333
 40
1.0
 40
1.0
 40
1.0
 40
1.0
 10
3.89311
 20
4.99215
 30
0.0
 10
3.89311
 20
4.99215
 30
0.0
 10
3.79151
 20
4.99215
 30
0.0
 10
3.79151
 20
4.99215
 30
0.0
 10
3.79151
 20
4.99215
 30
0.0
 10
3.79151
 20
4.99215
 30
0.0
 10
3.84231
 20
5.32235
 30
0.0
 10
3.84231
 20
5.32235
 30
0.0
  0
SPLINE
  5
18A
330
1F
100
AcDbEntity
  8
Ebene 1
370
     9
100
AcDbSpline
210
0.0
220
0.0
230
1.0
 70
    24
 71
     3
 72
     8
 73
     4
 74
     0
 42
0.0000000001
 43
0.0000000001
 40
0.0
 40
0.0
 40
0.0
 40
0.0
 40
1.0
 40
1.0
 40
1.0
 40
1.0
 10
3.84231
 20
5.32235
 30
0.0
 10
3.84231
 20
5.32235
 30
0.0
 10
3.89311
 20
4.99215
 30
0.0
 10
3.89311
 20
4.99215
 30
0.0
  0
SPLINE
  5
18B
330
1F
100
AcDbEntity
  8
Ebene 1
370
     9
100
AcDbSpline
210
0.0
220
0.0
230
1.0
 70
     8
 71
     3
 72
    12
 73
     8
 74
     0
 42
0.0000000001
 43
0.0000000001
 40
0.0
 40
0.0
 40
0.0
 40
0.0
 40
0.3333333333333333
 40
0.3333333333333333
 40
0.3333333333333333
 40
0.3333333333333333
 40
1.0
 40
1.0
 40
1.0
 40
1.0
 10
3.89311
 20
4.99215
 30
0.0
 10
3.89311
 20
4.99215
 30
0.0
 10
3.79151
 20
4.99215
 30
0.0
 10
3.79151
 20
4.99215
 30
0.0
 10
3.79151
 20
4.99215
 30
0.0
 10
3.79151
 20
4.99215
 30
0.0
 10
3.84231
 20
5.32235
 30
0.0
 10
3.84231
 20
5.32235
 30
0.0
  0
SPLINE
  5
18C
330
1F
100
AcDbEntity
  8
Ebene 1
370
     9
100
AcDbSpline
210
0.0
220
0.0
230
1.0
 70
    24
 71
     3
 72
     8
 73
     4
 74
     0
 42
0.0000000001
 43
0.0000000001
 40
0.0
 40
0.0
 40
0.0
 40
0.0
 40
1.0
 40
1.0
 40
1.0
 40
1.0
 10
3.01184
 20
6.72235
 30
0.0
 10
3.01184
 20
6.72235
 30
0.0
 10
3.94231
 20
6.72235
 30
0.0
 10
3.94231
 20
6.72235
 30
0.0
  0
SPLINE
  5
18D
330
1F
100
AcDbEntity
  8
Ebene 1
370
     9
100
AcDbSpline
210
0.0
220
0.0
230
1.0
 70
    24
 71
     3
 72
     8
 73
     4
 74
     0
 42
0.0000000001
 43
0.0000000001
 40
0.0
 40
0.0
 40
0.0
 40
0.0
 40
1.0
 40
1.0
 40
1.0
 40
1.0
 10
3.01184
 20
5.32235
 30
0.0
 10
3.01184
 20
5.32235
 30
0.0
 10
3.94231
 20
5.32235
 30
0.0
 10
3.94231
 20
5.32235
 30
0.0
  0
SPLINE
  5
18E
330
1F
100
AcDbEntity
  8
Ebene 1
370
     9
100
AcDbSpline
210
0.0
220
0.0
230
1.0
 70
    24
 71
     3
 72
     8
 73
     4
 74
     0
 42
0.0000000001
 43
0.0000000001
 40
0.0
 40
0.0
 40
0.0
 40
0.0
 40
1.0
 40
1.0
 40
1.0
 40
1.0
 10
3.84231
 20
6.72235
 30
0.0
 10
3.84231
 20
6.72235
 30
0.0
 10
3.84231
 20
7.35735
 30
0.0
 10
3.84231
 20
7.35735
 30
0.0
  0
SPLINE
  5
18F
330
1F
100
AcDbEntity
  8
Ebene 1
370
     9
100
AcDbSpline
210
0.0
220
0.0
230
1.0
 70
    24
 71
     3
 72
     8
 73
     4
 74
     0
 42
0.0000000001
 43
0.0000000001
 40
0.0
 40
0.0
 40
0.0
 40
0.0
 40
1.0
 40
1.0
 40
1.0
 40
1.0
 10
3.84231
 20
6.72235
 30
0.0
 10
3.84231
 20
6.72235
 30
0.0
 10
3.84231
 20
5.32235
 30
0.0
 10
3.84231
 20
5.32235
 30
0.0
  0
SPLINE
  5
190
330
1F
100
AcDbEntity
  8
Ebene 1
370
     9
100
AcDbSpline
210
0.0
220
0.0
230
1.0
 70
    24
 71
     3
 72
     8
 73
     4
 74
     0
 42
0.0000000001
 43
0.0000000001
 40
0.0
 40
0.0
 40
0.0
 40
0.0
 40
1.0
 40
1.0
 40
1.0
 40
1.0
 10
3.84231
 20
5.32235
 30
0.0
 10
3.84231
 20
5.32235
 30
0.0
 10
3.84231
 20
4.68735
 30
0.0
 10
3.84231
 20
4.68735
 30
0.0
  0
SPLINE
  5
191
330
1F
100
AcDbEntity
  8
Ebene 1
100
AcDbSpline
210
0.0
220
0.0
230
1.0
 70
    11
 71
     3
 72
    48
 73
    44
 74
     0
 42
0.0000000001
 43
0.0000000001
 40
0.0
 40
0.0
 40
0.0
 40
0.0
 40
0.0833333333333333
 40
0.0833333333333333
 40
0.0833333333333333
 40
0.0833333333333333
 40
0.1666666666666667
 40
0.1666666666666667
 40
0.1666666666666667
 40
0.1666666666666667
 40
0.25
 40
0.25
 40
0.25
 40
0.25
 40
0.3333333333333333
 40
0.3333333333333333
 40
0.3333333333333333
 40
0.3333333333333333
 40
0.4166666666666667
 40
0.4166666666666667
 40
0.4166666666666667
 40
0.4166666666666667
 40
0.5
 40
0.5
 40
0.5
 40
0.5
 40
0.5833333333333334
 40
0.5833333333333334
 40
0.5833333333333334
 40
0.5833333333333334
 40
0.6666666666666666
 40
0.6666666666666666
 40
0.6666666666666666
 40
0.6666666666666666
 40
0.75
 40
0.75
 40
0.75
 40
0.75
 40
0.8333333333333334
 40
0.8333333333333334
 40
0.8333333333333334
 40
0.8333333333333334
 40
1.0
 40
1.0
 40
1.0
 40
1.0
 10
3.70801
 20
5.74789
 30
0.0
 10
3.70801
 20
5.74789
 30
0.0
 10
3.64804
 20
5.74789
 30
0.0
 10
3.64804
 20
5.74789
 30
0.0
 10
3.64804
 20
5.74789
 30
0.0
 10
3.64804
 20
5.74789
 30
0.0
 10
3.64804
 20
5.63921
 30
0.0
 10
3.64804
 20
5.63921
 30
0.0
 10
3.64804
 20
5.63921
 30
0.0
 10
3.64804
 20
5.63921
 30
0.0
 10
3.61981
 20
5.63921
 30
0.0
 10
3.61981
 20
5.63921
 30
0.0
 10
3.61981
 20
5.63921
 30
0.0
 10
3.61981
 20
5.63921
 30
0.0
 10
3.45747
 20
5.75355
 30
0.0
 10
3.45747
 20
5.75355
 30
0.0
 10
3.45747
 20
5.75355
 30
0.0
 10
3.45747
 20
5.75355
 30
0.0
 10
3.45747
 20
5.77869
 30
0.0
 10
3.45747
 20
5.77869
 30
0.0
 10
3.45747
 20
5.77869
 30
0.0
 10
3.45747
 20
5.77869
 30
0.0
 10
3.61981
 20
5.77869
 30
0.0
 10
3.61981
 20
5.77869
 30
0.0
 10
3.61981
 20
5.77869
 30
0.0
 10
3.61981
 20
5.77869
 30
0.0
 10
3.61981
 20
5.81252
 30
0.0
 10
3.61981
 20
5.81252
 30
0.0
 10
3.61981
 20
5.81252
 30
0.0
 10
3.61981
 20
5.81252
 30
0.0
 10
3.64804
 20
5.81252
 30
0.0
 10
3.64804
 20
5.81252
 30
0.0
 10
3.64804
 20
5.81252
 30
0.0
 10
3.64804
 20
5.81252
 30
0.0
 10
3.64804
 20
5.77869
 30
0.0
 10
3.64804
 20
5.77869
 30
0.0
 10
3.64804
 20
5.77869
 30
0.0
 10
3.64804
 20
5.77869
 30
0.0
 10
3.70801
 20
5.77869
 30
0.0
 10
3.70801
 20
5.77869
 30
0.0
 10
3.70801
 20
5.77869
 30
0.0
 10
3.70801
 20
5.77869
 30
0.0
 10
3.70801
 20
5.74789
 30
0.0
 10
3.70801
 20
5.74789
 30
0.0
  0
SPLINE
  5
192
330
1F
100
AcDbEntity
  8
Ebene 1
100
AcDbSpline
210
0.0
220
0.0
230
1.0
 70
    11
 71
     3
 72
    16
 73
    12
 74
     0
 42
0.0000000001
 43
0.0000000001
 40
0.0
 40
0.0
 40
0.0
 40
0.0
 40
0.25
 40
0.25
 40
0.25
 40
0.25
 40
0.5
 40
0.5
 40
0.5
 40
0.5
 40
1.0
 40
1.0
 40
1.0
 40
1.0
 10
3.61981
 20
5.74789
 30
0.0
 10
3.61981
 20
5.74789
 30
0.0
 10
3.50688
 20
5.74789
 30
0.0
 10
3.50688
 20
5.74789
 30
0.0
 10
3.50688
 20
5.74789
 30
0.0
 10
3.50688
 20
5.74789
 30
0.0
 10
3.61981
 20
5.66949
 30
0.0
 10
3.61981
 20
5.66949
 30
0.0
 10
3.61981
 20
5.66949
 30
0.0
 10
3.61981
 20
5.66949
 30
0.0
 10
3.61981
 20
5.74789
 30
0.0
 10
3.61981
 20
5.74789
 30
0.0
  0
SPLINE
  5
193
330
1F
100
AcDbEntity
  8
Ebene 1
100
AcDbSpline
210
0.0
220
0.0
230
1.0
 70
    11
 71
     3
 72
    92
 73
    88
 74
     0
 42
0.0000000001
 43
0.0000000001
 40
0.0
 40
0.0
 40
0.0
 40
0.0
 40
0.0434782608695652
 40
0.0434782608695652
 40
0.0434782608695652
 40
0.0434782608695652
 40
0.0869565217391304
 40
0.0869565217391304
 40
0.0869565217391304
 40
0.0869565217391304
 40
0.1304347826086956
 40
0.1304347826086956
 40
0.1304347826086956
 40
0.1304347826086956
 40
0.1739130434782609
 40
0.1739130434782609
 40
0.1739130434782609
 40
0.1739130434782609
 40
0.2173913043478261
 40
0.2173913043478261
 40
0.2173913043478261
 40
0.2173913043478261
 40
0.2608695652173913
 40
0.2608695652173913
 40
0.2608695652173913
 40
0.2608695652173913
 40
0.3043478260869565
 40
0.3043478260869565
 40
0.3043478260869565
 40
0.3043478260869565
 40
0.3478260869565217
 40
0.3478260869565217
 40
0.3478260869565217
 40
0.3478260869565217
 40
0.391304347826087
 40
0.391304347826087
 40
0.391304347826087
 40
0.391304347826087
 40
0.4347826086956522
 40
0.4347826086956522
 40
0.4347826086956522
 40
0.4347826086956522
 40
0.4782608695652174
 40
0.4782608695652174
 40
0.4782608695652174
 40
0.4782608695652174
 40
0.5217391304347826
 40
0.5217391304347826
 40
0.5217391304347826
 40
0.5217391304347826
 40
0.5652173913043478
 40
0.5652173913043478
 40
0.5652173913043478
 40
0.5652173913043478
 40
0.6086956521739131
 40
0.6086956521739131
 40
0.6086956521739131
 40
0.6086956521739131
 40
0.6521739130434783
 40
0.6521739130434783
 40
0.6521739130434783
 40
0.6521739130434783
 40
0.6956521739130435
 40
0.6956521739130435
 40
0.6956521739130435
 40
0.6956521739130435
 40
0.7391304347826086
 40
0.7391304347826086
 40
0.7391304347826086
 40
0.7391304347826086
 40
0.782608695652174
 40
0.782608695652174
 40
0.782608695652174
 40
0.782608695652174
 40
0.8260869565217391
 40
0.8260869565217391
 40
0.8260869565217391
 40
0.8260869565217391
 40
0.8695652173913043
 40
0.8695652173913043
 40
0.8695652173913043
 40
0.8695652173913043
 40
0.9130434782608695
 40
0.9130434782608695
 40
0.9130434782608695
 40
0.9130434782608695
 40
1.0
 40
1.0
 40
1.0
 40
1.0
 10
3.67844
 20
6.00566
 30
0.0
 10
3.67844
 20
6.00566
 30
0.0
 10
3.70801
 20
6.00566
 30
0.0
 10
3.70801
 20
6.00566
 30
0.0
 10
3.70801
 20
6.00566
 30
0.0
 10
3.70801
 20
6.00566
 30
0.0
 10
3.70801
 20
5.84006
 30
0.0
 10
3.70801
 20
5.84006
 30
0.0
 10
3.70801
 20
5.84006
 30
0.0
 10
3.7006
 20
5.83982
 30
0.0
 10
3.69349
 20
5.84099
 30
0.0
 10
3.68666
 20
5.84361
 30
0.0
 10
3.68666
 20
5.84361
 30
0.0
 10
3.67534
 20
5.84781
 30
0.0
 10
3.66426
 20
5.85458
 30
0.0
 10
3.65335
 20
5.86386
 30
0.0
 10
3.65335
 20
5.86386
 30
0.0
 10
3.64239
 20
5.87319
 30
0.0
 10
3.62973
 20
5.88661
 30
0.0
 10
3.61538
 20
5.90411
 30
0.0
 10
3.61538
 20
5.90411
 30
0.0
 10
3.59304
 20
5.93135
 30
0.0
 10
3.57536
 20
5.94978
 30
0.0
 10
3.56229
 20
5.95935
 30
0.0
 10
3.56229
 20
5.95935
 30
0.0
 10
3.54929
 20
5.96891
 30
0.0
 10
3.53692
 20
5.9737
 30
0.0
 10
3.52531
 20
5.9737
 30
0.0
 10
3.52531
 20
5.9737
 30
0.0
 10
3.51312
 20
5.9737
 30
0.0
 10
3.50285
 20
5.96932
 30
0.0
 10
3.49445
 20
5.96063
 30
0.0
 10
3.49445
 20
5.96063
 30
0.0
 10
3.48611
 20
5.95188
 30
0.0
 10
3.48191
 20
5.94051
 30
0.0
 10
3.48191
 20
5.92651
 30
0.0
 10
3.48191
 20
5.92651
 30
0.0
 10
3.48191
 20
5.91169
 30
0.0
 10
3.48634
 20
5.89985
 30
0.0
 10
3.49527
 20
5.89098
 30
0.0
 10
3.49527
 20
5.89098
 30
0.0
 10
3.50414
 20
5.88206
 30
0.0
 10
3.51644
 20
5.87756
 30
0.0
 10
3.53214
 20
5.87745
 30
0.0
 10
3.53214
 20
5.87745
 30
0.0
 10
3.53214
 20
5.87745
 30
0.0
 10
3.52893
 20
5.84583
 30
0.0
 10
3.52893
 20
5.84583
 30
0.0
 10
3.52893
 20
5.84583
 30
0.0
 10
3.5053
 20
5.84799
 30
0.0
 10
3.48734
 20
5.85616
 30
0.0
 10
3.47497
 20
5.87027
 30
0.0
 10
3.47497
 20
5.87027
 30
0.0
 10
3.4626
 20
5.88439
 30
0.0
 10
3.45648
 20
5.90341
 30
0.0
 10
3.45648
 20
5.92721
 30
0.0
 10
3.45648
 20
5.92721
 30
0.0
 10
3.45648
 20
5.95124
 30
0.0
 10
3.46313
 20
5.97026
 30
0.0
 10
3.47643
 20
5.98426
 30
0.0
 10
3.47643
 20
5.98426
 30
0.0
 10
3.48979
 20
5.99831
 30
0.0
 10
3.50629
 20
6.00531
 30
0.0
 10
3.52601
 20
6.00531
 30
0.0
 10
3.52601
 20
6.00531
 30
0.0
 10
3.53604
 20
6.00531
 30
0.0
 10
3.5459
 20
6.00327
 30
0.0
 10
3.55559
 20
5.99913
 30
0.0
 10
3.55559
 20
5.99913
 30
0.0
 10
3.56527
 20
5.99505
 30
0.0
 10
3.57548
 20
5.98822
 30
0.0
 10
3.58615
 20
5.97871
 30
0.0
 10
3.58615
 20
5.97871
 30
0.0
 10
3.59689
 20
5.96921
 30
0.0
 10
3.61159
 20
5.9534
 30
0.0
 10
3.63025
 20
5.93129
 30
0.0
 10
3.63025
 20
5.93129
 30
0.0
 10
3.64577
 20
5.91286
 30
0.0
 10
3.65627
 20
5.90101
 30
0.0
 10
3.66181
 20
5.89576
 30
0.0
 10
3.66181
 20
5.89576
 30
0.0
 10
3.66729
 20
5.89051
 30
0.0
 10
3.67284
 20
5.8862
 30
0.0
 10
3.67844
 20
5.88276
 30
0.0
 10
3.67844
 20
5.88276
 30
0.0
 10
3.67844
 20
5.88276
 30
0.0
 10
3.67844
 20
6.00566
 30
0.0
 10
3.67844
 20
6.00566
 30
0.0
  0
SPLINE
  5
194
330
1F
100
AcDbEntity
  8
Ebene 1
100
AcDbSpline
210
0.0
220
0.0
230
1.0
 70
    27
 71
     3
 72
    12
 73
     8
 74
     0
 42
0.0000000001
 43
0.0000000001
 40
0.0
 40
0.0
 40
0.0
 40
0.0
 40
0.3333333333333333
 40
0.3333333333333333
 40
0.3333333333333333
 40
0.3333333333333333
 40
1.0
 40
1.0
 40
1.0
 40
1.0
 10
1.32666
 20
6.92235
 30
0.0
 10
1.32666
 20
6.92235
 30
0.0
 10
1.27586
 20
7.25255
 30
0.0
 10
1.27586
 20
7.25255
 30
0.0
 10
1.27586
 20
7.25255
 30
0.0
 10
1.27586
 20
7.25255
 30
0.0
 10
1.32666
 20
6.92235
 30
0.0
 10
1.32666
 20
6.92235
 30
0.0
  0
SPLINE
  5
195
330
1F
100
AcDbEntity
  8
Ebene 1
100
AcDbSpline
210
0.0
220
0.0
230
1.0
 70
     8
 71
     3
 72
    12
 73
     8
 74
     0
 42
0.0000000001
 43
0.0000000001
 40
0.0
 40
0.0
 40
0.0
 40
0.0
 40
0.3333333333333333
 40
0.3333333333333333
 40
0.3333333333333333
 40
0.3333333333333333
 40
1.0
 40
1.0
 40
1.0
 40
1.0
 10
1.27586
 20
7.25255
 30
0.0
 10
1.27586
 20
7.25255
 30
0.0
 10
1.37746
 20
7.25255
 30
0.0
 10
1.37746
 20
7.25255
 30
0.0
 10
1.37746
 20
7.25255
 30
0.0
 10
1.37746
 20
7.25255
 30
0.0
 10
1.32666
 20
6.92235
 30
0.0
 10
1.32666
 20
6.92235
 30
0.0
  0
SPLINE
  5
196
330
1F
100
AcDbEntity
  8
Ebene 1
370
     9
100
AcDbSpline
210
0.0
220
0.0
230
1.0
 70
    24
 71
     3
 72
     8
 73
     4
 74
     0
 42
0.0000000001
 43
0.0000000001
 40
0.0
 40
0.0
 40
0.0
 40
0.0
 40
1.0
 40
1.0
 40
1.0
 40
1.0
 10
1.32666
 20
6.92235
 30
0.0
 10
1.32666
 20
6.92235
 30
0.0
 10
1.27586
 20
7.25255
 30
0.0
 10
1.27586
 20
7.25255
 30
0.0
  0
SPLINE
  5
197
330
1F
100
AcDbEntity
  8
Ebene 1
370
     9
100
AcDbSpline
210
0.0
220
0.0
230
1.0
 70
     8
 71
     3
 72
    12
 73
     8
 74
     0
 42
0.0000000001
 43
0.0000000001
 40
0.0
 40
0.0
 40
0.0
 40
0.0
 40
0.3333333333333333
 40
0.3333333333333333
 40
0.3333333333333333
 40
0.3333333333333333
 40
1.0
 40
1.0
 40
1.0
 40
1.0
 10
1.27586
 20
7.25255
 30
0.0
 10
1.27586
 20
7.25255
 30
0.0
 10
1.37746
 20
7.25255
 30
0.0
 10
1.37746
 20
7.25255
 30
0.0
 10
1.37746
 20
7.25255
 30
0.0
 10
1.37746
 20
7.25255
 30
0.0
 10
1.32666
 20
6.92235
 30
0.0
 10
1.32666
 20
6.92235
 30
0.0
  0
SPLINE
  5
198
330
1F
100
AcDbEntity
  8
Ebene 1
100
AcDbSpline
210
0.0
220
0.0
230
1.0
 70
    27
 71
     3
 72
    12
 73
     8
 74
     0
 42
0.0000000001
 43
0.0000000001
 40
0.0
 40
0.0
 40
0.0
 40
0.0
 40
0.3333333333333333
 40
0.3333333333333333
 40
0.3333333333333333
 40
0.3333333333333333
 40
1.0
 40
1.0
 40
1.0
 40
1.0
 10
1.32666
 20
6.72235
 30
0.0
 10
1.32666
 20
6.72235
 30
0.0
 10
1.37746
 20
6.39215
 30
0.0
 10
1.37746
 20
6.39215
 30
0.0
 10
1.37746
 20
6.39215
 30
0.0
 10
1.37746
 20
6.39215
 30
0.0
 10
1.32666
 20
6.72235
 30
0.0
 10
1.32666
 20
6.72235
 30
0.0
  0
SPLINE
  5
199
330
1F
100
AcDbEntity
  8
Ebene 1
100
AcDbSpline
210
0.0
220
0.0
230
1.0
 70
     8
 71
     3
 72
    12
 73
     8
 74
     0
 42
0.0000000001
 43
0.0000000001
 40
0.0
 40
0.0
 40
0.0
 40
0.0
 40
0.3333333333333333
 40
0.3333333333333333
 40
0.3333333333333333
 40
0.3333333333333333
 40
1.0
 40
1.0
 40
1.0
 40
1.0
 10
1.37746
 20
6.39215
 30
0.0
 10
1.37746
 20
6.39215
 30
0.0
 10
1.27586
 20
6.39215
 30
0.0
 10
1.27586
 20
6.39215
 30
0.0
 10
1.27586
 20
6.39215
 30
0.0
 10
1.27586
 20
6.39215
 30
0.0
 10
1.32666
 20
6.72235
 30
0.0
 10
1.32666
 20
6.72235
 30
0.0
  0
SPLINE
  5
19A
330
1F
100
AcDbEntity
  8
Ebene 1
370
     9
100
AcDbSpline
210
0.0
220
0.0
230
1.0
 70
    24
 71
     3
 72
     8
 73
     4
 74
     0
 42
0.0000000001
 43
0.0000000001
 40
0.0
 40
0.0
 40
0.0
 40
0.0
 40
1.0
 40
1.0
 40
1.0
 40
1.0
 10
1.32666
 20
6.72235
 30
0.0
 10
1.32666
 20
6.72235
 30
0.0
 10
1.37746
 20
6.39215
 30
0.0
 10
1.37746
 20
6.39215
 30
0.0
  0
SPLINE
  5
19B
330
1F
100
AcDbEntity
  8
Ebene 1
370
     9
100
AcDbSpline
210
0.0
220
0.0
230
1.0
 70
     8
 71
     3
 72
    12
 73
     8
 74
     0
 42
0.0000000001
 43
0.0000000001
 40
0.0
 40
0.0
 40
0.0
 40
0.0
 40
0.3333333333333333
 40
0.3333333333333333
 40
0.3333333333333333
 40
0.3333333333333333
 40
1.0
 40
1.0
 40
1.0
 40
1.0
 10
1.37746
 20
6.39215
 30
0.0
 10
1.37746
 20
6.39215
 30
0.0
 10
1.27586
 20
6.39215
 30
0.0
 10
1.27586
 20
6.39215
 30
0.0
 10
1.27586
 20
6.39215
 30
0.0
 10
1.27586
 20
6.39215
 30
0.0
 10
1.32666
 20
6.72235
 30
0.0
 10
1.32666
 20
6.72235
 30
0.0
  0
SPLINE
  5
19C
330
1F
100
AcDbEntity
  8
Ebene 1
370
     9
100
AcDbSpline
210
0.0
220
0.0
230
1.0
 70
    24
 71
     3
 72
     8
 73
     4
 74
     0
 42
0.0000000001
 43
0.0000000001
 40
0.0
 40
0.0
 40
0.0
 40
0.0
 40
1.0
 40
1.0
 40
1.0
 40
1.0
 10
1.32666
 20
6.92235
 30
0.0
 10
1.32666
 20
6.92235
 30
0.0
 10
1.32666
 20
7.80011
 30
0.0
 10
1.32666
 20
7.80011
 30
0.0
  0
SPLINE
  5
19D
330
1F
100
AcDbEntity
  8
Ebene 1
370
     9
100
AcDbSpline
210
0.0
220
0.0
230
1.0
 70
    24
 71
     3
 72
     8
 73
     4
 74
     0
 42
0.0000000001
 43
0.0000000001
 40
0.0
 40
0.0
 40
0.0
 40
0.0
 40
1.0
 40
1.0
 40
1.0
 40
1.0
 10
1.32666
 20
6.92235
 30
0.0
 10
1.32666
 20
6.92235
 30
0.0
 10
1.32666
 20
6.72235
 30
0.0
 10
1.32666
 20
6.72235
 30
0.0
  0
SPLINE
  5
19E
330
1F
100
AcDbEntity
  8
Ebene 1
370
     9
100
AcDbSpline
210
0.0
220
0.0
230
1.0
 70
    24
 71
     3
 72
     8
 73
     4
 74
     0
 42
0.0000000001
 43
0.0000000001
 40
0.0
 40
0.0
 40
0.0
 40
0.0
 40
1.0
 40
1.0
 40
1.0
 40
1.0
 10
1.32666
 20
6.72235
 30
0.0
 10
1.32666
 20
6.72235
 30
0.0
 10
1.32666
 20
6.08735
 30
0.0
 10
1.32666
 20
6.08735
 30
0.0
  0
SPLINE
  5
19F
330
1F
100
AcDbEntity
  8
Ebene 1
100
AcDbSpline
210
0.0
220
0.0
230
1.0
 70
    11
 71
     3
 72
    80
 73
    76
 74
     0
 42
0.0000000001
 43
0.0000000001
 40
0.0
 40
0.0
 40
0.0
 40
0.0
 40
0.05
 40
0.05
 40
0.05
 40
0.05
 40
0.1
 40
0.1
 40
0.1
 40
0.1
 40
0.15
 40
0.15
 40
0.15
 40
0.15
 40
0.2
 40
0.2
 40
0.2
 40
0.2
 40
0.25
 40
0.25
 40
0.25
 40
0.25
 40
0.3
 40
0.3
 40
0.3
 40
0.3
 40
0.35
 40
0.35
 40
0.35
 40
0.35
 40
0.4
 40
0.4
 40
0.4
 40
0.4
 40
0.45
 40
0.45
 40
0.45
 40
0.45
 40
0.5
 40
0.5
 40
0.5
 40
0.5
 40
0.55
 40
0.55
 40
0.55
 40
0.55
 40
0.6
 40
0.6
 40
0.6
 40
0.6
 40
0.65
 40
0.65
 40
0.65
 40
0.65
 40
0.7
 40
0.7
 40
0.7
 40
0.7
 40
0.75
 40
0.75
 40
0.75
 40
0.75
 40
0.8
 40
0.8
 40
0.8
 40
0.8
 40
0.85
 40
0.85
 40
0.85
 40
0.85
 40
0.9
 40
0.9
 40
0.9
 40
0.9
 40
1.0
 40
1.0
 40
1.0
 40
1.0
 10
1.00318
 20
7.43125
 30
0.0
 10
1.00318
 20
7.43125
 30
0.0
 10
1.00557
 20
7.40069
 30
0.0
 10
1.00557
 20
7.40069
 30
0.0
 10
1.00557
 20
7.40069
 30
0.0
 10
0.99349
 20
7.39795
 30
0.0
 10
0.98468
 20
7.3941
 30
0.0
 10
0.97926
 20
7.38908
 30
0.0
 10
0.97926
 20
7.38908
 30
0.0
 10
0.97045
 20
7.38074
 30
0.0
 10
0.96608
 20
7.37047
 30
0.0
 10
0.96608
 20
7.35828
 30
0.0
 10
0.96608
 20
7.35828
 30
0.0
 10
0.96608
 20
7.34848
 30
0.0
 10
0.96882
 20
7.3399
 30
0.0
 10
0.9743
 20
7.3325
 30
0.0
 10
0.9743
 20
7.3325
 30
0.0
 10
0.98136
 20
7.32281
 30
0.0
 10
0.99168
 20
7.31517
 30
0.0
 10
1.00522
 20
7.30957
 30
0.0
 10
1.00522
 20
7.30957
 30
0.0
 10
1.01875
 20
7.30403
 30
0.0
 10
1.03806
 20
7.30111
 30
0.0
 10
1.06314
 20
7.30088
 30
0.0
 10
1.06314
 20
7.30088
 30
0.0
 10
1.05188
 20
7.30829
 30
0.0
 10
1.04348
 20
7.31733
 30
0.0
 10
1.038
 20
7.32806
 30
0.0
 10
1.038
 20
7.32806
 30
0.0
 10
1.03258
 20
7.33874
 30
0.0
 10
1.02983
 20
7.35
 30
0.0
 10
1.02983
 20
7.36172
 30
0.0
 10
1.02983
 20
7.36172
 30
0.0
 10
1.02983
 20
7.38225
 30
0.0
 10
1.03736
 20
7.3997
 30
0.0
 10
1.05247
 20
7.4141
 30
0.0
 10
1.05247
 20
7.4141
 30
0.0
 10
1.06758
 20
7.42851
 30
0.0
 10
1.08706
 20
7.43575
 30
0.0
 10
1.11098
 20
7.43575
 30
0.0
 10
1.11098
 20
7.43575
 30
0.0
 10
1.12673
 20
7.43575
 30
0.0
 10
1.14131
 20
7.4323
 30
0.0
 10
1.15484
 20
7.42554
 30
0.0
 10
1.15484
 20
7.42554
 30
0.0
 10
1.16832
 20
7.41877
 30
0.0
 10
1.1787
 20
7.40944
 30
0.0
 10
1.18588
 20
7.3976
 30
0.0
 10
1.18588
 20
7.3976
 30
0.0
 10
1.19305
 20
7.38575
 30
0.0
 10
1.19661
 20
7.37234
 30
0.0
 10
1.19661
 20
7.35729
 30
0.0
 10
1.19661
 20
7.35729
 30
0.0
 10
1.19661
 20
7.33162
 30
0.0
 10
1.18722
 20
7.31074
 30
0.0
 10
1.16832
 20
7.29458
 30
0.0
 10
1.16832
 20
7.29458
 30
0.0
 10
1.14948
 20
7.27836
 30
0.0
 10
1.11838
 20
7.27031
 30
0.0
 10
1.0751
 20
7.27031
 30
0.0
 10
1.0751
 20
7.27031
 30
0.0
 10
1.02668
 20
7.27031
 30
0.0
 10
0.99151
 20
7.27924
 30
0.0
 10
0.96952
 20
7.29715
 30
0.0
 10
0.96952
 20
7.29715
 30
0.0
 10
0.95038
 20
7.31272
 30
0.0
 10
0.94082
 20
7.33372
 30
0.0
 10
0.94082
 20
7.3602
 30
0.0
 10
0.94082
 20
7.3602
 30
0.0
 10
0.94082
 20
7.37986
 30
0.0
 10
0.9463
 20
7.39602
 30
0.0
 10
0.95738
 20
7.40862
 30
0.0
 10
0.95738
 20
7.40862
 30
0.0
 10
0.96841
 20
7.42122
 30
0.0
 10
0.98369
 20
7.42875
 30
0.0
 10
1.00318
 20
7.43125
 30
0.0
  0
SPLINE
  5
1A0
330
1F
100
AcDbEntity
  8
Ebene 1
100
AcDbSpline
210
0.0
220
0.0
230
1.0
 70
    11
 71
     3
 72
    40
 73
    36
 74
     0
 42
0.0000000001
 43
0.0000000001
 40
0.0
 40
0.0
 40
0.0
 40
0.0
 40
0.1
 40
0.1
 40
0.1
 40
0.1
 40
0.2
 40
0.2
 40
0.2
 40
0.2
 40
0.3
 40
0.3
 40
0.3
 40
0.3
 40
0.4
 40
0.4
 40
0.4
 40
0.4
 40
0.5
 40
0.5
 40
0.5
 40
0.5
 40
0.6
 40
0.6
 40
0.6
 40
0.6
 40
0.7
 40
0.7
 40
0.7
 40
0.7
 40
0.8
 40
0.8
 40
0.8
 40
0.8
 40
1.0
 40
1.0
 40
1.0
 40
1.0
 10
1.11115
 20
7.30566
 30
0.0
 10
1.12177
 20
7.30566
 30
0.0
 10
1.13192
 20
7.30794
 30
0.0
 10
1.1416
 20
7.31243
 30
0.0
 10
1.1416
 20
7.31243
 30
0.0
 10
1.15128
 20
7.31692
 30
0.0
 10
1.15863
 20
7.32322
 30
0.0
 10
1.16371
 20
7.33127
 30
0.0
 10
1.16371
 20
7.33127
 30
0.0
 10
1.16878
 20
7.33938
 30
0.0
 10
1.17135
 20
7.3479
 30
0.0
 10
1.17135
 20
7.35676
 30
0.0
 10
1.17135
 20
7.35676
 30
0.0
 10
1.17135
 20
7.36977
 30
0.0
 10
1.1661
 20
7.38091
 30
0.0
 10
1.1556
 20
7.39025
 30
0.0
 10
1.1556
 20
7.39025
 30
0.0
 10
1.1451
 20
7.39958
 30
0.0
 10
1.13087
 20
7.40425
 30
0.0
 10
1.1129
 20
7.40425
 30
0.0
 10
1.1129
 20
7.40425
 30
0.0
 10
1.09558
 20
7.40425
 30
0.0
 10
1.08193
 20
7.39964
 30
0.0
 10
1.07195
 20
7.39042
 30
0.0
 10
1.07195
 20
7.39042
 30
0.0
 10
1.06198
 20
7.3812
 30
0.0
 10
1.05702
 20
7.3696
 30
0.0
 10
1.05702
 20
7.3556
 30
0.0
 10
1.05702
 20
7.3556
 30
0.0
 10
1.05702
 20
7.34165
 30
0.0
 10
1.06198
 20
7.32987
 30
0.0
 10
1.07195
 20
7.32019
 30
0.0
 10
1.07195
 20
7.32019
 30
0.0
 10
1.08193
 20
7.3105
 30
0.0
 10
1.09499
 20
7.30566
 30
0.0
 10
1.11115
 20
7.30566
 30
0.0
  0
ENDSEC
  0
SECTION
  2
OBJECTS
  0
DICTIONARY
  5
C
330
0
100
AcDbDictionary
281
     1
  3
ACAD_GROUP
350
D
  3
ACAD_LAYOUT
350
1A
  3
ACAD_MATERIAL
350
3B
  3
ACAD_MLEADERSTYLE
350
1C2
  3
ACAD_MLINESTYLE
350
17
  3
ACAD_PLOTSETTINGS
350
19
  3
ACAD_PLOTSTYLENAME
350
E
  3
ACAD_TABLESTYLE
350
1C1
  3
ACAD_VISUALSTYLE
350
2A
  0
DICTIONARY
  5
D
102
{ACAD_REACTORS
330
C
102
}
330
C
100
AcDbDictionary
281
     1
  0
DICTIONARY
  5
1A
102
{ACAD_REACTORS
330
C
102
}
330
C
100
AcDbDictionary
281
     1
  3
Layout1
350
1E
  3
Layout2
350
26
  3
Model
350
22
  0
DICTIONARY
  5
3B
102
{ACAD_REACTORS
330
C
102
}
330
C
100
AcDbDictionary
281
     1
  3
ByBlock
350
3D
  3
ByLayer
350
3C
  3
Global
350
3E
  0
DICTIONARY
  5
1C2
102
{ACAD_REACTORS
330
C
102
}
330
C
100
AcDbDictionary
281
     1
  0
DICTIONARY
  5
17
102
{ACAD_REACTORS
330
C
102
}
330
C
100
AcDbDictionary
281
     1
  3
Standard
350
18
  0
DICTIONARY
  5
19
102
{ACAD_REACTORS
330
C
102
}
330
C
100
AcDbDictionary
281
     1
  0
ACDBDICTIONARYWDFLT
  5
E
102
{ACAD_REACTORS
330
C
102
}
330
C
100
AcDbDictionary
281
     1
  3
Normal
350
F
100
AcDbDictionaryWithDefault
340
F
  0
DICTIONARY
  5
1C1
102
{ACAD_REACTORS
330
C
102
}
330
C
100
AcDbDictionary
281
     1
  0
DICTIONARY
  5
2A
102
{ACAD_REACTORS
330
C
102
}
330
C
100
AcDbDictionary
281
     1
  3
2dWireframe
350
2F
  3
3D Hidden
350
31
  3
3dWireframe
350
30
  3
Basic
350
32
  3
Brighten
350
36
  3
ColorChange
350
3A
  3
Conceptual
350
34
  3
Dim
350
35
  3
Facepattern
350
39
  3
Flat
350
2B
  3
FlatWithEdges
350
2C
  3
Gouraud
350
2D
  3
GouraudWithEdges
350
2E
  3
Linepattern
350
38
  3
Realistic
350
33
  3
Thicken
350
37
  0
LAYOUT
  5
1E
102
{ACAD_REACTORS
330
1A
102
}
330
1A
100
AcDbPlotSettings
  1

  2
none_device
  4

  6

 40
0.0
 41
0.0
 42
0.0
 43
0.0
 44
0.0
 45
0.0
 46
0.0
 47
0.0
 48
0.0
 49
0.0
140
0.0
141
0.0
142
1.0
143
1.0
 70
   688
 72
     0
 73
     0
 74
     5
  7

 75
    16
 76
     0
 77
     2
 78
   300
147
1.0
148
0.0
149
0.0
100
AcDbLayout
  1
Layout1
 70
     1
 71
     1
 10
0.0
 20
0.0
 11
12.0
 21
9.0
 12
0.0
 22
0.0
 32
0.0
 14
1.000000000000000E+20
 24
1.000000000000000E+20
 34
1.000000000000000E+20
 15
-1.000000000000000E+20
 25
-1.000000000000000E+20
 35
-1.000000000000000E+20
146
0.0
 13
0.0
 23
0.0
 33
0.0
 16
1.0
 26
0.0
 36
0.0
 17
0.0
 27
1.0
 37
0.0
 76
     0
330
1B
  0
LAYOUT
  5
26
102
{ACAD_REACTORS
330
1A
102
}
330
1A
100
AcDbPlotSettings
  1

  2
none_device
  4

  6

 40
0.0
 41
0.0
 42
0.0
 43
0.0
 44
0.0
 45
0.0
 46
0.0
 47
0.0
 48
0.0
 49
0.0
140
0.0
141
0.0
142
1.0
143
1.0
 70
   688
 72
     0
 73
     0
 74
     5
  7

 75
    16
 76
     0
 77
     2
 78
   300
147
1.0
148
0.0
149
0.0
100
AcDbLayout
  1
Layout2
 70
     1
 71
     2
 10
0.0
 20
0.0
 11
0.0
 21
0.0
 12
0.0
 22
0.0
 32
0.0
 14
0.0
 24
0.0
 34
0.0
 15
0.0
 25
0.0
 35
0.0
146
0.0
 13
0.0
 23
0.0
 33
0.0
 16
1.0
 26
0.0
 36
0.0
 17
0.0
 27
1.0
 37
0.0
 76
     0
330
23
  0
LAYOUT
  5
22
102
{ACAD_REACTORS
330
1A
102
}
330
1A
100
AcDbPlotSettings
  1

  2
none_device
  4

  6

 40
0.0
 41
0.0
 42
0.0
 43
0.0
 44
0.0
 45
0.0
 46
0.0
 47
0.0
 48
0.0
 49
0.0
140
0.0
141
0.0
142
1.0
143
1.0
 70
  1712
 72
     0
 73
     0
 74
     0
  7

 75
     0
 76
     0
 77
     2
 78
   300
147
1.0
148
0.0
149
0.0
100
AcDbLayout
  1
Model
 70
     1
 71
     0
 10
0.0
 20
0.0
 11
12.0
 21
9.0
 12
0.0
 22
0.0
 32
0.0
 14
-16.71828
 24
4.68735
 34
0.0
 15
4.01184
 25
12.51921
 35
0.0
146
0.0
 13
0.0
 23
0.0
 33
0.0
 16
1.0
 26
0.0
 36
0.0
 17
0.0
 27
1.0
 37
0.0
 76
     0
330
1F
331
29
  0
MATERIAL
  5
3D
102
{ACAD_REACTORS
330
3B
102
}
330
3B
100
AcDbMaterial
  1
ByBlock
 72
     1
 94
      127
  0
MATERIAL
  5
3C
102
{ACAD_REACTORS
330
3B
102
}
330
3B
100
AcDbMaterial
  1
ByLayer
 72
     1
 94
      127
  0
MATERIAL
  5
3E
102
{ACAD_REACTORS
330
3B
102
}
330
3B
100
AcDbMaterial
  1
Global
 72
     1
 94
      127
  0
MLINESTYLE
  5
18
102
{ACAD_REACTORS
330
17
102
}
330
17
100
AcDbMlineStyle
  2
Standard
 70
     0
  3

 62
   256
 51
90.0
 52
90.0
 71
     2
 49
0.5
 62
   256
  6
BYLAYER
 49
-0.5
 62
   256
  6
BYLAYER
  0
ACDBPLACEHOLDER
  5
F
102
{ACAD_REACTORS
330
E
102
}
330
E
  0
VISUALSTYLE
  5
2F
102
{ACAD_REACTORS
330
2A
102
}
102
{ACAD_XDICTIONARY
360
1A9
102
}
330
2A
100
AcDbVisualStyle
  2
2dWireframe
 70
     4
 71
     0
 72
     2
 73
     0
 90
        0
 40
-0.6
 41
-30.0
 62
     5
 63
     7
421
 16777215
 74
     1
 91
        4
 64
     7
 65
   257
 75
     1
175
     1
 42
1.0
 92
        0
 66
   257
 43
1.0
 76
     1
 77
     6
 78
     2
 67
     7
 79
     5
170
     0
171
     0
290
     0
174
     0
 93
        1
 44
0.0
173
     0
291
     0
 45
0.0
  0
VISUALSTYLE
  5
31
102
{ACAD_REACTORS
330
2A
102
}
102
{ACAD_XDICTIONARY
360
1AD
102
}
330
2A
100
AcDbVisualStyle
  2
3D Hidden
 70
     6
 71
     1
 72
     2
 73
     2
 90
        0
 40
-0.6
 41
-30.0
 62
     5
 63
     7
421
 16777215
 74
     2
 91
        2
 64
     7
 65
   257
 75
     2
175
     1
 42
40.0
 92
        0
 66
   257
 43
1.0
 76
     1
 77
     6
 78
     2
 67
     7
 79
     3
170
     0
171
     0
290
     0
174
     0
 93
        1
 44
0.0
173
     0
291
     0
 45
0.0
  0
VISUALSTYLE
  5
30
102
{ACAD_REACTORS
330
2A
102
}
102
{ACAD_XDICTIONARY
360
1AB
102
}
330
2A
100
AcDbVisualStyle
  2
3dWireframe
 70
     5
 71
     0
 72
     2
 73
     0
 90
        0
 40
-0.6
 41
-30.0
 62
     5
 63
     7
421
 16777215
 74
     1
 91
        4
 64
     7
 65
   257
 75
     1
175
     1
 42
1.0
 92
        0
 66
   257
 43
1.0
 76
     1
 77
     6
 78
     2
 67
     7
 79
     5
170
     0
171
     0
290
     0
174
     0
 93
        1
 44
0.0
173
     0
291
     0
 45
0.0
  0
VISUALSTYLE
  5
32
102
{ACAD_REACTORS
330
2A
102
}
102
{ACAD_XDICTIONARY
360
1AF
102
}
330
2A
100
AcDbVisualStyle
  2
Basic
 70
     7
 71
     1
 72
     0
 73
     1
 90
        0
 40
-0.6
 41
-30.0
 62
     5
 63
     7
421
 16777215
 74
     0
 91
        4
 64
     7
 65
   257
 75
     1
175
     1
 42
1.0
 92
        8
 66
     7
 43
1.0
 76
     1
 77
     6
 78
     2
 67
     7
 79
     5
170
     0
171
     0
290
     0
174
     0
 93
        1
 44
0.0
173
     0
291
     1
 45
0.0
  0
VISUALSTYLE
  5
36
102
{ACAD_REACTORS
330
2A
102
}
102
{ACAD_XDICTIONARY
360
1B7
102
}
330
2A
100
AcDbVisualStyle
  2
Brighten
 70
    12
 71
     2
 72
     2
 73
     0
 90
        0
 40
-0.6
 41
-30.0
 62
     5
 63
     7
421
 16777215
 74
     1
 91
        4
 64
     7
 65
   257
 75
     1
175
     1
 42
1.0
 92
        8
 66
     7
 43
1.0
 76
     1
 77
     6
 78
     2
 67
     7
 79
     5
170
     0
171
     0
290
     0
174
     0
 93
        1
 44
50.0
173
     0
291
     1
 45
0.0
  0
VISUALSTYLE
  5
3A
102
{ACAD_REACTORS
330
2A
102
}
102
{ACAD_XDICTIONARY
360
1BF
102
}
330
2A
100
AcDbVisualStyle
  2
ColorChange
 70
    16
 71
     2
 72
     2
 73
     3
 90
        0
 40
-0.6
 41
-30.0
 62
     5
 63
     8
421
  8421504
 74
     1
 91
        4
 64
     7
 65
   257
 75
     1
175
     1
 42
1.0
 92
        8
 66
     8
424
  8421504
 43
1.0
 76
     1
 77
     6
 78
     2
 67
     7
 79
     5
170
     0
171
     0
290
     0
174
     0
 93
        1
 44
0.0
173
     0
291
     1
 45
0.0
  0
VISUALSTYLE
  5
34
102
{ACAD_REACTORS
330
2A
102
}
102
{ACAD_XDICTIONARY
360
1B3
102
}
330
2A
100
AcDbVisualStyle
  2
Conceptual
 70
     9
 71
     3
 72
     2
 73
     0
 90
        0
 40
-0.6
 41
-30.0
 62
     5
 63
     7
421
 16777215
 74
     2
 91
        2
 64
     7
 65
   257
 75
     1
175
     1
 42
40.0
 92
        8
 66
     7
 43
1.0
 76
     1
 77
     6
 78
     2
 67
     7
 79
     3
170
     0
171
     0
290
     0
174
     0
 93
        1
 44
0.0
173
     0
291
     0
 45
0.0
  0
VISUALSTYLE
  5
35
102
{ACAD_REACTORS
330
2A
102
}
102
{ACAD_XDICTIONARY
360
1B5
102
}
330
2A
100
AcDbVisualStyle
  2
Dim
 70
    11
 71
     2
 72
     2
 73
     0
 90
        0
 40
-0.6
 41
-30.0
 62
     5
 63
     7
421
 16777215
 74
     1
 91
        4
 64
     7
 65
   257
 75
     1
175
     1
 42
1.0
 92
        8
 66
     7
 43
1.0
 76
     1
 77
     6
 78
     2
 67
     7
 79
     5
170
     0
171
     0
290
     0
174
     0
 93
        1
 44
-50.0
173
     0
291
     1
 45
0.0
  0
VISUALSTYLE
  5
39
102
{ACAD_REACTORS
330
2A
102
}
102
{ACAD_XDICTIONARY
360
1BD
102
}
330
2A
100
AcDbVisualStyle
  2
Facepattern
 70
    15
 71
     2
 72
     2
 73
     0
 90
        0
 40
-0.6
 41
-30.0
 62
     5
 63
     7
421
 16777215
 74
     1
 91
        4
 64
     7
 65
   257
 75
     1
175
     1
 42
1.0
 92
        8
 66
     7
 43
1.0
 76
     1
 77
     6
 78
     2
 67
     7
 79
     5
170
     0
171
     0
290
     0
174
     0
 93
        1
 44
0.0
173
     0
291
     1
 45
0.0
  0
VISUALSTYLE
  5
2B
102
{ACAD_REACTORS
330
2A
102
}
102
{ACAD_XDICTIONARY
360
1A1
102
}
330
2A
100
AcDbVisualStyle
  2
Flat
 70
     0
 71
     2
 72
     1
 73
     1
 90
        2
 40
-0.6
 41
30.0
 62
     5
 63
     7
421
 16777215
 74
     0
 91
        4
 64
     7
 65
   257
 75
     1
175
     1
 42
1.0
 92
        8
 66
     7
 43
1.0
 76
     1
 77
     6
 78
     2
 67
     7
 79
     5
170
     0
171
     0
290
     0
174
     0
 93
       13
 44
0.0
173
     0
291
     1
 45
0.0
  0
VISUALSTYLE
  5
2C
102
{ACAD_REACTORS
330
2A
102
}
102
{ACAD_XDICTIONARY
360
1A3
102
}
330
2A
100
AcDbVisualStyle
  2
FlatWithEdges
 70
     1
 71
     2
 72
     1
 73
     1
 90
        2
 40
-0.6
 41
30.0
 62
     5
 63
     7
421
 16777215
 74
     1
 91
        4
 64
     7
 65
   257
 75
     1
175
     1
 42
1.0
 92
        0
 66
   257
 43
1.0
 76
     1
 77
     6
 78
     2
 67
     7
 79
     5
170
     0
171
     0
290
     0
174
     0
 93
       13
 44
0.0
173
     0
291
     1
 45
0.0
  0
VISUALSTYLE
  5
2D
102
{ACAD_REACTORS
330
2A
102
}
102
{ACAD_XDICTIONARY
360
1A5
102
}
330
2A
100
AcDbVisualStyle
  2
Gouraud
 70
     2
 71
     2
 72
     2
 73
     1
 90
        2
 40
-0.6
 41
30.0
 62
     5
 63
     7
421
 16777215
 74
     0
 91
        4
 64
     7
 65
   257
 75
     1
175
     1
 42
1.0
 92
        0
 66
     7
 43
1.0
 76
     1
 77
     6
 78
     2
 67
     7
 79
     5
170
     0
171
     0
290
     0
174
     0
 93
       13
 44
0.0
173
     0
291
     1
 45
0.0
  0
VISUALSTYLE
  5
2E
102
{ACAD_REACTORS
330
2A
102
}
102
{ACAD_XDICTIONARY
360
1A7
102
}
330
2A
100
AcDbVisualStyle
  2
GouraudWithEdges
 70
     3
 71
     2
 72
     2
 73
     1
 90
        2
 40
-0.6
 41
30.0
 62
     5
 63
     7
421
 16777215
 74
     1
 91
        4
 64
     7
 65
   257
 75
     1
175
     1
 42
1.0
 92
        0
 66
   257
 43
1.0
 76
     1
 77
     6
 78
     2
 67
     7
 79
     5
170
     0
171
     0
290
     0
174
     0
 93
       13
 44
0.0
173
     0
291
     1
 45
0.0
  0
VISUALSTYLE
  5
38
102
{ACAD_REACTORS
330
2A
102
}
102
{ACAD_XDICTIONARY
360
1BB
102
}
330
2A
100
AcDbVisualStyle
  2
Linepattern
 70
    14
 71
     2
 72
     2
 73
     0
 90
        0
 40
-0.6
 41
-30.0
 62
     5
 63
     7
421
 16777215
 74
     1
 91
        4
 64
     7
 65
   257
 75
     7
175
     7
 42
1.0
 92
        8
 66
     7
 43
1.0
 76
     1
 77
     6
 78
     2
 67
     7
 79
     5
170
     0
171
     0
290
     0
174
     0
 93
        1
 44
0.0
173
     0
291
     1
 45
0.0
  0
VISUALSTYLE
  5
33
102
{ACAD_REACTORS
330
2A
102
}
102
{ACAD_XDICTIONARY
360
1B1
102
}
330
2A
100
AcDbVisualStyle
  2
Realistic
 70
     8
 71
     2
 72
     2
 73
     0
 90
        0
 40
-0.6
 41
-30.0
 62
     5
 63
     7
421
 16777215
 74
     1
 91
        0
 64
     7
 65
   257
 75
     1
175
     1
 42
1.0
 92
        8
 66
     8
424
  7895160
 43
1.0
 76
     1
 77
     6
 78
     2
 67
     7
 79
     5
170
     0
171
     0
290
     0
174
     0
 93
       13
 44
0.0
173
     0
291
     0
 45
0.0
  0
VISUALSTYLE
  5
37
102
{ACAD_REACTORS
330
2A
102
}
102
{ACAD_XDICTIONARY
360
1B9
102
}
330
2A
100
AcDbVisualStyle
  2
Thicken
 70
    13
 71
     2
 72
     2
 73
     0
 90
        0
 40
-0.6
 41
-30.0
 62
     5
 63
     7
421
 16777215
 74
     1
 91
        4
 64
     7
 65
   257
 75
     1
175
     1
 42
1.0
 92
       12
 66
     7
 43
1.0
 76
     1
 77
     6
 78
     2
 67
     7
 79
     5
170
     0
171
     0
290
     0
174
     0
 93
        1
 44
0.0
173
     0
291
     1
 45
0.0
  0
DICTIONARY
  5
1A9
330
2F
100
AcDbDictionary
280
     1
281
     1
  3
ACAD_XREC_ROUNDTRIP
360
1AA
  0
DICTIONARY
  5
1AD
330
31
100
AcDbDictionary
280
     1
281
     1
  3
ACAD_XREC_ROUNDTRIP
360
1AE
  0
DICTIONARY
  5
1AB
330
30
100
AcDbDictionary
280
     1
281
     1
  3
ACAD_XREC_ROUNDTRIP
360
1AC
  0
DICTIONARY
  5
1AF
330
32
100
AcDbDictionary
280
     1
281
     1
  3
ACAD_XREC_ROUNDTRIP
360
1B0
  0
DICTIONARY
  5
1B7
330
36
100
AcDbDictionary
280
     1
281
     1
  3
ACAD_XREC_ROUNDTRIP
360
1B8
  0
DICTIONARY
  5
1BF
330
3A
100
AcDbDictionary
280
     1
281
     1
  3
ACAD_XREC_ROUNDTRIP
360
1C0
  0
DICTIONARY
  5
1B3
330
34
100
AcDbDictionary
280
     1
281
     1
  3
ACAD_XREC_ROUNDTRIP
360
1B4
  0
DICTIONARY
  5
1B5
330
35
100
AcDbDictionary
280
     1
281
     1
  3
ACAD_XREC_ROUNDTRIP
360
1B6
  0
DICTIONARY
  5
1BD
330
39
100
AcDbDictionary
280
     1
281
     1
  3
ACAD_XREC_ROUNDTRIP
360
1BE
  0
DICTIONARY
  5
1A1
330
2B
100
AcDbDictionary
280
     1
281
     1
  3
ACAD_XREC_ROUNDTRIP
360
1A2
  0
DICTIONARY
  5
1A3
330
2C
100
AcDbDictionary
280
     1
281
     1
  3
ACAD_XREC_ROUNDTRIP
360
1A4
  0
DICTIONARY
  5
1A5
330
2D
100
AcDbDictionary
280
     1
281
     1
  3
ACAD_XREC_ROUNDTRIP
360
1A6
  0
DICTIONARY
  5
1A7
330
2E
100
AcDbDictionary
280
     1
281
     1
  3
ACAD_XREC_ROUNDTRIP
360
1A8
  0
DICTIONARY
  5
1BB
330
38
100
AcDbDictionary
280
     1
281
     1
  3
ACAD_XREC_ROUNDTRIP
360
1BC
  0
DICTIONARY
  5
1B1
330
33
100
AcDbDictionary
280
     1
281
     1
  3
ACAD_XREC_ROUNDTRIP
360
1B2
  0
DICTIONARY
  5
1B9
330
37
100
AcDbDictionary
280
     1
281
     1
  3
ACAD_XREC_ROUNDTRIP
360
1BA
  0
XRECORD
  5
1AA
102
{ACAD_REACTORS
330
1A9
102
}
330
1A9
100
AcDbXrecord
280
     1
102
RTVSPropertyOp0
 70
     1
102
RTVSPropertyOp1
 70
     1
102
RTVSPropertyOp2
 70
     1
102
RTVSPropertyOp3
 70
     1
102
RTVSPropertyOp4
 70
     1
102
RTVSPropertyOp5
 70
     1
102
RTVSPropertyOp6
 70
     1
102
RTVSPropertyOp7
 70
     1
102
RTVSPropertyOp8
 70
     1
102
RTVSPropertyOp9
 70
     1
102
RTVSPropertyOp10
 70
     1
102
RTVSPropertyOp11
 70
     1
102
RTVSPropertyOp12
 70
     1
102
RTVSPropertyOp13
 70
     1
102
RTVSPropertyOp14
 70
     1
102
RTVSPropertyOp15
 70
     1
102
RTVSPropertyOp16
 70
     1
102
RTVSPropertyOp17
 70
     1
102
RTVSPropertyOp18
 70
     1
102
RTVSPropertyOp19
 70
     1
102
RTVSPropertyOp20
 70
     1
102
RTVSPropertyOp21
 70
     1
102
RTVSPropertyOp22
 70
     1
102
RTVSPropertyOp23
 70
     1
102
RTVSPropertyOp24
 70
     1
102
RTVSPropertyOp25
 70
     1
102
RTVSPropertyOp26
 70
     1
102
RTVSPropertyOp27
 70
     1
  0
XRECORD
  5
1AE
102
{ACAD_REACTORS
330
1AD
102
}
330
1AD
100
AcDbXrecord
280
     1
102
RTVSPropertyOp0
 70
     1
102
RTVSPropertyOp1
 70
     1
102
RTVSPropertyOp2
 70
     1
102
RTVSPropertyOp3
 70
     1
102
RTVSPropertyOp4
 70
     1
102
RTVSPropertyOp5
 70
     1
102
RTVSPropertyOp6
 70
     1
102
RTVSPropertyOp7
 70
     1
102
RTVSPropertyOp8
 70
     1
102
RTVSPropertyOp9
 70
     1
102
RTVSPropertyOp10
 70
     1
102
RTVSPropertyOp11
 70
     1
102
RTVSPropertyOp12
 70
     1
102
RTVSPropertyOp13
 70
     1
102
RTVSPropertyOp14
 70
     1
102
RTVSPropertyOp15
 70
     1
102
RTVSPropertyOp16
 70
     1
102
RTVSPropertyOp17
 70
     1
102
RTVSPropertyOp18
 70
     1
102
RTVSPropertyOp19
 70
     1
102
RTVSPropertyOp20
 70
     1
102
RTVSPropertyOp21
 70
     1
102
RTVSPropertyOp22
 70
     1
102
RTVSPropertyOp23
 70
     1
102
RTVSPropertyOp24
 70
     1
102
RTVSPropertyOp25
 70
     1
102
RTVSPropertyOp26
 70
     1
102
RTVSPropertyOp27
 70
     1
  0
XRECORD
  5
1AC
102
{ACAD_REACTORS
330
1AB
102
}
330
1AB
100
AcDbXrecord
280
     1
102
RTVSPropertyOp0
 70
     1
102
RTVSPropertyOp1
 70
     1
102
RTVSPropertyOp2
 70
     1
102
RTVSPropertyOp3
 70
     1
102
RTVSPropertyOp4
 70
     1
102
RTVSPropertyOp5
 70
     1
102
RTVSPropertyOp6
 70
     1
102
RTVSPropertyOp7
 70
     1
102
RTVSPropertyOp8
 70
     1
102
RTVSPropertyOp9
 70
     1
102
RTVSPropertyOp10
 70
     1
102
RTVSPropertyOp11
 70
     1
102
RTVSPropertyOp12
 70
     1
102
RTVSPropertyOp13
 70
     1
102
RTVSPropertyOp14
 70
     1
102
RTVSPropertyOp15
 70
     1
102
RTVSPropertyOp16
 70
     1
102
RTVSPropertyOp17
 70
     1
102
RTVSPropertyOp18
 70
     1
102
RTVSPropertyOp19
 70
     1
102
RTVSPropertyOp20
 70
     1
102
RTVSPropertyOp21
 70
     1
102
RTVSPropertyOp22
 70
     1
102
RTVSPropertyOp23
 70
     1
102
RTVSPropertyOp24
 70
     1
102
RTVSPropertyOp25
 70
     1
102
RTVSPropertyOp26
 70
     1
102
RTVSPropertyOp27
 70
     1
  0
XRECORD
  5
1B0
102
{ACAD_REACTORS
330
1AF
102
}
330
1AF
100
AcDbXrecord
280
     1
102
RTVSPropertyOp0
 70
     1
102
RTVSPropertyOp1
 70
     1
102
RTVSPropertyOp2
 70
     1
102
RTVSPropertyOp3
 70
     1
102
RTVSPropertyOp4
 70
     1
102
RTVSPropertyOp5
 70
     1
102
RTVSPropertyOp6
 70
     1
102
RTVSPropertyOp7
 70
     1
102
RTVSPropertyOp8
 70
     1
102
RTVSPropertyOp9
 70
     1
102
RTVSPropertyOp10
 70
     1
102
RTVSPropertyOp11
 70
     1
102
RTVSPropertyOp12
 70
     1
102
RTVSPropertyOp13
 70
     1
102
RTVSPropertyOp14
 70
     1
102
RTVSPropertyOp15
 70
     1
102
RTVSPropertyOp16
 70
     1
102
RTVSPropertyOp17
 70
     1
102
RTVSPropertyOp18
 70
     1
102
RTVSPropertyOp19
 70
     1
102
RTVSPropertyOp20
 70
     1
102
RTVSPropertyOp21
 70
     1
102
RTVSPropertyOp22
 70
     1
102
RTVSPropertyOp23
 70
     1
102
RTVSPropertyOp24
 70
     1
102
RTVSPropertyOp25
 70
     1
102
RTVSPropertyOp26
 70
     1
102
RTVSPropertyOp27
 70
     1
  0
XRECORD
  5
1B8
102
{ACAD_REACTORS
330
1B7
102
}
330
1B7
100
AcDbXrecord
280
     1
102
RTVSPropertyOp0
 70
     1
102
RTVSPropertyOp1
 70
     1
102
RTVSPropertyOp2
 70
     1
102
RTVSPropertyOp3
 70
     1
102
RTVSPropertyOp4
 70
     1
102
RTVSPropertyOp5
 70
     1
102
RTVSPropertyOp6
 70
     1
102
RTVSPropertyOp7
 70
     1
102
RTVSPropertyOp8
 70
     1
102
RTVSPropertyOp9
 70
     1
102
RTVSPropertyOp10
 70
     1
102
RTVSPropertyOp11
 70
     1
102
RTVSPropertyOp12
 70
     1
102
RTVSPropertyOp13
 70
     1
102
RTVSPropertyOp14
 70
     1
102
RTVSPropertyOp15
 70
     1
102
RTVSPropertyOp16
 70
     1
102
RTVSPropertyOp17
 70
     1
102
RTVSPropertyOp18
 70
     1
102
RTVSPropertyOp19
 70
     1
102
RTVSPropertyOp20
 70
     1
102
RTVSPropertyOp21
 70
     1
102
RTVSPropertyOp22
 70
     1
102
RTVSPropertyOp23
 70
     1
102
RTVSPropertyOp24
 70
     1
102
RTVSPropertyOp25
 70
     1
102
RTVSPropertyOp26
 70
     1
102
RTVSPropertyOp27
 70
     1
  0
XRECORD
  5
1C0
102
{ACAD_REACTORS
330
1BF
102
}
330
1BF
100
AcDbXrecord
280
     1
102
RTVSPropertyOp0
 70
     1
102
RTVSPropertyOp1
 70
     1
102
RTVSPropertyOp2
 70
     1
102
RTVSPropertyOp3
 70
     1
102
RTVSPropertyOp4
 70
     1
102
RTVSPropertyOp5
 70
     1
102
RTVSPropertyOp6
 70
     1
102
RTVSPropertyOp7
 70
     1
102
RTVSPropertyOp8
 70
     1
102
RTVSPropertyOp9
 70
     1
102
RTVSPropertyOp10
 70
     1
102
RTVSPropertyOp11
 70
     1
102
RTVSPropertyOp12
 70
     1
102
RTVSPropertyOp13
 70
     1
102
RTVSPropertyOp14
 70
     1
102
RTVSPropertyOp15
 70
     1
102
RTVSPropertyOp16
 70
     1
102
RTVSPropertyOp17
 70
     1
102
RTVSPropertyOp18
 70
     1
102
RTVSPropertyOp19
 70
     1
102
RTVSPropertyOp20
 70
     1
102
RTVSPropertyOp21
 70
     1
102
RTVSPropertyOp22
 70
     1
102
RTVSPropertyOp23
 70
     1
102
RTVSPropertyOp24
 70
     1
102
RTVSPropertyOp25
 70
     1
102
RTVSPropertyOp26
 70
     1
102
RTVSPropertyOp27
 70
     1
  0
XRECORD
  5
1B4
102
{ACAD_REACTORS
330
1B3
102
}
330
1B3
100
AcDbXrecord
280
     1
102
RTVSPropertyOp0
 70
     1
102
RTVSPropertyOp1
 70
     1
102
RTVSPropertyOp2
 70
     1
102
RTVSPropertyOp3
 70
     1
102
RTVSPropertyOp4
 70
     1
102
RTVSPropertyOp5
 70
     1
102
RTVSPropertyOp6
 70
     1
102
RTVSPropertyOp7
 70
     1
102
RTVSPropertyOp8
 70
     1
102
RTVSPropertyOp9
 70
     1
102
RTVSPropertyOp10
 70
     1
102
RTVSPropertyOp11
 70
     1
102
RTVSPropertyOp12
 70
     1
102
RTVSPropertyOp13
 70
     1
102
RTVSPropertyOp14
 70
     1
102
RTVSPropertyOp15
 70
     1
102
RTVSPropertyOp16
 70
     1
102
RTVSPropertyOp17
 70
     1
102
RTVSPropertyOp18
 70
     1
102
RTVSPropertyOp19
 70
     1
102
RTVSPropertyOp20
 70
     1
102
RTVSPropertyOp21
 70
     1
102
RTVSPropertyOp22
 70
     1
102
RTVSPropertyOp23
 70
     1
102
RTVSPropertyOp24
 70
     1
102
RTVSPropertyOp25
 70
     1
102
RTVSPropertyOp26
 70
     1
102
RTVSPropertyOp27
 70
     1
  0
XRECORD
  5
1B6
102
{ACAD_REACTORS
330
1B5
102
}
330
1B5
100
AcDbXrecord
280
     1
102
RTVSPropertyOp0
 70
     1
102
RTVSPropertyOp1
 70
     1
102
RTVSPropertyOp2
 70
     1
102
RTVSPropertyOp3
 70
     1
102
RTVSPropertyOp4
 70
     1
102
RTVSPropertyOp5
 70
     1
102
RTVSPropertyOp6
 70
     1
102
RTVSPropertyOp7
 70
     1
102
RTVSPropertyOp8
 70
     1
102
RTVSPropertyOp9
 70
     1
102
RTVSPropertyOp10
 70
     1
102
RTVSPropertyOp11
 70
     1
102
RTVSPropertyOp12
 70
     1
102
RTVSPropertyOp13
 70
     1
102
RTVSPropertyOp14
 70
     1
102
RTVSPropertyOp15
 70
     1
102
RTVSPropertyOp16
 70
     1
102
RTVSPropertyOp17
 70
     1
102
RTVSPropertyOp18
 70
     1
102
RTVSPropertyOp19
 70
     1
102
RTVSPropertyOp20
 70
     1
102
RTVSPropertyOp21
 70
     1
102
RTVSPropertyOp22
 70
     1
102
RTVSPropertyOp23
 70
     1
102
RTVSPropertyOp24
 70
     1
102
RTVSPropertyOp25
 70
     1
102
RTVSPropertyOp26
 70
     1
102
RTVSPropertyOp27
 70
     1
  0
XRECORD
  5
1BE
102
{ACAD_REACTORS
330
1BD
102
}
330
1BD
100
AcDbXrecord
280
     1
102
RTVSPropertyOp0
 70
     1
102
RTVSPropertyOp1
 70
     1
102
RTVSPropertyOp2
 70
     1
102
RTVSPropertyOp3
 70
     1
102
RTVSPropertyOp4
 70
     1
102
RTVSPropertyOp5
 70
     1
102
RTVSPropertyOp6
 70
     1
102
RTVSPropertyOp7
 70
     1
102
RTVSPropertyOp8
 70
     1
102
RTVSPropertyOp9
 70
     1
102
RTVSPropertyOp10
 70
     1
102
RTVSPropertyOp11
 70
     1
102
RTVSPropertyOp12
 70
     1
102
RTVSPropertyOp13
 70
     1
102
RTVSPropertyOp14
 70
     1
102
RTVSPropertyOp15
 70
     1
102
RTVSPropertyOp16
 70
     1
102
RTVSPropertyOp17
 70
     1
102
RTVSPropertyOp18
 70
     1
102
RTVSPropertyOp19
 70
     1
102
RTVSPropertyOp20
 70
     1
102
RTVSPropertyOp21
 70
     1
102
RTVSPropertyOp22
 70
     1
102
RTVSPropertyOp23
 70
     1
102
RTVSPropertyOp24
 70
     1
102
RTVSPropertyOp25
 70
     1
102
RTVSPropertyOp26
 70
     1
102
RTVSPropertyOp27
 70
     1
  0
XRECORD
  5
1A2
102
{ACAD_REACTORS
330
1A1
102
}
330
1A1
100
AcDbXrecord
280
     1
102
RTVSPropertyOp0
 70
     1
102
RTVSPropertyOp1
 70
     1
102
RTVSPropertyOp2
 70
     1
102
RTVSPropertyOp3
 70
     1
102
RTVSPropertyOp4
 70
     1
102
RTVSPropertyOp5
 70
     1
102
RTVSPropertyOp6
 70
     1
102
RTVSPropertyOp7
 70
     1
102
RTVSPropertyOp8
 70
     1
102
RTVSPropertyOp9
 70
     1
102
RTVSPropertyOp10
 70
     1
102
RTVSPropertyOp11
 70
     1
102
RTVSPropertyOp12
 70
     1
102
RTVSPropertyOp13
 70
     1
102
RTVSPropertyOp14
 70
     1
102
RTVSPropertyOp15
 70
     1
102
RTVSPropertyOp16
 70
     1
102
RTVSPropertyOp17
 70
     1
102
RTVSPropertyOp18
 70
     1
102
RTVSPropertyOp19
 70
     1
102
RTVSPropertyOp20
 70
     1
102
RTVSPropertyOp21
 70
     1
102
RTVSPropertyOp22
 70
     1
102
RTVSPropertyOp23
 70
     1
102
RTVSPropertyOp24
 70
     1
102
RTVSPropertyOp25
 70
     1
102
RTVSPropertyOp26
 70
     1
102
RTVSPropertyOp27
 70
     1
  0
XRECORD
  5
1A4
102
{ACAD_REACTORS
330
1A3
102
}
330
1A3
100
AcDbXrecord
280
     1
102
RTVSPropertyOp0
 70
     1
102
RTVSPropertyOp1
 70
     1
102
RTVSPropertyOp2
 70
     1
102
RTVSPropertyOp3
 70
     1
102
RTVSPropertyOp4
 70
     1
102
RTVSPropertyOp5
 70
     1
102
RTVSPropertyOp6
 70
     1
102
RTVSPropertyOp7
 70
     1
102
RTVSPropertyOp8
 70
     1
102
RTVSPropertyOp9
 70
     1
102
RTVSPropertyOp10
 70
     1
102
RTVSPropertyOp11
 70
     1
102
RTVSPropertyOp12
 70
     1
102
RTVSPropertyOp13
 70
     1
102
RTVSPropertyOp14
 70
     1
102
RTVSPropertyOp15
 70
     1
102
RTVSPropertyOp16
 70
     1
102
RTVSPropertyOp17
 70
     1
102
RTVSPropertyOp18
 70
     1
102
RTVSPropertyOp19
 70
     1
102
RTVSPropertyOp20
 70
     1
102
RTVSPropertyOp21
 70
     1
102
RTVSPropertyOp22
 70
     1
102
RTVSPropertyOp23
 70
     1
102
RTVSPropertyOp24
 70
     1
102
RTVSPropertyOp25
 70
     1
102
RTVSPropertyOp26
 70
     1
102
RTVSPropertyOp27
 70
     1
  0
XRECORD
  5
1A6
102
{ACAD_REACTORS
330
1A5
102
}
330
1A5
100
AcDbXrecord
280
     1
102
RTVSPropertyOp0
 70
     1
102
RTVSPropertyOp1
 70
     1
102
RTVSPropertyOp2
 70
     1
102
RTVSPropertyOp3
 70
     1
102
RTVSPropertyOp4
 70
     1
102
RTVSPropertyOp5
 70
     1
102
RTVSPropertyOp6
 70
     1
102
RTVSPropertyOp7
 70
     1
102
RTVSPropertyOp8
 70
     1
102
RTVSPropertyOp9
 70
     1
102
RTVSPropertyOp10
 70
     1
102
RTVSPropertyOp11
 70
     1
102
RTVSPropertyOp12
 70
     1
102
RTVSPropertyOp13
 70
     1
102
RTVSPropertyOp14
 70
     1
102
RTVSPropertyOp15
 70
     1
102
RTVSPropertyOp16
 70
     1
102
RTVSPropertyOp17
 70
     1
102
RTVSPropertyOp18
 70
     1
102
RTVSPropertyOp19
 70
     1
102
RTVSPropertyOp20
 70
     1
102
RTVSPropertyOp21
 70
     1
102
RTVSPropertyOp22
 70
     1
102
RTVSPropertyOp23
 70
     1
102
RTVSPropertyOp24
 70
     1
102
RTVSPropertyOp25
 70
     1
102
RTVSPropertyOp26
 70
     1
102
RTVSPropertyOp27
 70
     1
  0
XRECORD
  5
1A8
102
{ACAD_REACTORS
330
1A7
102
}
330
1A7
100
AcDbXrecord
280
     1
102
RTVSPropertyOp0
 70
     1
102
RTVSPropertyOp1
 70
     1
102
RTVSPropertyOp2
 70
     1
102
RTVSPropertyOp3
 70
     1
102
RTVSPropertyOp4
 70
     1
102
RTVSPropertyOp5
 70
     1
102
RTVSPropertyOp6
 70
     1
102
RTVSPropertyOp7
 70
     1
102
RTVSPropertyOp8
 70
     1
102
RTVSPropertyOp9
 70
     1
102
RTVSPropertyOp10
 70
     1
102
RTVSPropertyOp11
 70
     1
102
RTVSPropertyOp12
 70
     1
102
RTVSPropertyOp13
 70
     1
102
RTVSPropertyOp14
 70
     1
102
RTVSPropertyOp15
 70
     1
102
RTVSPropertyOp16
 70
     1
102
RTVSPropertyOp17
 70
     1
102
RTVSPropertyOp18
 70
     1
102
RTVSPropertyOp19
 70
     1
102
RTVSPropertyOp20
 70
     1
102
RTVSPropertyOp21
 70
     1
102
RTVSPropertyOp22
 70
     1
102
RTVSPropertyOp23
 70
     1
102
RTVSPropertyOp24
 70
     1
102
RTVSPropertyOp25
 70
     1
102
RTVSPropertyOp26
 70
     1
102
RTVSPropertyOp27
 70
     1
  0
XRECORD
  5
1BC
102
{ACAD_REACTORS
330
1BB
102
}
330
1BB
100
AcDbXrecord
280
     1
102
RTVSPropertyOp0
 70
     1
102
RTVSPropertyOp1
 70
     1
102
RTVSPropertyOp2
 70
     1
102
RTVSPropertyOp3
 70
     1
102
RTVSPropertyOp4
 70
     1
102
RTVSPropertyOp5
 70
     1
102
RTVSPropertyOp6
 70
     1
102
RTVSPropertyOp7
 70
     1
102
RTVSPropertyOp8
 70
     1
102
RTVSPropertyOp9
 70
     1
102
RTVSPropertyOp10
 70
     1
102
RTVSPropertyOp11
 70
     1
102
RTVSPropertyOp12
 70
     1
102
RTVSPropertyOp13
 70
     1
102
RTVSPropertyOp14
 70
     1
102
RTVSPropertyOp15
 70
     1
102
RTVSPropertyOp16
 70
     1
102
RTVSPropertyOp17
 70
     1
102
RTVSPropertyOp18
 70
     1
102
RTVSPropertyOp19
 70
     1
102
RTVSPropertyOp20
 70
     1
102
RTVSPropertyOp21
 70
     1
102
RTVSPropertyOp22
 70
     1
102
RTVSPropertyOp23
 70
     1
102
RTVSPropertyOp24
 70
     1
102
RTVSPropertyOp25
 70
     1
102
RTVSPropertyOp26
 70
     1
102
RTVSPropertyOp27
 70
     1
  0
XRECORD
  5
1B2
102
{ACAD_REACTORS
330
1B1
102
}
330
1B1
100
AcDbXrecord
280
     1
102
RTVSPropertyOp0
 70
     1
102
RTVSPropertyOp1
 70
     1
102
RTVSPropertyOp2
 70
     1
102
RTVSPropertyOp3
 70
     1
102
RTVSPropertyOp4
 70
     1
102
RTVSPropertyOp5
 70
     1
102
RTVSPropertyOp6
 70
     1
102
RTVSPropertyOp7
 70
     1
102
RTVSPropertyOp8
 70
     1
102
RTVSPropertyOp9
 70
     1
102
RTVSPropertyOp10
 70
     1
102
RTVSPropertyOp11
 70
     1
102
RTVSPropertyOp12
 70
     1
102
RTVSPropertyOp13
 70
     1
102
RTVSPropertyOp14
 70
     1
102
RTVSPropertyOp15
 70
     1
102
RTVSPropertyOp16
 70
     1
102
RTVSPropertyOp17
 70
     1
102
RTVSPropertyOp18
 70
     1
102
RTVSPropertyOp19
 70
     1
102
RTVSPropertyOp20
 70
     1
102
RTVSPropertyOp21
 70
     1
102
RTVSPropertyOp22
 70
     1
102
RTVSPropertyOp23
 70
     1
102
RTVSPropertyOp24
 70
     1
102
RTVSPropertyOp25
 70
     1
102
RTVSPropertyOp26
 70
     1
102
RTVSPropertyOp27
 70
     1
  0
XRECORD
  5
1BA
102
{ACAD_REACTORS
330
1B9
102
}
330
1B9
100
AcDbXrecord
280
     1
102
RTVSPropertyOp0
 70
     1
102
RTVSPropertyOp1
 70
     1
102
RTVSPropertyOp2
 70
     1
102
RTVSPropertyOp3
 70
     1
102
RTVSPropertyOp4
 70
     1
102
RTVSPropertyOp5
 70
     1
102
RTVSPropertyOp6
 70
     1
102
RTVSPropertyOp7
 70
     1
102
RTVSPropertyOp8
 70
     1
102
RTVSPropertyOp9
 70
     1
102
RTVSPropertyOp10
 70
     1
102
RTVSPropertyOp11
 70
     1
102
RTVSPropertyOp12
 70
     1
102
RTVSPropertyOp13
 70
     1
102
RTVSPropertyOp14
 70
     1
102
RTVSPropertyOp15
 70
     1
102
RTVSPropertyOp16
 70
     1
102
RTVSPropertyOp17
 70
     1
102
RTVSPropertyOp18
 70
     1
102
RTVSPropertyOp19
 70
     1
102
RTVSPropertyOp20
 70
     1
102
RTVSPropertyOp21
 70
     1
102
RTVSPropertyOp22
 70
     1
102
RTVSPropertyOp23
 70
     1
102
RTVSPropertyOp24
 70
     1
102
RTVSPropertyOp25
 70
     1
102
RTVSPropertyOp26
 70
     1
102
RTVSPropertyOp27
 70
     1
  0
ENDSEC
  0
EOF
