  0
SECTION
  2
HEADER
  9
$ACADVER
  1
AC1021
  9
$ACADMAINTVER
 70
    25
  9
$DWGCODEPAGE
  3
ANSI_1252
  9
$INSBASE
 10
0.0
 20
0.0
 30
0.0
  9
$EXTMIN
 10
-16.82256
 20
0.66077
 30
0.0
  9
$EXTMAX
 10
6.95752
 20
13.26201
 30
0.0
  9
$LIMMIN
 10
0.0
 20
0.0
  9
$LIMMAX
 10
12.0
 20
9.0
  9
$ORTHOMODE
 70
     0
  9
$REGENMODE
 70
     1
  9
$FILLMODE
 70
     1
  9
$QTEXTMODE
 70
     0
  9
$MIRRTEXT
 70
     1
  9
$LTSCALE
 40
1.0
  9
$ATTMODE
 70
     1
  9
$TEXTSIZE
 40
0.2
  9
$TRACEWID
 40
0.05
  9
$TEXTSTYLE
  7
Standard
  9
$CLAYER
  8
0
  9
$CELTYPE
  6
ByLayer
  9
$CECOLOR
 62
   256
  9
$CELTSCALE
 40
1.0
  9
$DISPSILH
 70
     0
  9
$DIMSCALE
 40
1.0
  9
$DIMASZ
 40
0.18
  9
$DIMEXO
 40
0.0625
  9
$DIMDLI
 40
0.38
  9
$DIMRND
 40
0.0
  9
$DIMDLE
 40
0.0
  9
$DIMEXE
 40
0.18
  9
$DIMTP
 40
0.0
  9
$DIMTM
 40
0.0
  9
$DIMTXT
 40
0.18
  9
$DIMCEN
 40
0.09
  9
$DIMTSZ
 40
0.0
  9
$DIMTOL
 70
     0
  9
$DIMLIM
 70
     0
  9
$DIMTIH
 70
     1
  9
$DIMTOH
 70
     1
  9
$DIMSE1
 70
     0
  9
$DIMSE2
 70
     0
  9
$DIMTAD
 70
     0
  9
$DIMZIN
 70
     0
  9
$DIMBLK
  1

  9
$DIMASO
 70
     1
  9
$DIMSHO
 70
     1
  9
$DIMPOST
  1

  9
$DIMAPOST
  1

  9
$DIMALT
 70
     0
  9
$DIMALTD
 70
     2
  9
$DIMALTF
 40
25.4
  9
$DIMLFAC
 40
1.0
  9
$DIMTOFL
 70
     0
  9
$DIMTVP
 40
0.0
  9
$DIMTIX
 70
     0
  9
$DIMSOXD
 70
     0
  9
$DIMSAH
 70
     0
  9
$DIMBLK1
  1

  9
$DIMBLK2
  1

  9
$DIMSTYLE
  2
Standard
  9
$DIMCLRD
 70
     0
  9
$DIMCLRE
 70
     0
  9
$DIMCLRT
 70
     0
  9
$DIMTFAC
 40
1.0
  9
$DIMGAP
 40
0.09
  9
$DIMJUST
 70
     0
  9
$DIMSD1
 70
     0
  9
$DIMSD2
 70
     0
  9
$DIMTOLJ
 70
     1
  9
$DIMTZIN
 70
     0
  9
$DIMALTZ
 70
     0
  9
$DIMALTTZ
 70
     0
  9
$DIMUPT
 70
     0
  9
$DIMDEC
 70
     4
  9
$DIMTDEC
 70
     4
  9
$DIMALTU
 70
     2
  9
$DIMALTTD
 70
     2
  9
$DIMTXSTY
  7
Standard
  9
$DIMAUNIT
 70
     0
  9
$DIMADEC
 70
     0
  9
$DIMALTRND
 40
0.0
  9
$DIMAZIN
 70
     0
  9
$DIMDSEP
 70
    46
  9
$DIMATFIT
 70
     3
  9
$DIMFRAC
 70
     0
  9
$DIMLDRBLK
  1

  9
$DIMLUNIT
 70
     2
  9
$DIMLWD
 70
    -2
  9
$DIMLWE
 70
    -2
  9
$DIMTMOVE
 70
     0
  9
$DIMFXL
 40
1.0
  9
$DIMFXLON
 70
     0
  9
$DIMJOGANG
 40
0.7853981633974483
  9
$DIMTFILL
 70
     0
  9
$DIMTFILLCLR
 70
     0
  9
$DIMARCSYM
 70
     0
  9
$DIMLTYPE
  6

  9
$DIMLTEX1
  6

  9
$DIMLTEX2
  6

  9
$LUNITS
 70
     2
  9
$LUPREC
 70
     4
  9
$SKETCHINC
 40
0.1
  9
$FILLETRAD
 40
0.5
  9
$AUNITS
 70
     0
  9
$AUPREC
 70
     0
  9
$MENU
  1
.
  9
$ELEVATION
 40
0.0
  9
$PELEVATION
 40
0.0
  9
$THICKNESS
 40
0.0
  9
$LIMCHECK
 70
     0
  9
$CHAMFERA
 40
0.5
  9
$CHAMFERB
 40
0.5
  9
$CHAMFERC
 40
1.0
  9
$CHAMFERD
 40
0.0
  9
$SKPOLY
 70
     0
  9
$TDCREATE
 40
2456615.402456817
  9
$TDUCREATE
 40
2456615.36079015
  9
$TDUPDATE
 40
2456615.402456829
  9
$TDUUPDATE
 40
2456615.360790162
  9
$TDINDWG
 40
0.0000000116
  9
$TDUSRTIMER
 40
0.0000000116
  9
$USRTIMER
 70
     1
  9
$ANGBASE
 50
0.0
  9
$ANGDIR
 70
     0
  9
$PDMODE
 70
     0
  9
$PDSIZE
 40
0.0
  9
$PLINEWID
 40
0.0
  9
$SPLFRAME
 70
     0
  9
$SPLINETYPE
 70
     6
  9
$SPLINESEGS
 70
     8
  9
$HANDSEED
  5
14F
  9
$SURFTAB1
 70
     6
  9
$SURFTAB2
 70
     6
  9
$SURFTYPE
 70
     6
  9
$SURFU
 70
     6
  9
$SURFV
 70
     6
  9
$UCSBASE
  2

  9
$UCSNAME
  2

  9
$UCSORG
 10
0.0
 20
0.0
 30
0.0
  9
$UCSXDIR
 10
1.0
 20
0.0
 30
0.0
  9
$UCSYDIR
 10
0.0
 20
1.0
 30
0.0
  9
$UCSORTHOREF
  2

  9
$UCSORTHOVIEW
 70
     0
  9
$UCSORGTOP
 10
0.0
 20
0.0
 30
0.0
  9
$UCSORGBOTTOM
 10
0.0
 20
0.0
 30
0.0
  9
$UCSORGLEFT
 10
0.0
 20
0.0
 30
0.0
  9
$UCSORGRIGHT
 10
0.0
 20
0.0
 30
0.0
  9
$UCSORGFRONT
 10
0.0
 20
0.0
 30
0.0
  9
$UCSORGBACK
 10
0.0
 20
0.0
 30
0.0
  9
$PUCSBASE
  2

  9
$PUCSNAME
  2

  9
$PUCSORG
 10
0.0
 20
0.0
 30
0.0
  9
$PUCSXDIR
 10
1.0
 20
0.0
 30
0.0
  9
$PUCSYDIR
 10
0.0
 20
1.0
 30
0.0
  9
$PUCSORTHOREF
  2

  9
$PUCSORTHOVIEW
 70
     0
  9
$PUCSORGTOP
 10
0.0
 20
0.0
 30
0.0
  9
$PUCSORGBOTTOM
 10
0.0
 20
0.0
 30
0.0
  9
$PUCSORGLEFT
 10
0.0
 20
0.0
 30
0.0
  9
$PUCSORGRIGHT
 10
0.0
 20
0.0
 30
0.0
  9
$PUCSORGFRONT
 10
0.0
 20
0.0
 30
0.0
  9
$PUCSORGBACK
 10
0.0
 20
0.0
 30
0.0
  9
$USERI1
 70
     0
  9
$USERI2
 70
     0
  9
$USERI3
 70
     0
  9
$USERI4
 70
     0
  9
$USERI5
 70
     0
  9
$USERR1
 40
0.0
  9
$USERR2
 40
0.0
  9
$USERR3
 40
0.0
  9
$USERR4
 40
0.0
  9
$USERR5
 40
0.0
  9
$WORLDVIEW
 70
     1
  9
$SHADEDGE
 70
     3
  9
$SHADEDIF
 70
    70
  9
$TILEMODE
 70
     1
  9
$MAXACTVP
 70
    64
  9
$PINSBASE
 10
0.0
 20
0.0
 30
0.0
  9
$PLIMCHECK
 70
     0
  9
$PEXTMIN
 10
1.000000000000000E+20
 20
1.000000000000000E+20
 30
1.000000000000000E+20
  9
$PEXTMAX
 10
-1.000000000000000E+20
 20
-1.000000000000000E+20
 30
-1.000000000000000E+20
  9
$PLIMMIN
 10
0.0
 20
0.0
  9
$PLIMMAX
 10
12.0
 20
9.0
  9
$UNITMODE
 70
     0
  9
$VISRETAIN
 70
     1
  9
$PLINEGEN
 70
     0
  9
$PSLTSCALE
 70
     1
  9
$TREEDEPTH
 70
  3020
  9
$CMLSTYLE
  2
Standard
  9
$CMLJUST
 70
     0
  9
$CMLSCALE
 40
1.0
  9
$PROXYGRAPHICS
 70
     1
  9
$MEASUREMENT
 70
     0
  9
$CELWEIGHT
370
    -1
  9
$ENDCAPS
280
     0
  9
$JOINSTYLE
280
     0
  9
$LWDISPLAY
290
     0
  9
$INSUNITS
 70
     5
  9
$HYPERLINKBASE
  1

  9
$STYLESHEET
  1

  9
$XEDIT
290
     1
  9
$CEPSNTYPE
380
     0
  9
$PSTYLEMODE
290
     1
  9
$FINGERPRINTGUID
  2
{AFC06F7B-9F2D-4213-BCB9-1D663DBFE9C2}
  9
$VERSIONGUID
  2
{FAEB1C32-E019-11D5-929B-00C0DF256EC4}
  9
$EXTNAMES
290
     1
  9
$PSVPSCALE
 40
0.0
  9
$OLESTARTUP
290
     0
  9
$SORTENTS
280
   127
  9
$INDEXCTL
280
     0
  9
$HIDETEXT
280
     1
  9
$XCLIPFRAME
290
     0
  9
$HALOGAP
280
     0
  9
$OBSCOLOR
 70
   257
  9
$OBSLTYPE
280
     0
  9
$INTERSECTIONDISPLAY
280
     0
  9
$INTERSECTIONCOLOR
 70
   257
  9
$DIMASSOC
280
     2
  9
$PROJECTNAME
  1

  9
$CAMERADISPLAY
290
     0
  9
$LENSLENGTH
 40
50.0
  9
$CAMERAHEIGHT
 40
0.0
  9
$STEPSPERSEC
 40
2.0
  9
$STEPSIZE
 40
6.0
  9
$3DDWFPREC
 40
2.0
  9
$PSOLWIDTH
 40
0.25
  9
$PSOLHEIGHT
 40
4.0
  9
$LOFTANG1
 40
1.570796326794897
  9
$LOFTANG2
 40
1.570796326794897
  9
$LOFTMAG1
 40
0.0
  9
$LOFTMAG2
 40
0.0
  9
$LOFTPARAM
 70
     7
  9
$LOFTNORMALS
280
     1
  9
$LATITUDE
 40
37.795
  9
$LONGITUDE
 40
-122.394
  9
$NORTHDIRECTION
 40
0.0
  9
$TIMEZONE
 70
 -8000
  9
$LIGHTGLYPHDISPLAY
280
     1
  9
$TILEMODELIGHTSYNCH
280
     1
  9
$SOLIDHIST
280
     1
  9
$SHOWHIST
280
     1
  9
$DWFFRAME
280
     2
  9
$DGNFRAME
280
     2
  9
$REALWORLDSCALE
290
     1
  9
$INTERFERECOLOR
 62
   256
  9
$CSHADOW
280
     0
  9
$SHADOWPLANELOCATION
 40
0.0
  0
ENDSEC
  0
SECTION
  2
CLASSES
  0
CLASS
  1
ACDBDICTIONARYWDFLT
  2
AcDbDictionaryWithDefault
  3
ObjectDBX Classes
 90
        0
 91
        4
280
     0
281
     0
  0
CLASS
  1
VISUALSTYLE
  2
AcDbVisualStyle
  3
ObjectDBX Classes
 90
     4095
 91
        4
280
     0
281
     0
  0
CLASS
  1
MATERIAL
  2
AcDbMaterial
  3
ObjectDBX Classes
 90
     1153
 91
        4
280
     0
281
     0
  0
ENDSEC
  0
SECTION
  2
TABLES
  0
TABLE
  2
VPORT
  5
8
330
0
100
AcDbSymbolTable
 70
     1
  0
VPORT
  5
29
330
8
100
AcDbSymbolTableRecord
100
AcDbViewportTableRecord
  2
*Active
 70
     0
 10
0.0
 20
0.0
 11
1.0
 21
1.0
 12
10.42990654205607
 22
4.5
 13
0.0
 23
0.0
 14
0.5
 24
0.5
 15
0.5
 25
0.5
 16
0.0
 26
0.0
 36
1.0
 17
0.0
 27
0.0
 37
0.0
 40
9.0
 41
1.972972972850329
 42
50.0
 43
0.0
 44
0.0
 50
0.0
 51
0.0
 71
     0
 72
   100
 73
     1
 74
     3
 75
     0
 76
     0
 77
     0
 78
     0
281
     0
 65
     1
110
0.0
120
0.0
130
0.0
111
1.0
121
0.0
131
0.0
112
0.0
122
1.0
132
0.0
 79
     0
146
0.0
 60
     3
 61
     5
292
     1
282
     1
141
0.0
142
0.0
 63
   250
  0
ENDTAB
  0
TABLE
  2
LTYPE
  5
5
330
0
100
AcDbSymbolTable
 70
     1
  0
LTYPE
  5
14
330
5
100
AcDbSymbolTableRecord
100
AcDbLinetypeTableRecord
  2
ByBlock
 70
     0
  3

 72
    65
 73
     0
 40
0.0
  0
LTYPE
  5
15
330
5
100
AcDbSymbolTableRecord
100
AcDbLinetypeTableRecord
  2
ByLayer
 70
     0
  3

 72
    65
 73
     0
 40
0.0
  0
LTYPE
  5
16
330
5
100
AcDbSymbolTableRecord
100
AcDbLinetypeTableRecord
  2
Continuous
 70
     0
  3
Solid line
 72
    65
 73
     0
 40
0.0
  0
ENDTAB
  0
TABLE
  2
LAYER
  5
2
330
0
100
AcDbSymbolTable
 70
     1
  0
LAYER
  5
10
330
2
100
AcDbSymbolTableRecord
100
AcDbLayerTableRecord
  2
0
 70
     0
 62
     7
  6
Continuous
370
    -3
390
F
347
3E
  0
ENDTAB
  0
TABLE
  2
STYLE
  5
3
330
0
100
AcDbSymbolTable
 70
     1
  0
STYLE
  5
11
330
3
100
AcDbSymbolTableRecord
100
AcDbTextStyleTableRecord
  2
Standard
 70
     0
 40
0.0
 41
1.0
 50
0.0
 71
     0
 42
0.2
  3
txt
  4

  0
ENDTAB
  0
TABLE
  2
VIEW
  5
6
330
0
100
AcDbSymbolTable
 70
     0
  0
ENDTAB
  0
TABLE
  2
UCS
  5
7
330
0
100
AcDbSymbolTable
 70
     0
  0
ENDTAB
  0
TABLE
  2
APPID
  5
9
330
0
100
AcDbSymbolTable
 70
     2
  0
APPID
  5
12
330
9
100
AcDbSymbolTableRecord
100
AcDbRegAppTableRecord
  2
ACAD
 70
     0
  0
APPID
  5
3F
330
9
100
AcDbSymbolTableRecord
100
AcDbRegAppTableRecord
  2
ODA
 70
     0
  0
ENDTAB
  0
TABLE
  2
DIMSTYLE
  5
A
330
0
100
AcDbSymbolTable
 70
     1
100
AcDbDimStyleTable
  0
DIMSTYLE
105
27
330
A
100
AcDbSymbolTableRecord
100
AcDbDimStyleTableRecord
  2
Standard
 70
     0
178
     0
340
11
  0
ENDTAB
  0
TABLE
  2
BLOCK_RECORD
  5
1
330
0
100
AcDbSymbolTable
 70
     1
  0
BLOCK_RECORD
  5
1F
330
1
100
AcDbSymbolTableRecord
100
AcDbBlockTableRecord
  2
*Model_Space
340
22
 70
     0
280
     1
281
     0
  0
BLOCK_RECORD
  5
1B
330
1
100
AcDbSymbolTableRecord
100
AcDbBlockTableRecord
  2
*Paper_Space
340
1E
 70
     0
280
     1
281
     0
  0
BLOCK_RECORD
  5
23
330
1
100
AcDbSymbolTableRecord
100
AcDbBlockTableRecord
  2
*Paper_Space0
340
26
 70
     0
280
     1
281
     0
  0
ENDTAB
  0
ENDSEC
  0
SECTION
  2
BLOCKS
  0
BLOCK
  5
20
330
1F
100
AcDbEntity
  8
0
100
AcDbBlockBegin
  2
*Model_Space
 70
     0
 10
0.0
 20
0.0
 30
0.0
  3
*Model_Space
  1

  0
ENDBLK
  5
21
330
1F
100
AcDbEntity
  8
0
100
AcDbBlockEnd
  0
BLOCK
  5
1C
330
1B
100
AcDbEntity
 67
     1
  8
0
100
AcDbBlockBegin
  2
*Paper_Space
 70
     0
 10
0.0
 20
0.0
 30
0.0
  3
*Paper_Space
  1

  0
ENDBLK
  5
1D
330
1B
100
AcDbEntity
 67
     1
  8
0
100
AcDbBlockEnd
  0
BLOCK
  5
24
330
23
100
AcDbEntity
  8
0
100
AcDbBlockBegin
  2
*Paper_Space0
 70
     0
 10
0.0
 20
0.0
 30
0.0
  3
*Paper_Space0
  1

  0
ENDBLK
  5
25
330
23
100
AcDbEntity
  8
0
100
AcDbBlockEnd
  0
ENDSEC
  0
SECTION
  2
ENTITIES
  0
SPLINE
  5
40
330
1F
100
AcDbEntity
  8
0
370
    15
100
AcDbSpline
210
0.0
220
0.0
230
1.0
 70
    24
 71
     3
 72
     8
 73
     4
 74
     0
 42
0.0000000001
 43
0.0000000001
 40
0.0
 40
0.0
 40
0.0
 40
0.0
 40
1.0
 40
1.0
 40
1.0
 40
1.0
 10
-13.43261
 20
10.70017
 30
0.0
 10
-13.43261
 20
10.70017
 30
0.0
 10
-12.09928
 20
10.70017
 30
0.0
 10
-12.09928
 20
10.70017
 30
0.0
  0
SPLINE
  5
41
330
1F
100
AcDbEntity
  8
0
370
    15
100
AcDbSpline
210
0.0
220
0.0
230
1.0
 70
    24
 71
     3
 72
     8
 73
     4
 74
     0
 42
0.0000000001
 43
0.0000000001
 40
0.0
 40
0.0
 40
0.0
 40
0.0
 40
1.0
 40
1.0
 40
1.0
 40
1.0
 10
-12.09928
 20
11.30017
 30
0.0
 10
-12.09928
 20
11.30017
 30
0.0
 10
-13.43261
 20
11.30017
 30
0.0
 10
-13.43261
 20
11.30017
 30
0.0
  0
SPLINE
  5
42
330
1F
100
AcDbEntity
  8
0
370
    15
100
AcDbSpline
210
0.0
220
0.0
230
1.0
 70
    24
 71
     3
 72
     8
 73
     4
 74
     0
 42
0.0000000001
 43
0.0000000001
 40
0.0
 40
0.0
 40
0.0
 40
0.0
 40
1.0
 40
1.0
 40
1.0
 40
1.0
 10
-6.43261
 20
11.30017
 30
0.0
 10
-6.43261
 20
11.30017
 30
0.0
 10
-12.09928
 20
11.30017
 30
0.0
 10
-12.09928
 20
11.30017
 30
0.0
  0
SPLINE
  5
43
330
1F
100
AcDbEntity
  8
0
370
    15
100
AcDbSpline
210
0.0
220
0.0
230
1.0
 70
    24
 71
     3
 72
     8
 73
     4
 74
     0
 42
0.0000000001
 43
0.0000000001
 40
0.0
 40
0.0
 40
0.0
 40
0.0
 40
1.0
 40
1.0
 40
1.0
 40
1.0
 10
-12.09928
 20
10.70017
 30
0.0
 10
-12.09928
 20
10.70017
 30
0.0
 10
-6.43261
 20
10.70017
 30
0.0
 10
-6.43261
 20
10.70017
 30
0.0
  0
SPLINE
  5
44
330
1F
100
AcDbEntity
  8
0
370
    15
100
AcDbSpline
210
0.0
220
0.0
230
1.0
 70
    24
 71
     3
 72
     8
 73
     4
 74
     0
 42
0.0000000001
 43
0.0000000001
 40
0.0
 40
0.0
 40
0.0
 40
0.0
 40
1.0
 40
1.0
 40
1.0
 40
1.0
 10
-6.43261
 20
10.70017
 30
0.0
 10
-6.43261
 20
10.70017
 30
0.0
 10
-5.09928
 20
10.70017
 30
0.0
 10
-5.09928
 20
10.70017
 30
0.0
  0
SPLINE
  5
45
330
1F
100
AcDbEntity
  8
0
370
    15
100
AcDbSpline
210
0.0
220
0.0
230
1.0
 70
    24
 71
     3
 72
     8
 73
     4
 74
     0
 42
0.0000000001
 43
0.0000000001
 40
0.0
 40
0.0
 40
0.0
 40
0.0
 40
1.0
 40
1.0
 40
1.0
 40
1.0
 10
-5.09928
 20
11.30017
 30
0.0
 10
-5.09928
 20
11.30017
 30
0.0
 10
-6.43261
 20
11.30017
 30
0.0
 10
-6.43261
 20
11.30017
 30
0.0
  0
SPLINE
  5
46
330
1F
100
AcDbEntity
  8
0
370
    15
100
AcDbSpline
210
0.0
220
0.0
230
1.0
 70
     8
 71
     3
 72
    16
 73
    12
 74
     0
 42
0.0000000001
 43
0.0000000001
 40
0.0
 40
0.0
 40
0.0
 40
0.0
 40
0.25
 40
0.25
 40
0.25
 40
0.25
 40
0.5
 40
0.5
 40
0.5
 40
0.5
 40
1.0
 40
1.0
 40
1.0
 40
1.0
 10
-13.43261
 20
11.30017
 30
0.0
 10
-13.53979
 20
11.30017
 30
0.0
 10
-13.63883
 20
11.24299
 30
0.0
 10
-13.69242
 20
11.15017
 30
0.0
 10
-13.69242
 20
11.15017
 30
0.0
 10
-13.74601
 20
11.05735
 30
0.0
 10
-13.74601
 20
10.94299
 30
0.0
 10
-13.69242
 20
10.85017
 30
0.0
 10
-13.69242
 20
10.85017
 30
0.0
 10
-13.63883
 20
10.75735
 30
0.0
 10
-13.53979
 20
10.70017
 30
0.0
 10
-13.43261
 20
10.70017
 30
0.0
  0
SPLINE
  5
47
330
1F
100
AcDbEntity
  8
0
370
    15
100
AcDbSpline
210
0.0
220
0.0
230
1.0
 70
     8
 71
     3
 72
    12
 73
     8
 74
     0
 42
0.0000000001
 43
0.0000000001
 40
0.0
 40
0.0
 40
0.0
 40
0.0
 40
0.3333333333333333
 40
0.3333333333333333
 40
0.3333333333333333
 40
0.3333333333333333
 40
1.0
 40
1.0
 40
1.0
 40
1.0
 10
-5.09928
 20
10.70017
 30
0.0
 10
-4.93359
 20
10.70017
 30
0.0
 10
-4.79928
 20
10.83448
 30
0.0
 10
-4.79928
 20
11.00017
 30
0.0
 10
-4.79928
 20
11.00017
 30
0.0
 10
-4.79928
 20
11.16585
 30
0.0
 10
-4.93359
 20
11.30017
 30
0.0
 10
-5.09927
 20
11.30017
 30
0.0
  0
SPLINE
  5
48
330
1F
100
AcDbEntity
  8
0
370
    15
100
AcDbSpline
210
0.0
220
0.0
230
1.0
 70
     8
 71
     3
 72
    12
 73
     8
 74
     0
 42
0.0000000001
 43
0.0000000001
 40
0.0
 40
0.0
 40
0.0
 40
0.0
 40
0.3333333333333333
 40
0.3333333333333333
 40
0.3333333333333333
 40
0.3333333333333333
 40
1.0
 40
1.0
 40
1.0
 40
1.0
 10
-6.14928
 20
10.60017
 30
0.0
 10
-6.14928
 20
10.55597
 30
0.0
 10
-6.13172
 20
10.51358
 30
0.0
 10
-6.10046
 20
10.48232
 30
0.0
 10
-6.10046
 20
10.48232
 30
0.0
 10
-6.0692
 20
10.45106
 30
0.0
 10
-6.02681
 20
10.4335
 30
0.0
 10
-5.98261
 20
10.4335
 30
0.0
  0
SPLINE
  5
49
330
1F
100
AcDbEntity
  8
0
370
    15
100
AcDbSpline
210
0.0
220
0.0
230
1.0
 70
    24
 71
     3
 72
     8
 73
     4
 74
     0
 42
0.0000000001
 43
0.0000000001
 40
0.0
 40
0.0
 40
0.0
 40
0.0
 40
1.0
 40
1.0
 40
1.0
 40
1.0
 10
-6.14928
 20
10.60017
 30
0.0
 10
-6.14928
 20
10.60017
 30
0.0
 10
-6.13261
 20
10.60017
 30
0.0
 10
-6.13261
 20
10.60017
 30
0.0
  0
SPLINE
  5
4A
330
1F
100
AcDbEntity
  8
0
370
    15
100
AcDbSpline
210
0.0
220
0.0
230
1.0
 70
     8
 71
     3
 72
    12
 73
     8
 74
     0
 42
0.0000000001
 43
0.0000000001
 40
0.0
 40
0.0
 40
0.0
 40
0.0
 40
0.3333333333333333
 40
0.3333333333333333
 40
0.3333333333333333
 40
0.3333333333333333
 40
1.0
 40
1.0
 40
1.0
 40
1.0
 10
-6.13261
 20
10.60017
 30
0.0
 10
-6.13261
 20
10.56039
 30
0.0
 10
-6.11681
 20
10.52223
 30
0.0
 10
-6.08868
 20
10.4941
 30
0.0
 10
-6.08868
 20
10.4941
 30
0.0
 10
-6.06055
 20
10.46597
 30
0.0
 10
-6.02239
 20
10.45017
 30
0.0
 10
-5.98261
 20
10.45017
 30
0.0
  0
SPLINE
  5
4B
330
1F
100
AcDbEntity
  8
0
370
    15
100
AcDbSpline
210
0.0
220
0.0
230
1.0
 70
    24
 71
     3
 72
     8
 73
     4
 74
     0
 42
0.0000000001
 43
0.0000000001
 40
0.0
 40
0.0
 40
0.0
 40
0.0
 40
1.0
 40
1.0
 40
1.0
 40
1.0
 10
-5.98261
 20
10.4335
 30
0.0
 10
-5.98261
 20
10.4335
 30
0.0
 10
-5.98261
 20
10.45017
 30
0.0
 10
-5.98261
 20
10.45017
 30
0.0
  0
SPLINE
  5
4C
330
1F
100
AcDbEntity
  8
0
370
    15
100
AcDbSpline
210
0.0
220
0.0
230
1.0
 70
    24
 71
     3
 72
     8
 73
     4
 74
     0
 42
0.0000000001
 43
0.0000000001
 40
0.0
 40
0.0
 40
0.0
 40
0.0
 40
1.0
 40
1.0
 40
1.0
 40
1.0
 10
-4.21594
 20
11.55017
 30
0.0
 10
-4.21594
 20
11.55017
 30
0.0
 10
-5.98261
 20
11.55017
 30
0.0
 10
-5.98261
 20
11.55017
 30
0.0
  0
SPLINE
  5
4D
330
1F
100
AcDbEntity
  8
0
370
    15
100
AcDbSpline
210
0.0
220
0.0
230
1.0
 70
    24
 71
     3
 72
     8
 73
     4
 74
     0
 42
0.0000000001
 43
0.0000000001
 40
0.0
 40
0.0
 40
0.0
 40
0.0
 40
1.0
 40
1.0
 40
1.0
 40
1.0
 10
-5.98261
 20
11.55017
 30
0.0
 10
-5.98261
 20
11.55017
 30
0.0
 10
-5.98261
 20
11.56684
 30
0.0
 10
-5.98261
 20
11.56684
 30
0.0
  0
SPLINE
  5
4E
330
1F
100
AcDbEntity
  8
0
370
    15
100
AcDbSpline
210
0.0
220
0.0
230
1.0
 70
    24
 71
     3
 72
     8
 73
     4
 74
     0
 42
0.0000000001
 43
0.0000000001
 40
0.0
 40
0.0
 40
0.0
 40
0.0
 40
1.0
 40
1.0
 40
1.0
 40
1.0
 10
-5.98261
 20
11.56684
 30
0.0
 10
-5.98261
 20
11.56684
 30
0.0
 10
-4.21594
 20
11.56684
 30
0.0
 10
-4.21594
 20
11.56684
 30
0.0
  0
SPLINE
  5
4F
330
1F
100
AcDbEntity
  8
0
370
    15
100
AcDbSpline
210
0.0
220
0.0
230
1.0
 70
    24
 71
     3
 72
     8
 73
     4
 74
     0
 42
0.0000000001
 43
0.0000000001
 40
0.0
 40
0.0
 40
0.0
 40
0.0
 40
1.0
 40
1.0
 40
1.0
 40
1.0
 10
-4.21594
 20
11.55017
 30
0.0
 10
-4.21594
 20
11.55017
 30
0.0
 10
-4.21594
 20
11.56684
 30
0.0
 10
-4.21594
 20
11.56684
 30
0.0
  0
SPLINE
  5
50
330
1F
100
AcDbEntity
  8
0
370
    15
100
AcDbSpline
210
0.0
220
0.0
230
1.0
 70
     8
 71
     3
 72
    12
 73
     8
 74
     0
 42
0.0000000001
 43
0.0000000001
 40
0.0
 40
0.0
 40
0.0
 40
0.0
 40
0.3333333333333333
 40
0.3333333333333333
 40
0.3333333333333333
 40
0.3333333333333333
 40
1.0
 40
1.0
 40
1.0
 40
1.0
 10
-4.06594
 20
11.40017
 30
0.0
 10
-4.06594
 20
11.43995
 30
0.0
 10
-4.08175
 20
11.47811
 30
0.0
 10
-4.10988
 20
11.50624
 30
0.0
 10
-4.10988
 20
11.50624
 30
0.0
 10
-4.13801
 20
11.53437
 30
0.0
 10
-4.17616
 20
11.55017
 30
0.0
 10
-4.21594
 20
11.55017
 30
0.0
  0
SPLINE
  5
51
330
1F
100
AcDbEntity
  8
0
370
    15
100
AcDbSpline
210
0.0
220
0.0
230
1.0
 70
     8
 71
     3
 72
    12
 73
     8
 74
     0
 42
0.0000000001
 43
0.0000000001
 40
0.0
 40
0.0
 40
0.0
 40
0.0
 40
0.3333333333333333
 40
0.3333333333333333
 40
0.3333333333333333
 40
0.3333333333333333
 40
1.0
 40
1.0
 40
1.0
 40
1.0
 10
-4.04928
 20
11.40017
 30
0.0
 10
-4.04928
 20
11.44437
 30
0.0
 10
-4.06684
 20
11.48677
 30
0.0
 10
-4.09809
 20
11.51802
 30
0.0
 10
-4.09809
 20
11.51802
 30
0.0
 10
-4.12935
 20
11.54928
 30
0.0
 10
-4.17174
 20
11.56684
 30
0.0
 10
-4.21594
 20
11.56684
 30
0.0
  0
SPLINE
  5
52
330
1F
100
AcDbEntity
  8
0
370
    15
100
AcDbSpline
210
0.0
220
0.0
230
1.0
 70
    24
 71
     3
 72
     8
 73
     4
 74
     0
 42
0.0000000001
 43
0.0000000001
 40
0.0
 40
0.0
 40
0.0
 40
0.0
 40
1.0
 40
1.0
 40
1.0
 40
1.0
 10
-4.06594
 20
11.40017
 30
0.0
 10
-4.06594
 20
11.40017
 30
0.0
 10
-4.04928
 20
11.40017
 30
0.0
 10
-4.04928
 20
11.40017
 30
0.0
  0
SPLINE
  5
53
330
1F
100
AcDbEntity
  8
0
370
    15
100
AcDbSpline
210
0.0
220
0.0
230
1.0
 70
     8
 71
     3
 72
    12
 73
     8
 74
     0
 42
0.0000000001
 43
0.0000000001
 40
0.0
 40
0.0
 40
0.0
 40
0.0
 40
0.3333333333333333
 40
0.3333333333333333
 40
0.3333333333333333
 40
0.3333333333333333
 40
1.0
 40
1.0
 40
1.0
 40
1.0
 10
-5.98261
 20
11.55017
 30
0.0
 10
-6.02239
 20
11.55017
 30
0.0
 10
-6.06055
 20
11.53437
 30
0.0
 10
-6.08868
 20
11.50624
 30
0.0
 10
-6.08868
 20
11.50624
 30
0.0
 10
-6.11681
 20
11.47811
 30
0.0
 10
-6.13261
 20
11.43995
 30
0.0
 10
-6.13261
 20
11.40017
 30
0.0
  0
SPLINE
  5
54
330
1F
100
AcDbEntity
  8
0
370
    15
100
AcDbSpline
210
0.0
220
0.0
230
1.0
 70
    24
 71
     3
 72
     8
 73
     4
 74
     0
 42
0.0000000001
 43
0.0000000001
 40
0.0
 40
0.0
 40
0.0
 40
0.0
 40
1.0
 40
1.0
 40
1.0
 40
1.0
 10
-6.14928
 20
11.40017
 30
0.0
 10
-6.14928
 20
11.40017
 30
0.0
 10
-6.13261
 20
11.40017
 30
0.0
 10
-6.13261
 20
11.40017
 30
0.0
  0
SPLINE
  5
55
330
1F
100
AcDbEntity
  8
0
370
    15
100
AcDbSpline
210
0.0
220
0.0
230
1.0
 70
     8
 71
     3
 72
    12
 73
     8
 74
     0
 42
0.0000000001
 43
0.0000000001
 40
0.0
 40
0.0
 40
0.0
 40
0.0
 40
0.3333333333333333
 40
0.3333333333333333
 40
0.3333333333333333
 40
0.3333333333333333
 40
1.0
 40
1.0
 40
1.0
 40
1.0
 10
-5.98261
 20
11.56684
 30
0.0
 10
-6.02681
 20
11.56684
 30
0.0
 10
-6.0692
 20
11.54928
 30
0.0
 10
-6.10046
 20
11.51802
 30
0.0
 10
-6.10046
 20
11.51802
 30
0.0
 10
-6.13172
 20
11.48677
 30
0.0
 10
-6.14928
 20
11.44437
 30
0.0
 10
-6.14928
 20
11.40017
 30
0.0
  0
SPLINE
  5
56
330
1F
100
AcDbEntity
  8
0
370
    15
100
AcDbSpline
210
0.0
220
0.0
230
1.0
 70
    24
 71
     3
 72
     8
 73
     4
 74
     0
 42
0.0000000001
 43
0.0000000001
 40
0.0
 40
0.0
 40
0.0
 40
0.0
 40
1.0
 40
1.0
 40
1.0
 40
1.0
 10
-4.06594
 20
10.60017
 30
0.0
 10
-4.06594
 20
10.60017
 30
0.0
 10
-4.06594
 20
11.40017
 30
0.0
 10
-4.06594
 20
11.40017
 30
0.0
  0
SPLINE
  5
57
330
1F
100
AcDbEntity
  8
0
370
    15
100
AcDbSpline
210
0.0
220
0.0
230
1.0
 70
    24
 71
     3
 72
     8
 73
     4
 74
     0
 42
0.0000000001
 43
0.0000000001
 40
0.0
 40
0.0
 40
0.0
 40
0.0
 40
1.0
 40
1.0
 40
1.0
 40
1.0
 10
-4.04928
 20
11.40017
 30
0.0
 10
-4.04928
 20
11.40017
 30
0.0
 10
-4.04928
 20
10.60017
 30
0.0
 10
-4.04928
 20
10.60017
 30
0.0
  0
SPLINE
  5
58
330
1F
100
AcDbEntity
  8
0
370
    15
100
AcDbSpline
210
0.0
220
0.0
230
1.0
 70
    24
 71
     3
 72
     8
 73
     4
 74
     0
 42
0.0000000001
 43
0.0000000001
 40
0.0
 40
0.0
 40
0.0
 40
0.0
 40
1.0
 40
1.0
 40
1.0
 40
1.0
 10
-4.06594
 20
10.60017
 30
0.0
 10
-4.06594
 20
10.60017
 30
0.0
 10
-4.04928
 20
10.60017
 30
0.0
 10
-4.04928
 20
10.60017
 30
0.0
  0
SPLINE
  5
59
330
1F
100
AcDbEntity
  8
0
370
    15
100
AcDbSpline
210
0.0
220
0.0
230
1.0
 70
    24
 71
     3
 72
     8
 73
     4
 74
     0
 42
0.0000000001
 43
0.0000000001
 40
0.0
 40
0.0
 40
0.0
 40
0.0
 40
1.0
 40
1.0
 40
1.0
 40
1.0
 10
-4.21594
 20
10.4335
 30
0.0
 10
-4.21594
 20
10.4335
 30
0.0
 10
-5.98261
 20
10.4335
 30
0.0
 10
-5.98261
 20
10.4335
 30
0.0
  0
SPLINE
  5
5A
330
1F
100
AcDbEntity
  8
0
370
    15
100
AcDbSpline
210
0.0
220
0.0
230
1.0
 70
    24
 71
     3
 72
     8
 73
     4
 74
     0
 42
0.0000000001
 43
0.0000000001
 40
0.0
 40
0.0
 40
0.0
 40
0.0
 40
1.0
 40
1.0
 40
1.0
 40
1.0
 10
-5.98261
 20
10.45017
 30
0.0
 10
-5.98261
 20
10.45017
 30
0.0
 10
-4.21594
 20
10.45017
 30
0.0
 10
-4.21594
 20
10.45017
 30
0.0
  0
SPLINE
  5
5B
330
1F
100
AcDbEntity
  8
0
370
    15
100
AcDbSpline
210
0.0
220
0.0
230
1.0
 70
    24
 71
     3
 72
     8
 73
     4
 74
     0
 42
0.0000000001
 43
0.0000000001
 40
0.0
 40
0.0
 40
0.0
 40
0.0
 40
1.0
 40
1.0
 40
1.0
 40
1.0
 10
-4.21594
 20
10.4335
 30
0.0
 10
-4.21594
 20
10.4335
 30
0.0
 10
-4.21594
 20
10.45017
 30
0.0
 10
-4.21594
 20
10.45017
 30
0.0
  0
SPLINE
  5
5C
330
1F
100
AcDbEntity
  8
0
370
    15
100
AcDbSpline
210
0.0
220
0.0
230
1.0
 70
     8
 71
     3
 72
     8
 73
     4
 74
     0
 42
0.0000000001
 43
0.0000000001
 40
0.0
 40
0.0
 40
0.0
 40
0.0
 40
1.0
 40
1.0
 40
1.0
 40
1.0
 10
-4.21594
 20
10.45017
 30
0.0
 10
-4.1331
 20
10.45017
 30
0.0
 10
-4.06594
 20
10.51733
 30
0.0
 10
-4.06594
 20
10.60017
 30
0.0
  0
SPLINE
  5
5D
330
1F
100
AcDbEntity
  8
0
370
    15
100
AcDbSpline
210
0.0
220
0.0
230
1.0
 70
     8
 71
     3
 72
     8
 73
     4
 74
     0
 42
0.0000000001
 43
0.0000000001
 40
0.0
 40
0.0
 40
0.0
 40
0.0
 40
1.0
 40
1.0
 40
1.0
 40
1.0
 10
-4.21594
 20
10.4335
 30
0.0
 10
-4.1239
 20
10.4335
 30
0.0
 10
-4.04928
 20
10.50812
 30
0.0
 10
-4.04928
 20
10.60017
 30
0.0
  0
SPLINE
  5
5E
330
1F
100
AcDbEntity
  8
0
370
    15
100
AcDbSpline
210
0.0
220
0.0
230
1.0
 70
    24
 71
     3
 72
     8
 73
     4
 74
     0
 42
0.0000000001
 43
0.0000000001
 40
0.0
 40
0.0
 40
0.0
 40
0.0
 40
1.0
 40
1.0
 40
1.0
 40
1.0
 10
-6.14928
 20
10.60017
 30
0.0
 10
-6.14928
 20
10.60017
 30
0.0
 10
-6.14928
 20
10.70017
 30
0.0
 10
-6.14928
 20
10.70017
 30
0.0
  0
SPLINE
  5
5F
330
1F
100
AcDbEntity
  8
0
370
    15
100
AcDbSpline
210
0.0
220
0.0
230
1.0
 70
    24
 71
     3
 72
     8
 73
     4
 74
     0
 42
0.0000000001
 43
0.0000000001
 40
0.0
 40
0.0
 40
0.0
 40
0.0
 40
1.0
 40
1.0
 40
1.0
 40
1.0
 10
-6.14928
 20
11.30017
 30
0.0
 10
-6.14928
 20
11.30017
 30
0.0
 10
-6.14928
 20
11.40017
 30
0.0
 10
-6.14928
 20
11.40017
 30
0.0
  0
SPLINE
  5
60
330
1F
100
AcDbEntity
  8
0
370
    15
100
AcDbSpline
210
0.0
220
0.0
230
1.0
 70
     8
 71
     3
 72
    12
 73
     8
 74
     0
 42
0.0000000001
 43
0.0000000001
 40
0.0
 40
0.0
 40
0.0
 40
0.0
 40
0.3333333333333333
 40
0.3333333333333333
 40
0.3333333333333333
 40
0.3333333333333333
 40
1.0
 40
1.0
 40
1.0
 40
1.0
 10
-4.79428
 20
11.00017
 30
0.0
 10
-4.79428
 20
11.09069
 30
0.0
 10
-4.83448
 20
11.17653
 30
0.0
 10
-4.90402
 20
11.23448
 30
0.0
 10
-4.90402
 20
11.23448
 30
0.0
 10
-4.97356
 20
11.29243
 30
0.0
 10
-5.06524
 20
11.31649
 30
0.0
 10
-5.15428
 20
11.30017
 30
0.0
  0
SPLINE
  5
61
330
1F
100
AcDbEntity
  8
0
370
    15
100
AcDbSpline
210
0.0
220
0.0
230
1.0
 70
     8
 71
     3
 72
    12
 73
     8
 74
     0
 42
0.0000000001
 43
0.0000000001
 40
0.0
 40
0.0
 40
0.0
 40
0.0
 40
0.3333333333333333
 40
0.3333333333333333
 40
0.3333333333333333
 40
0.3333333333333333
 40
1.0
 40
1.0
 40
1.0
 40
1.0
 10
-5.15428
 20
10.70017
 30
0.0
 10
-5.06524
 20
10.68385
 30
0.0
 10
-4.97356
 20
10.70791
 30
0.0
 10
-4.90402
 20
10.76586
 30
0.0
 10
-4.90402
 20
10.76586
 30
0.0
 10
-4.83448
 20
10.82381
 30
0.0
 10
-4.79428
 20
10.90965
 30
0.0
 10
-4.79428
 20
11.00017
 30
0.0
  0
SPLINE
  5
62
330
1F
100
AcDbEntity
  8
0
370
    15
100
AcDbSpline
210
0.0
220
0.0
230
1.0
 70
     8
 71
     3
 72
    12
 73
     8
 74
     0
 42
0.0000000001
 43
0.0000000001
 40
0.0
 40
0.0
 40
0.0
 40
0.0
 40
0.3333333333333333
 40
0.3333333333333333
 40
0.3333333333333333
 40
0.3333333333333333
 40
1.0
 40
1.0
 40
1.0
 40
1.0
 10
-12.39928
 20
11.40017
 30
0.0
 10
-12.39928
 20
11.43995
 30
0.0
 10
-12.41508
 20
11.47811
 30
0.0
 10
-12.44321
 20
11.50624
 30
0.0
 10
-12.44321
 20
11.50624
 30
0.0
 10
-12.47134
 20
11.53437
 30
0.0
 10
-12.50949
 20
11.55017
 30
0.0
 10
-12.54928
 20
11.55017
 30
0.0
  0
SPLINE
  5
63
330
1F
100
AcDbEntity
  8
0
370
    15
100
AcDbSpline
210
0.0
220
0.0
230
1.0
 70
    24
 71
     3
 72
     8
 73
     4
 74
     0
 42
0.0000000001
 43
0.0000000001
 40
0.0
 40
0.0
 40
0.0
 40
0.0
 40
1.0
 40
1.0
 40
1.0
 40
1.0
 10
-12.54928
 20
11.55017
 30
0.0
 10
-12.54928
 20
11.55017
 30
0.0
 10
-12.54928
 20
11.56684
 30
0.0
 10
-12.54928
 20
11.56684
 30
0.0
  0
SPLINE
  5
64
330
1F
100
AcDbEntity
  8
0
370
    15
100
AcDbSpline
210
0.0
220
0.0
230
1.0
 70
     8
 71
     3
 72
    12
 73
     8
 74
     0
 42
0.0000000001
 43
0.0000000001
 40
0.0
 40
0.0
 40
0.0
 40
0.0
 40
0.3333333333333333
 40
0.3333333333333333
 40
0.3333333333333333
 40
0.3333333333333333
 40
1.0
 40
1.0
 40
1.0
 40
1.0
 10
-12.38261
 20
11.40017
 30
0.0
 10
-12.38261
 20
11.44437
 30
0.0
 10
-12.40017
 20
11.48677
 30
0.0
 10
-12.43143
 20
11.51802
 30
0.0
 10
-12.43143
 20
11.51802
 30
0.0
 10
-12.46268
 20
11.54928
 30
0.0
 10
-12.50507
 20
11.56684
 30
0.0
 10
-12.54928
 20
11.56684
 30
0.0
  0
SPLINE
  5
65
330
1F
100
AcDbEntity
  8
0
370
    15
100
AcDbSpline
210
0.0
220
0.0
230
1.0
 70
    24
 71
     3
 72
     8
 73
     4
 74
     0
 42
0.0000000001
 43
0.0000000001
 40
0.0
 40
0.0
 40
0.0
 40
0.0
 40
1.0
 40
1.0
 40
1.0
 40
1.0
 10
-12.39928
 20
11.40017
 30
0.0
 10
-12.39928
 20
11.40017
 30
0.0
 10
-12.38261
 20
11.40017
 30
0.0
 10
-12.38261
 20
11.40017
 30
0.0
  0
SPLINE
  5
66
330
1F
100
AcDbEntity
  8
0
370
    15
100
AcDbSpline
210
0.0
220
0.0
230
1.0
 70
    24
 71
     3
 72
     8
 73
     4
 74
     0
 42
0.0000000001
 43
0.0000000001
 40
0.0
 40
0.0
 40
0.0
 40
0.0
 40
1.0
 40
1.0
 40
1.0
 40
1.0
 10
-12.54928
 20
10.4335
 30
0.0
 10
-12.54928
 20
10.4335
 30
0.0
 10
-14.31594
 20
10.4335
 30
0.0
 10
-14.31594
 20
10.4335
 30
0.0
  0
SPLINE
  5
67
330
1F
100
AcDbEntity
  8
0
370
    15
100
AcDbSpline
210
0.0
220
0.0
230
1.0
 70
    24
 71
     3
 72
     8
 73
     4
 74
     0
 42
0.0000000001
 43
0.0000000001
 40
0.0
 40
0.0
 40
0.0
 40
0.0
 40
1.0
 40
1.0
 40
1.0
 40
1.0
 10
-14.31594
 20
10.4335
 30
0.0
 10
-14.31594
 20
10.4335
 30
0.0
 10
-14.31594
 20
10.45017
 30
0.0
 10
-14.31594
 20
10.45017
 30
0.0
  0
SPLINE
  5
68
330
1F
100
AcDbEntity
  8
0
370
    15
100
AcDbSpline
210
0.0
220
0.0
230
1.0
 70
    24
 71
     3
 72
     8
 73
     4
 74
     0
 42
0.0000000001
 43
0.0000000001
 40
0.0
 40
0.0
 40
0.0
 40
0.0
 40
1.0
 40
1.0
 40
1.0
 40
1.0
 10
-14.31594
 20
10.45017
 30
0.0
 10
-14.31594
 20
10.45017
 30
0.0
 10
-12.54928
 20
10.45017
 30
0.0
 10
-12.54928
 20
10.45017
 30
0.0
  0
SPLINE
  5
69
330
1F
100
AcDbEntity
  8
0
370
    15
100
AcDbSpline
210
0.0
220
0.0
230
1.0
 70
    24
 71
     3
 72
     8
 73
     4
 74
     0
 42
0.0000000001
 43
0.0000000001
 40
0.0
 40
0.0
 40
0.0
 40
0.0
 40
1.0
 40
1.0
 40
1.0
 40
1.0
 10
-12.54928
 20
10.4335
 30
0.0
 10
-12.54928
 20
10.4335
 30
0.0
 10
-12.54928
 20
10.45017
 30
0.0
 10
-12.54928
 20
10.45017
 30
0.0
  0
SPLINE
  5
6A
330
1F
100
AcDbEntity
  8
0
370
    15
100
AcDbSpline
210
0.0
220
0.0
230
1.0
 70
     8
 71
     3
 72
     8
 73
     4
 74
     0
 42
0.0000000001
 43
0.0000000001
 40
0.0
 40
0.0
 40
0.0
 40
0.0
 40
1.0
 40
1.0
 40
1.0
 40
1.0
 10
-12.54928
 20
10.45017
 30
0.0
 10
-12.46643
 20
10.45017
 30
0.0
 10
-12.39928
 20
10.51733
 30
0.0
 10
-12.39928
 20
10.60017
 30
0.0
  0
SPLINE
  5
6B
330
1F
100
AcDbEntity
  8
0
370
    15
100
AcDbSpline
210
0.0
220
0.0
230
1.0
 70
    24
 71
     3
 72
     8
 73
     4
 74
     0
 42
0.0000000001
 43
0.0000000001
 40
0.0
 40
0.0
 40
0.0
 40
0.0
 40
1.0
 40
1.0
 40
1.0
 40
1.0
 10
-12.39928
 20
10.60017
 30
0.0
 10
-12.39928
 20
10.60017
 30
0.0
 10
-12.38261
 20
10.60017
 30
0.0
 10
-12.38261
 20
10.60017
 30
0.0
  0
SPLINE
  5
6C
330
1F
100
AcDbEntity
  8
0
370
    15
100
AcDbSpline
210
0.0
220
0.0
230
1.0
 70
     8
 71
     3
 72
     8
 73
     4
 74
     0
 42
0.0000000001
 43
0.0000000001
 40
0.0
 40
0.0
 40
0.0
 40
0.0
 40
1.0
 40
1.0
 40
1.0
 40
1.0
 10
-12.54928
 20
10.4335
 30
0.0
 10
-12.45723
 20
10.4335
 30
0.0
 10
-12.38261
 20
10.50812
 30
0.0
 10
-12.38261
 20
10.60017
 30
0.0
  0
SPLINE
  5
6D
330
1F
100
AcDbEntity
  8
0
370
    15
100
AcDbSpline
210
0.0
220
0.0
230
1.0
 70
     8
 71
     3
 72
    12
 73
     8
 74
     0
 42
0.0000000001
 43
0.0000000001
 40
0.0
 40
0.0
 40
0.0
 40
0.0
 40
0.3333333333333333
 40
0.3333333333333333
 40
0.3333333333333333
 40
0.3333333333333333
 40
1.0
 40
1.0
 40
1.0
 40
1.0
 10
-14.31594
 20
11.55017
 30
0.0
 10
-14.35573
 20
11.55017
 30
0.0
 10
-14.39388
 20
11.53437
 30
0.0
 10
-14.42201
 20
11.50624
 30
0.0
 10
-14.42201
 20
11.50624
 30
0.0
 10
-14.45014
 20
11.47811
 30
0.0
 10
-14.46594
 20
11.43995
 30
0.0
 10
-14.46594
 20
11.40017
 30
0.0
  0
SPLINE
  5
6E
330
1F
100
AcDbEntity
  8
0
370
    15
100
AcDbSpline
210
0.0
220
0.0
230
1.0
 70
    24
 71
     3
 72
     8
 73
     4
 74
     0
 42
0.0000000001
 43
0.0000000001
 40
0.0
 40
0.0
 40
0.0
 40
0.0
 40
1.0
 40
1.0
 40
1.0
 40
1.0
 10
-14.48261
 20
11.40017
 30
0.0
 10
-14.48261
 20
11.40017
 30
0.0
 10
-14.46594
 20
11.40017
 30
0.0
 10
-14.46594
 20
11.40017
 30
0.0
  0
SPLINE
  5
6F
330
1F
100
AcDbEntity
  8
0
370
    15
100
AcDbSpline
210
0.0
220
0.0
230
1.0
 70
     8
 71
     3
 72
    12
 73
     8
 74
     0
 42
0.0000000001
 43
0.0000000001
 40
0.0
 40
0.0
 40
0.0
 40
0.0
 40
0.3333333333333333
 40
0.3333333333333333
 40
0.3333333333333333
 40
0.3333333333333333
 40
1.0
 40
1.0
 40
1.0
 40
1.0
 10
-14.31594
 20
11.56684
 30
0.0
 10
-14.36015
 20
11.56684
 30
0.0
 10
-14.40254
 20
11.54928
 30
0.0
 10
-14.43379
 20
11.51802
 30
0.0
 10
-14.43379
 20
11.51802
 30
0.0
 10
-14.46505
 20
11.48677
 30
0.0
 10
-14.48261
 20
11.44437
 30
0.0
 10
-14.48261
 20
11.40017
 30
0.0
  0
SPLINE
  5
70
330
1F
100
AcDbEntity
  8
0
370
    15
100
AcDbSpline
210
0.0
220
0.0
230
1.0
 70
    24
 71
     3
 72
     8
 73
     4
 74
     0
 42
0.0000000001
 43
0.0000000001
 40
0.0
 40
0.0
 40
0.0
 40
0.0
 40
1.0
 40
1.0
 40
1.0
 40
1.0
 10
-14.31594
 20
11.55017
 30
0.0
 10
-14.31594
 20
11.55017
 30
0.0
 10
-14.31594
 20
11.56684
 30
0.0
 10
-14.31594
 20
11.56684
 30
0.0
  0
SPLINE
  5
71
330
1F
100
AcDbEntity
  8
0
370
    15
100
AcDbSpline
210
0.0
220
0.0
230
1.0
 70
     8
 71
     3
 72
    12
 73
     8
 74
     0
 42
0.0000000001
 43
0.0000000001
 40
0.0
 40
0.0
 40
0.0
 40
0.0
 40
0.3333333333333333
 40
0.3333333333333333
 40
0.3333333333333333
 40
0.3333333333333333
 40
1.0
 40
1.0
 40
1.0
 40
1.0
 10
-14.48261
 20
10.60017
 30
0.0
 10
-14.48261
 20
10.55597
 30
0.0
 10
-14.46505
 20
10.51358
 30
0.0
 10
-14.43379
 20
10.48232
 30
0.0
 10
-14.43379
 20
10.48232
 30
0.0
 10
-14.40254
 20
10.45106
 30
0.0
 10
-14.36015
 20
10.4335
 30
0.0
 10
-14.31594
 20
10.4335
 30
0.0
  0
SPLINE
  5
72
330
1F
100
AcDbEntity
  8
0
370
    15
100
AcDbSpline
210
0.0
220
0.0
230
1.0
 70
    24
 71
     3
 72
     8
 73
     4
 74
     0
 42
0.0000000001
 43
0.0000000001
 40
0.0
 40
0.0
 40
0.0
 40
0.0
 40
1.0
 40
1.0
 40
1.0
 40
1.0
 10
-14.48261
 20
10.60017
 30
0.0
 10
-14.48261
 20
10.60017
 30
0.0
 10
-14.46594
 20
10.60017
 30
0.0
 10
-14.46594
 20
10.60017
 30
0.0
  0
SPLINE
  5
73
330
1F
100
AcDbEntity
  8
0
370
    15
100
AcDbSpline
210
0.0
220
0.0
230
1.0
 70
     8
 71
     3
 72
    12
 73
     8
 74
     0
 42
0.0000000001
 43
0.0000000001
 40
0.0
 40
0.0
 40
0.0
 40
0.0
 40
0.3333333333333333
 40
0.3333333333333333
 40
0.3333333333333333
 40
0.3333333333333333
 40
1.0
 40
1.0
 40
1.0
 40
1.0
 10
-14.46594
 20
10.60017
 30
0.0
 10
-14.46594
 20
10.56039
 30
0.0
 10
-14.45014
 20
10.52223
 30
0.0
 10
-14.42201
 20
10.4941
 30
0.0
 10
-14.42201
 20
10.4941
 30
0.0
 10
-14.39388
 20
10.46597
 30
0.0
 10
-14.35573
 20
10.45017
 30
0.0
 10
-14.31594
 20
10.45017
 30
0.0
  0
SPLINE
  5
74
330
1F
100
AcDbEntity
  8
0
370
    15
100
AcDbSpline
210
0.0
220
0.0
230
1.0
 70
    24
 71
     3
 72
     8
 73
     4
 74
     0
 42
0.0000000001
 43
0.0000000001
 40
0.0
 40
0.0
 40
0.0
 40
0.0
 40
1.0
 40
1.0
 40
1.0
 40
1.0
 10
-14.48261
 20
10.60017
 30
0.0
 10
-14.48261
 20
10.60017
 30
0.0
 10
-14.48261
 20
11.40017
 30
0.0
 10
-14.48261
 20
11.40017
 30
0.0
  0
SPLINE
  5
75
330
1F
100
AcDbEntity
  8
0
370
    15
100
AcDbSpline
210
0.0
220
0.0
230
1.0
 70
    24
 71
     3
 72
     8
 73
     4
 74
     0
 42
0.0000000001
 43
0.0000000001
 40
0.0
 40
0.0
 40
0.0
 40
0.0
 40
1.0
 40
1.0
 40
1.0
 40
1.0
 10
-14.46594
 20
11.40017
 30
0.0
 10
-14.46594
 20
11.40017
 30
0.0
 10
-14.46594
 20
10.60017
 30
0.0
 10
-14.46594
 20
10.60017
 30
0.0
  0
SPLINE
  5
76
330
1F
100
AcDbEntity
  8
0
370
    15
100
AcDbSpline
210
0.0
220
0.0
230
1.0
 70
    24
 71
     3
 72
     8
 73
     4
 74
     0
 42
0.0000000001
 43
0.0000000001
 40
0.0
 40
0.0
 40
0.0
 40
0.0
 40
1.0
 40
1.0
 40
1.0
 40
1.0
 10
-12.54928
 20
11.55017
 30
0.0
 10
-12.54928
 20
11.55017
 30
0.0
 10
-14.31594
 20
11.55017
 30
0.0
 10
-14.31594
 20
11.55017
 30
0.0
  0
SPLINE
  5
77
330
1F
100
AcDbEntity
  8
0
370
    15
100
AcDbSpline
210
0.0
220
0.0
230
1.0
 70
     8
 71
     3
 72
    16
 73
    12
 74
     0
 42
0.0000000001
 43
0.0000000001
 40
0.0
 40
0.0
 40
0.0
 40
0.0
 40
0.25
 40
0.25
 40
0.25
 40
0.25
 40
0.5
 40
0.5
 40
0.5
 40
0.5
 40
1.0
 40
1.0
 40
1.0
 40
1.0
 10
-13.37761
 20
11.30017
 30
0.0
 10
-13.49785
 20
11.32222
 30
0.0
 10
-13.61965
 20
11.27033
 30
0.0
 10
-13.68705
 20
11.16835
 30
0.0
 10
-13.68705
 20
11.16835
 30
0.0
 10
-13.75446
 20
11.06636
 30
0.0
 10
-13.75446
 20
10.93398
 30
0.0
 10
-13.68705
 20
10.83199
 30
0.0
 10
-13.68705
 20
10.83199
 30
0.0
 10
-13.61965
 20
10.73001
 30
0.0
 10
-13.49785
 20
10.67813
 30
0.0
 10
-13.37761
 20
10.70017
 30
0.0
  0
SPLINE
  5
78
330
1F
100
AcDbEntity
  8
0
370
    15
100
AcDbSpline
210
0.0
220
0.0
230
1.0
 70
    24
 71
     3
 72
     8
 73
     4
 74
     0
 42
0.0000000001
 43
0.0000000001
 40
0.0
 40
0.0
 40
0.0
 40
0.0
 40
1.0
 40
1.0
 40
1.0
 40
1.0
 10
-14.31594
 20
11.56684
 30
0.0
 10
-14.31594
 20
11.56684
 30
0.0
 10
-12.54928
 20
11.56684
 30
0.0
 10
-12.54928
 20
11.56684
 30
0.0
  0
SPLINE
  5
79
330
1F
100
AcDbEntity
  8
0
370
    15
100
AcDbSpline
210
0.0
220
0.0
230
1.0
 70
    24
 71
     3
 72
     8
 73
     4
 74
     0
 42
0.0000000001
 43
0.0000000001
 40
0.0
 40
0.0
 40
0.0
 40
0.0
 40
1.0
 40
1.0
 40
1.0
 40
1.0
 10
-12.38261
 20
11.40017
 30
0.0
 10
-12.38261
 20
11.40017
 30
0.0
 10
-12.38261
 20
11.30017
 30
0.0
 10
-12.38261
 20
11.30017
 30
0.0
  0
SPLINE
  5
7A
330
1F
100
AcDbEntity
  8
0
370
    15
100
AcDbSpline
210
0.0
220
0.0
230
1.0
 70
    24
 71
     3
 72
     8
 73
     4
 74
     0
 42
0.0000000001
 43
0.0000000001
 40
0.0
 40
0.0
 40
0.0
 40
0.0
 40
1.0
 40
1.0
 40
1.0
 40
1.0
 10
-12.38261
 20
10.70017
 30
0.0
 10
-12.38261
 20
10.70017
 30
0.0
 10
-12.38261
 20
10.60017
 30
0.0
 10
-12.38261
 20
10.60017
 30
0.0
  0
SPLINE
  5
7B
330
1F
100
AcDbEntity
  8
0
370
    15
100
AcDbSpline
210
0.0
220
0.0
230
1.0
 70
     8
 71
     3
 72
    12
 73
     8
 74
     0
 42
0.0000000001
 43
0.0000000001
 40
0.0
 40
0.0
 40
0.0
 40
0.0
 40
0.3333333333333333
 40
0.3333333333333333
 40
0.3333333333333333
 40
0.3333333333333333
 40
1.0
 40
1.0
 40
1.0
 40
1.0
 10
-4.79594
 20
11.00017
 30
0.0
 10
-4.79594
 20
11.08845
 30
0.0
 10
-4.8344
 20
11.17235
 30
0.0
 10
-4.90128
 20
11.22997
 30
0.0
 10
-4.90128
 20
11.22997
 30
0.0
 10
-4.96815
 20
11.28759
 30
0.0
 10
-5.05681
 20
11.31322
 30
0.0
 10
-5.14412
 20
11.30017
 30
0.0
  0
SPLINE
  5
7C
330
1F
100
AcDbEntity
  8
0
370
    15
100
AcDbSpline
210
0.0
220
0.0
230
1.0
 70
     8
 71
     3
 72
    12
 73
     8
 74
     0
 42
0.0000000001
 43
0.0000000001
 40
0.0
 40
0.0
 40
0.0
 40
0.0
 40
0.3333333333333333
 40
0.3333333333333333
 40
0.3333333333333333
 40
0.3333333333333333
 40
1.0
 40
1.0
 40
1.0
 40
1.0
 10
-5.14412
 20
10.70017
 30
0.0
 10
-5.05681
 20
10.68712
 30
0.0
 10
-4.96815
 20
10.71275
 30
0.0
 10
-4.90128
 20
10.77037
 30
0.0
 10
-4.90128
 20
10.77037
 30
0.0
 10
-4.8344
 20
10.82799
 30
0.0
 10
-4.79594
 20
10.91189
 30
0.0
 10
-4.79594
 20
11.00017
 30
0.0
  0
SPLINE
  5
7D
330
1F
100
AcDbEntity
  8
0
370
    15
100
AcDbSpline
210
0.0
220
0.0
230
1.0
 70
     8
 71
     3
 72
    16
 73
    12
 74
     0
 42
0.0000000001
 43
0.0000000001
 40
0.0
 40
0.0
 40
0.0
 40
0.0
 40
0.25
 40
0.25
 40
0.25
 40
0.25
 40
0.5
 40
0.5
 40
0.5
 40
0.5
 40
1.0
 40
1.0
 40
1.0
 40
1.0
 10
-13.38776
 20
11.30017
 30
0.0
 10
-13.50562
 20
11.31779
 30
0.0
 10
-13.62287
 20
11.26477
 30
0.0
 10
-13.68748
 20
11.16464
 30
0.0
 10
-13.68748
 20
11.16464
 30
0.0
 10
-13.7521
 20
11.06451
 30
0.0
 10
-13.7521
 20
10.93583
 30
0.0
 10
-13.68748
 20
10.8357
 30
0.0
 10
-13.68748
 20
10.8357
 30
0.0
 10
-13.62287
 20
10.73557
 30
0.0
 10
-13.50562
 20
10.68255
 30
0.0
 10
-13.38776
 20
10.70017
 30
0.0
  0
SPLINE
  5
7E
330
1F
100
AcDbEntity
  8
0
 62
     8
370
    15
100
AcDbSpline
210
0.0
220
0.0
230
1.0
 70
    24
 71
     3
 72
     8
 73
     4
 74
     0
 42
0.0000000001
 43
0.0000000001
 40
0.0
 40
0.0
 40
0.0
 40
0.0
 40
1.0
 40
1.0
 40
1.0
 40
1.0
 10
-12.09928
 20
11.30017
 30
0.0
 10
-12.09928
 20
11.30017
 30
0.0
 10
-12.09928
 20
10.70017
 30
0.0
 10
-12.09928
 20
10.70017
 30
0.0
  0
SPLINE
  5
7F
330
1F
100
AcDbEntity
  8
0
 62
     8
370
    15
100
AcDbSpline
210
0.0
220
0.0
230
1.0
 70
    24
 71
     3
 72
     8
 73
     4
 74
     0
 42
0.0000000001
 43
0.0000000001
 40
0.0
 40
0.0
 40
0.0
 40
0.0
 40
1.0
 40
1.0
 40
1.0
 40
1.0
 10
-6.43261
 20
11.30017
 30
0.0
 10
-6.43261
 20
11.30017
 30
0.0
 10
-6.43261
 20
10.70017
 30
0.0
 10
-6.43261
 20
10.70017
 30
0.0
  0
SPLINE
  5
80
330
1F
100
AcDbEntity
  8
0
 62
     8
370
    15
100
AcDbSpline
210
0.0
220
0.0
230
1.0
 70
    24
 71
     3
 72
     8
 73
     4
 74
     0
 42
0.0000000001
 43
0.0000000001
 40
0.0
 40
0.0
 40
0.0
 40
0.0
 40
1.0
 40
1.0
 40
1.0
 40
1.0
 10
-6.13261
 20
11.40017
 30
0.0
 10
-6.13261
 20
11.40017
 30
0.0
 10
-6.13261
 20
11.30017
 30
0.0
 10
-6.13261
 20
11.30017
 30
0.0
  0
SPLINE
  5
81
330
1F
100
AcDbEntity
  8
0
 62
     8
370
    15
100
AcDbSpline
210
0.0
220
0.0
230
1.0
 70
    24
 71
     3
 72
     8
 73
     4
 74
     0
 42
0.0000000001
 43
0.0000000001
 40
0.0
 40
0.0
 40
0.0
 40
0.0
 40
1.0
 40
1.0
 40
1.0
 40
1.0
 10
-6.13261
 20
10.70017
 30
0.0
 10
-6.13261
 20
10.70017
 30
0.0
 10
-6.13261
 20
10.60017
 30
0.0
 10
-6.13261
 20
10.60017
 30
0.0
  0
SPLINE
  5
82
330
1F
100
AcDbEntity
  8
0
 62
     8
370
    15
100
AcDbSpline
210
0.0
220
0.0
230
1.0
 70
    24
 71
     3
 72
     8
 73
     4
 74
     0
 42
0.0000000001
 43
0.0000000001
 40
0.0
 40
0.0
 40
0.0
 40
0.0
 40
1.0
 40
1.0
 40
1.0
 40
1.0
 10
-12.39928
 20
10.60017
 30
0.0
 10
-12.39928
 20
10.60017
 30
0.0
 10
-12.39928
 20
10.70017
 30
0.0
 10
-12.39928
 20
10.70017
 30
0.0
  0
SPLINE
  5
83
330
1F
100
AcDbEntity
  8
0
 62
     8
370
    15
100
AcDbSpline
210
0.0
220
0.0
230
1.0
 70
    24
 71
     3
 72
     8
 73
     4
 74
     0
 42
0.0000000001
 43
0.0000000001
 40
0.0
 40
0.0
 40
0.0
 40
0.0
 40
1.0
 40
1.0
 40
1.0
 40
1.0
 10
-12.39928
 20
11.30017
 30
0.0
 10
-12.39928
 20
11.30017
 30
0.0
 10
-12.39928
 20
11.40017
 30
0.0
 10
-12.39928
 20
11.40017
 30
0.0
  0
SPLINE
  5
84
330
1F
100
AcDbEntity
  8
0
100
AcDbSpline
210
0.0
220
0.0
230
1.0
 70
    27
 71
     3
 72
    12
 73
     8
 74
     0
 42
0.0000000001
 43
0.0000000001
 40
0.0
 40
0.0
 40
0.0
 40
0.0
 40
0.3333333333333333
 40
0.3333333333333333
 40
0.3333333333333333
 40
0.3333333333333333
 40
1.0
 40
1.0
 40
1.0
 40
1.0
 10
-14.46594
 20
12.81084
 30
0.0
 10
-14.46594
 20
12.81084
 30
0.0
 10
-14.13574
 20
12.86164
 30
0.0
 10
-14.13574
 20
12.86164
 30
0.0
 10
-14.13574
 20
12.86164
 30
0.0
 10
-14.13574
 20
12.86164
 30
0.0
 10
-14.46594
 20
12.81084
 30
0.0
 10
-14.46594
 20
12.81084
 30
0.0
  0
SPLINE
  5
85
330
1F
100
AcDbEntity
  8
0
100
AcDbSpline
210
0.0
220
0.0
230
1.0
 70
     8
 71
     3
 72
    12
 73
     8
 74
     0
 42
0.0000000001
 43
0.0000000001
 40
0.0
 40
0.0
 40
0.0
 40
0.0
 40
0.3333333333333333
 40
0.3333333333333333
 40
0.3333333333333333
 40
0.3333333333333333
 40
1.0
 40
1.0
 40
1.0
 40
1.0
 10
-14.13574
 20
12.86164
 30
0.0
 10
-14.13574
 20
12.86164
 30
0.0
 10
-14.13574
 20
12.76004
 30
0.0
 10
-14.13574
 20
12.76004
 30
0.0
 10
-14.13574
 20
12.76004
 30
0.0
 10
-14.13574
 20
12.76004
 30
0.0
 10
-14.46594
 20
12.81084
 30
0.0
 10
-14.46594
 20
12.81084
 30
0.0
  0
SPLINE
  5
86
330
1F
100
AcDbEntity
  8
0
370
     9
100
AcDbSpline
210
0.0
220
0.0
230
1.0
 70
    24
 71
     3
 72
     8
 73
     4
 74
     0
 42
0.0000000001
 43
0.0000000001
 40
0.0
 40
0.0
 40
0.0
 40
0.0
 40
1.0
 40
1.0
 40
1.0
 40
1.0
 10
-14.46594
 20
12.81084
 30
0.0
 10
-14.46594
 20
12.81084
 30
0.0
 10
-14.13574
 20
12.86164
 30
0.0
 10
-14.13574
 20
12.86164
 30
0.0
  0
SPLINE
  5
87
330
1F
100
AcDbEntity
  8
0
370
     9
100
AcDbSpline
210
0.0
220
0.0
230
1.0
 70
     8
 71
     3
 72
    12
 73
     8
 74
     0
 42
0.0000000001
 43
0.0000000001
 40
0.0
 40
0.0
 40
0.0
 40
0.0
 40
0.3333333333333333
 40
0.3333333333333333
 40
0.3333333333333333
 40
0.3333333333333333
 40
1.0
 40
1.0
 40
1.0
 40
1.0
 10
-14.13574
 20
12.86164
 30
0.0
 10
-14.13574
 20
12.86164
 30
0.0
 10
-14.13574
 20
12.76004
 30
0.0
 10
-14.13574
 20
12.76004
 30
0.0
 10
-14.13574
 20
12.76004
 30
0.0
 10
-14.13574
 20
12.76004
 30
0.0
 10
-14.46594
 20
12.81084
 30
0.0
 10
-14.46594
 20
12.81084
 30
0.0
  0
SPLINE
  5
88
330
1F
100
AcDbEntity
  8
0
100
AcDbSpline
210
0.0
220
0.0
230
1.0
 70
    27
 71
     3
 72
    12
 73
     8
 74
     0
 42
0.0000000001
 43
0.0000000001
 40
0.0
 40
0.0
 40
0.0
 40
0.0
 40
0.3333333333333333
 40
0.3333333333333333
 40
0.3333333333333333
 40
0.3333333333333333
 40
1.0
 40
1.0
 40
1.0
 40
1.0
 10
-4.06594
 20
12.81084
 30
0.0
 10
-4.06594
 20
12.81084
 30
0.0
 10
-4.39614
 20
12.76004
 30
0.0
 10
-4.39614
 20
12.76004
 30
0.0
 10
-4.39614
 20
12.76004
 30
0.0
 10
-4.39614
 20
12.76004
 30
0.0
 10
-4.06594
 20
12.81084
 30
0.0
 10
-4.06594
 20
12.81084
 30
0.0
  0
SPLINE
  5
89
330
1F
100
AcDbEntity
  8
0
100
AcDbSpline
210
0.0
220
0.0
230
1.0
 70
     8
 71
     3
 72
    12
 73
     8
 74
     0
 42
0.0000000001
 43
0.0000000001
 40
0.0
 40
0.0
 40
0.0
 40
0.0
 40
0.3333333333333333
 40
0.3333333333333333
 40
0.3333333333333333
 40
0.3333333333333333
 40
1.0
 40
1.0
 40
1.0
 40
1.0
 10
-4.39614
 20
12.76004
 30
0.0
 10
-4.39614
 20
12.76004
 30
0.0
 10
-4.39614
 20
12.86164
 30
0.0
 10
-4.39614
 20
12.86164
 30
0.0
 10
-4.39614
 20
12.86164
 30
0.0
 10
-4.39614
 20
12.86164
 30
0.0
 10
-4.06594
 20
12.81084
 30
0.0
 10
-4.06594
 20
12.81084
 30
0.0
  0
SPLINE
  5
8A
330
1F
100
AcDbEntity
  8
0
370
     9
100
AcDbSpline
210
0.0
220
0.0
230
1.0
 70
    24
 71
     3
 72
     8
 73
     4
 74
     0
 42
0.0000000001
 43
0.0000000001
 40
0.0
 40
0.0
 40
0.0
 40
0.0
 40
1.0
 40
1.0
 40
1.0
 40
1.0
 10
-4.06594
 20
12.81084
 30
0.0
 10
-4.06594
 20
12.81084
 30
0.0
 10
-4.39614
 20
12.76004
 30
0.0
 10
-4.39614
 20
12.76004
 30
0.0
  0
SPLINE
  5
8B
330
1F
100
AcDbEntity
  8
0
370
     9
100
AcDbSpline
210
0.0
220
0.0
230
1.0
 70
     8
 71
     3
 72
    12
 73
     8
 74
     0
 42
0.0000000001
 43
0.0000000001
 40
0.0
 40
0.0
 40
0.0
 40
0.0
 40
0.3333333333333333
 40
0.3333333333333333
 40
0.3333333333333333
 40
0.3333333333333333
 40
1.0
 40
1.0
 40
1.0
 40
1.0
 10
-4.39614
 20
12.76004
 30
0.0
 10
-4.39614
 20
12.76004
 30
0.0
 10
-4.39614
 20
12.86164
 30
0.0
 10
-4.39614
 20
12.86164
 30
0.0
 10
-4.39614
 20
12.86164
 30
0.0
 10
-4.39614
 20
12.86164
 30
0.0
 10
-4.06594
 20
12.81084
 30
0.0
 10
-4.06594
 20
12.81084
 30
0.0
  0
SPLINE
  5
8C
330
1F
100
AcDbEntity
  8
0
370
     9
100
AcDbSpline
210
0.0
220
0.0
230
1.0
 70
    24
 71
     3
 72
     8
 73
     4
 74
     0
 42
0.0000000001
 43
0.0000000001
 40
0.0
 40
0.0
 40
0.0
 40
0.0
 40
1.0
 40
1.0
 40
1.0
 40
1.0
 10
-14.46594
 20
11.50017
 30
0.0
 10
-14.46594
 20
11.50017
 30
0.0
 10
-14.46594
 20
12.91084
 30
0.0
 10
-14.46594
 20
12.91084
 30
0.0
  0
SPLINE
  5
8D
330
1F
100
AcDbEntity
  8
0
370
     9
100
AcDbSpline
210
0.0
220
0.0
230
1.0
 70
    24
 71
     3
 72
     8
 73
     4
 74
     0
 42
0.0000000001
 43
0.0000000001
 40
0.0
 40
0.0
 40
0.0
 40
0.0
 40
1.0
 40
1.0
 40
1.0
 40
1.0
 10
-4.06594
 20
11.50017
 30
0.0
 10
-4.06594
 20
11.50017
 30
0.0
 10
-4.06594
 20
12.91084
 30
0.0
 10
-4.06594
 20
12.91084
 30
0.0
  0
SPLINE
  5
8E
330
1F
100
AcDbEntity
  8
0
370
     9
100
AcDbSpline
210
0.0
220
0.0
230
1.0
 70
    24
 71
     3
 72
     8
 73
     4
 74
     0
 42
0.0000000001
 43
0.0000000001
 40
0.0
 40
0.0
 40
0.0
 40
0.0
 40
1.0
 40
1.0
 40
1.0
 40
1.0
 10
-14.46594
 20
12.81084
 30
0.0
 10
-14.46594
 20
12.81084
 30
0.0
 10
-4.06594
 20
12.81084
 30
0.0
 10
-4.06594
 20
12.81084
 30
0.0
  0
SPLINE
  5
8F
330
1F
100
AcDbEntity
  8
0
100
AcDbSpline
210
0.0
220
0.0
230
1.0
 70
    11
 71
     3
 72
   124
 73
   120
 74
     0
 42
0.0000000001
 43
0.0000000001
 40
0.0
 40
0.0
 40
0.0
 40
0.0
 40
0.032258064516129
 40
0.032258064516129
 40
0.032258064516129
 40
0.032258064516129
 40
0.0645161290322581
 40
0.0645161290322581
 40
0.0645161290322581
 40
0.0645161290322581
 40
0.0967741935483871
 40
0.0967741935483871
 40
0.0967741935483871
 40
0.0967741935483871
 40
0.1290322580645161
 40
0.1290322580645161
 40
0.1290322580645161
 40
0.1290322580645161
 40
0.1612903225806452
 40
0.1612903225806452
 40
0.1612903225806452
 40
0.1612903225806452
 40
0.1935483870967742
 40
0.1935483870967742
 40
0.1935483870967742
 40
0.1935483870967742
 40
0.2258064516129032
 40
0.2258064516129032
 40
0.2258064516129032
 40
0.2258064516129032
 40
0.2580645161290323
 40
0.2580645161290323
 40
0.2580645161290323
 40
0.2580645161290323
 40
0.2903225806451613
 40
0.2903225806451613
 40
0.2903225806451613
 40
0.2903225806451613
 40
0.3225806451612903
 40
0.3225806451612903
 40
0.3225806451612903
 40
0.3225806451612903
 40
0.3548387096774194
 40
0.3548387096774194
 40
0.3548387096774194
 40
0.3548387096774194
 40
0.3870967741935484
 40
0.3870967741935484
 40
0.3870967741935484
 40
0.3870967741935484
 40
0.4193548387096774
 40
0.4193548387096774
 40
0.4193548387096774
 40
0.4193548387096774
 40
0.4516129032258064
 40
0.4516129032258064
 40
0.4516129032258064
 40
0.4516129032258064
 40
0.4838709677419355
 40
0.4838709677419355
 40
0.4838709677419355
 40
0.4838709677419355
 40
0.5161290322580645
 40
0.5161290322580645
 40
0.5161290322580645
 40
0.5161290322580645
 40
0.5483870967741935
 40
0.5483870967741935
 40
0.5483870967741935
 40
0.5483870967741935
 40
0.5806451612903226
 40
0.5806451612903226
 40
0.5806451612903226
 40
0.5806451612903226
 40
0.6129032258064516
 40
0.6129032258064516
 40
0.6129032258064516
 40
0.6129032258064516
 40
0.6451612903225806
 40
0.6451612903225806
 40
0.6451612903225806
 40
0.6451612903225806
 40
0.6774193548387096
 40
0.6774193548387096
 40
0.6774193548387096
 40
0.6774193548387096
 40
0.7096774193548387
 40
0.7096774193548387
 40
0.7096774193548387
 40
0.7096774193548387
 40
0.7419354838709677
 40
0.7419354838709677
 40
0.7419354838709677
 40
0.7419354838709677
 40
0.7741935483870968
 40
0.7741935483870968
 40
0.7741935483870968
 40
0.7741935483870968
 40
0.8064516129032258
 40
0.8064516129032258
 40
0.8064516129032258
 40
0.8064516129032258
 40
0.8387096774193549
 40
0.8387096774193549
 40
0.8387096774193549
 40
0.8387096774193549
 40
0.8709677419354839
 40
0.8709677419354839
 40
0.8709677419354839
 40
0.8709677419354839
 40
0.9032258064516129
 40
0.9032258064516129
 40
0.9032258064516129
 40
0.9032258064516129
 40
0.9354838709677419
 40
0.9354838709677419
 40
0.9354838709677419
 40
0.9354838709677419
 40
1.0
 40
1.0
 40
1.0
 40
1.0
 10
-9.50268
 20
13.01129
 30
0.0
 10
-9.50268
 20
13.01129
 30
0.0
 10
-9.47194
 20
13.01537
 30
0.0
 10
-9.47194
 20
13.01537
 30
0.0
 10
-9.47194
 20
13.01537
 30
0.0
 10
-9.46838
 20
12.99793
 30
0.0
 10
-9.46237
 20
12.98539
 30
0.0
 10
-9.45391
 20
12.97769
 30
0.0
 10
-9.45391
 20
12.97769
 30
0.0
 10
-9.4454
 20
12.96999
 30
0.0
 10
-9.43507
 20
12.96614
 30
0.0
 10
-9.42288
 20
12.96614
 30
0.0
 10
-9.42288
 20
12.96614
 30
0.0
 10
-9.40841
 20
12.96614
 30
0.0
 10
-9.39616
 20
12.97116
 30
0.0
 10
-9.38619
 20
12.98119
 30
0.0
 10
-9.38619
 20
12.98119
 30
0.0
 10
-9.37627
 20
12.99122
 30
0.0
 10
-9.37126
 20
13.00365
 30
0.0
 10
-9.37126
 20
13.01846
 30
0.0
 10
-9.37126
 20
13.01846
 30
0.0
 10
-9.37126
 20
13.03258
 30
0.0
 10
-9.37586
 20
13.04425
 30
0.0
 10
-9.38508
 20
13.05341
 30
0.0
 10
-9.38508
 20
13.05341
 30
0.0
 10
-9.39436
 20
13.06256
 30
0.0
 10
-9.40608
 20
13.06717
 30
0.0
 10
-9.42031
 20
13.06717
 30
0.0
 10
-9.42031
 20
13.06717
 30
0.0
 10
-9.42615
 20
13.06717
 30
0.0
 10
-9.43338
 20
13.06601
 30
0.0
 10
-9.44201
 20
13.06373
 30
0.0
 10
-9.44201
 20
13.06373
 30
0.0
 10
-9.44201
 20
13.06373
 30
0.0
 10
-9.43857
 20
13.09074
 30
0.0
 10
-9.43857
 20
13.09074
 30
0.0
 10
-9.43857
 20
13.09074
 30
0.0
 10
-9.43653
 20
13.09051
 30
0.0
 10
-9.4349
 20
13.09039
 30
0.0
 10
-9.43361
 20
13.09039
 30
0.0
 10
-9.43361
 20
13.09039
 30
0.0
 10
-9.42055
 20
13.09039
 30
0.0
 10
-9.40876
 20
13.09383
 30
0.0
 10
-9.39826
 20
13.10066
 30
0.0
 10
-9.39826
 20
13.10066
 30
0.0
 10
-9.38776
 20
13.10748
 30
0.0
 10
-9.38251
 20
13.11804
 30
0.0
 10
-9.38251
 20
13.13227
 30
0.0
 10
-9.38251
 20
13.13227
 30
0.0
 10
-9.38251
 20
13.14353
 30
0.0
 10
-9.38636
 20
13.15292
 30
0.0
 10
-9.39401
 20
13.16027
 30
0.0
 10
-9.39401
 20
13.16027
 30
0.0
 10
-9.40165
 20
13.16768
 30
0.0
 10
-9.41151
 20
13.17141
 30
0.0
 10
-9.42358
 20
13.17141
 30
0.0
 10
-9.42358
 20
13.17141
 30
0.0
 10
-9.43554
 20
13.17141
 30
0.0
 10
-9.44551
 20
13.16762
 30
0.0
 10
-9.45345
 20
13.16016
 30
0.0
 10
-9.45345
 20
13.16016
 30
0.0
 10
-9.46144
 20
13.15263
 30
0.0
 10
-9.46657
 20
13.14131
 30
0.0
 10
-9.46885
 20
13.12626
 30
0.0
 10
-9.46885
 20
13.12626
 30
0.0
 10
-9.46885
 20
13.12626
 30
0.0
 10
-9.49959
 20
13.13175
 30
0.0
 10
-9.49959
 20
13.13175
 30
0.0
 10
-9.49959
 20
13.13175
 30
0.0
 10
-9.49586
 20
13.1524
 30
0.0
 10
-9.48728
 20
13.16838
 30
0.0
 10
-9.47398
 20
13.1797
 30
0.0
 10
-9.47398
 20
13.1797
 30
0.0
 10
-9.46062
 20
13.19101
 30
0.0
 10
-9.44406
 20
13.19673
 30
0.0
 10
-9.42422
 20
13.19673
 30
0.0
 10
-9.42422
 20
13.19673
 30
0.0
 10
-9.41057
 20
13.19673
 30
0.0
 10
-9.39797
 20
13.19376
 30
0.0
 10
-9.38648
 20
13.18792
 30
0.0
 10
-9.38648
 20
13.18792
 30
0.0
 10
-9.37499
 20
13.18203
 30
0.0
 10
-9.36618
 20
13.17404
 30
0.0
 10
-9.36006
 20
13.16389
 30
0.0
 10
-9.36006
 20
13.16389
 30
0.0
 10
-9.35399
 20
13.15374
 30
0.0
 10
-9.3509
 20
13.14301
 30
0.0
 10
-9.3509
 20
13.13157
 30
0.0
 10
-9.3509
 20
13.13157
 30
0.0
 10
-9.3509
 20
13.12078
 30
0.0
 10
-9.35381
 20
13.11092
 30
0.0
 10
-9.35965
 20
13.102
 30
0.0
 10
-9.35965
 20
13.102
 30
0.0
 10
-9.36548
 20
13.09313
 30
0.0
 10
-9.37406
 20
13.08607
 30
0.0
 10
-9.38543
 20
13.08082
 30
0.0
 10
-9.38543
 20
13.08082
 30
0.0
 10
-9.37061
 20
13.07744
 30
0.0
 10
-9.35912
 20
13.07032
 30
0.0
 10
-9.3509
 20
13.05953
 30
0.0
 10
-9.3509
 20
13.05953
 30
0.0
 10
-9.34273
 20
13.0488
 30
0.0
 10
-9.33865
 20
13.03532
 30
0.0
 10
-9.33865
 20
13.01916
 30
0.0
 10
-9.33865
 20
13.01916
 30
0.0
 10
-9.33865
 20
12.99729
 30
0.0
 10
-9.34658
 20
12.97874
 30
0.0
 10
-9.36256
 20
12.96351
 30
0.0
 10
-9.36256
 20
12.96351
 30
0.0
 10
-9.37849
 20
12.94829
 30
0.0
 10
-9.39867
 20
12.94071
 30
0.0
 10
-9.42306
 20
12.94071
 30
0.0
 10
-9.42306
 20
12.94071
 30
0.0
 10
-9.44505
 20
12.94071
 30
0.0
 10
-9.46331
 20
12.94724
 30
0.0
 10
-9.47783
 20
12.96036
 30
0.0
 10
-9.47783
 20
12.96036
 30
0.0
 10
-9.49236
 20
12.97343
 30
0.0
 10
-9.50064
 20
12.99041
 30
0.0
 10
-9.50268
 20
13.01129
 30
0.0
  0
SPLINE
  5
90
330
1F
100
AcDbEntity
  8
0
100
AcDbSpline
210
0.0
220
0.0
230
1.0
 70
    11
 71
     3
 72
    40
 73
    36
 74
     0
 42
0.0000000001
 43
0.0000000001
 40
0.0
 40
0.0
 40
0.0
 40
0.0
 40
0.1
 40
0.1
 40
0.1
 40
0.1
 40
0.2
 40
0.2
 40
0.2
 40
0.2
 40
0.3
 40
0.3
 40
0.3
 40
0.3
 40
0.4
 40
0.4
 40
0.4
 40
0.4
 40
0.5
 40
0.5
 40
0.5
 40
0.5
 40
0.6
 40
0.6
 40
0.6
 40
0.6
 40
0.7
 40
0.7
 40
0.7
 40
0.7
 40
0.8
 40
0.8
 40
0.8
 40
0.8
 40
1.0
 40
1.0
 40
1.0
 40
1.0
 10
-9.19235
 20
12.94514
 30
0.0
 10
-9.19235
 20
12.94514
 30
0.0
 10
-9.22309
 20
12.94514
 30
0.0
 10
-9.22309
 20
12.94514
 30
0.0
 10
-9.22309
 20
12.94514
 30
0.0
 10
-9.22309
 20
12.94514
 30
0.0
 10
-9.22309
 20
13.14114
 30
0.0
 10
-9.22309
 20
13.14114
 30
0.0
 10
-9.22309
 20
13.14114
 30
0.0
 10
-9.2305
 20
13.13408
 30
0.0
 10
-9.24018
 20
13.12702
 30
0.0
 10
-9.2522
 20
13.11996
 30
0.0
 10
-9.2522
 20
13.11996
 30
0.0
 10
-9.26427
 20
13.11291
 30
0.0
 10
-9.27506
 20
13.1076
 30
0.0
 10
-9.28463
 20
13.1041
 30
0.0
 10
-9.28463
 20
13.1041
 30
0.0
 10
-9.28463
 20
13.1041
 30
0.0
 10
-9.28463
 20
13.13379
 30
0.0
 10
-9.28463
 20
13.13379
 30
0.0
 10
-9.28463
 20
13.13379
 30
0.0
 10
-9.26742
 20
13.1419
 30
0.0
 10
-9.25237
 20
13.1517
 30
0.0
 10
-9.23948
 20
13.16319
 30
0.0
 10
-9.23948
 20
13.16319
 30
0.0
 10
-9.22665
 20
13.17474
 30
0.0
 10
-9.21749
 20
13.18588
 30
0.0
 10
-9.21212
 20
13.19673
 30
0.0
 10
-9.21212
 20
13.19673
 30
0.0
 10
-9.21212
 20
13.19673
 30
0.0
 10
-9.19235
 20
13.19673
 30
0.0
 10
-9.19235
 20
13.19673
 30
0.0
 10
-9.19235
 20
13.19673
 30
0.0
 10
-9.19235
 20
13.19673
 30
0.0
 10
-9.19235
 20
12.94514
 30
0.0
 10
-9.19235
 20
12.94514
 30
0.0
  0
SPLINE
  5
91
330
1F
100
AcDbEntity
  8
0
100
AcDbSpline
210
0.0
220
0.0
230
1.0
 70
    11
 71
     3
 72
    92
 73
    88
 74
     0
 42
0.0000000001
 43
0.0000000001
 40
0.0
 40
0.0
 40
0.0
 40
0.0
 40
0.0434782608695652
 40
0.0434782608695652
 40
0.0434782608695652
 40
0.0434782608695652
 40
0.0869565217391304
 40
0.0869565217391304
 40
0.0869565217391304
 40
0.0869565217391304
 40
0.1304347826086956
 40
0.1304347826086956
 40
0.1304347826086956
 40
0.1304347826086956
 40
0.1739130434782609
 40
0.1739130434782609
 40
0.1739130434782609
 40
0.1739130434782609
 40
0.2173913043478261
 40
0.2173913043478261
 40
0.2173913043478261
 40
0.2173913043478261
 40
0.2608695652173913
 40
0.2608695652173913
 40
0.2608695652173913
 40
0.2608695652173913
 40
0.3043478260869565
 40
0.3043478260869565
 40
0.3043478260869565
 40
0.3043478260869565
 40
0.3478260869565217
 40
0.3478260869565217
 40
0.3478260869565217
 40
0.3478260869565217
 40
0.391304347826087
 40
0.391304347826087
 40
0.391304347826087
 40
0.391304347826087
 40
0.4347826086956522
 40
0.4347826086956522
 40
0.4347826086956522
 40
0.4347826086956522
 40
0.4782608695652174
 40
0.4782608695652174
 40
0.4782608695652174
 40
0.4782608695652174
 40
0.5217391304347826
 40
0.5217391304347826
 40
0.5217391304347826
 40
0.5217391304347826
 40
0.5652173913043478
 40
0.5652173913043478
 40
0.5652173913043478
 40
0.5652173913043478
 40
0.6086956521739131
 40
0.6086956521739131
 40
0.6086956521739131
 40
0.6086956521739131
 40
0.6521739130434783
 40
0.6521739130434783
 40
0.6521739130434783
 40
0.6521739130434783
 40
0.6956521739130435
 40
0.6956521739130435
 40
0.6956521739130435
 40
0.6956521739130435
 40
0.7391304347826086
 40
0.7391304347826086
 40
0.7391304347826086
 40
0.7391304347826086
 40
0.782608695652174
 40
0.782608695652174
 40
0.782608695652174
 40
0.782608695652174
 40
0.8260869565217391
 40
0.8260869565217391
 40
0.8260869565217391
 40
0.8260869565217391
 40
0.8695652173913043
 40
0.8695652173913043
 40
0.8695652173913043
 40
0.8695652173913043
 40
0.9130434782608695
 40
0.9130434782608695
 40
0.9130434782608695
 40
0.9130434782608695
 40
1.0
 40
1.0
 40
1.0
 40
1.0
 10
-8.95184
 20
12.97471
 30
0.0
 10
-8.95184
 20
12.97471
 30
0.0
 10
-8.95184
 20
12.94514
 30
0.0
 10
-8.95184
 20
12.94514
 30
0.0
 10
-8.95184
 20
12.94514
 30
0.0
 10
-8.95184
 20
12.94514
 30
0.0
 10
-9.11744
 20
12.94514
 30
0.0
 10
-9.11744
 20
12.94514
 30
0.0
 10
-9.11744
 20
12.94514
 30
0.0
 10
-9.11768
 20
12.95255
 30
0.0
 10
-9.11651
 20
12.95966
 30
0.0
 10
-9.11389
 20
12.96649
 30
0.0
 10
-9.11389
 20
12.96649
 30
0.0
 10
-9.10969
 20
12.97781
 30
0.0
 10
-9.10292
 20
12.98889
 30
0.0
 10
-9.09364
 20
12.99986
 30
0.0
 10
-9.09364
 20
12.99986
 30
0.0
 10
-9.08431
 20
13.01076
 30
0.0
 10
-9.07089
 20
13.02342
 30
0.0
 10
-9.05339
 20
13.03777
 30
0.0
 10
-9.05339
 20
13.03777
 30
0.0
 10
-9.02615
 20
13.06011
 30
0.0
 10
-9.00772
 20
13.07779
 30
0.0
 10
-8.99815
 20
13.09086
 30
0.0
 10
-8.99815
 20
13.09086
 30
0.0
 10
-8.98859
 20
13.10386
 30
0.0
 10
-8.9838
 20
13.11623
 30
0.0
 10
-8.9838
 20
13.12784
 30
0.0
 10
-8.9838
 20
13.12784
 30
0.0
 10
-8.9838
 20
13.14003
 30
0.0
 10
-8.98818
 20
13.1503
 30
0.0
 10
-8.99687
 20
13.1587
 30
0.0
 10
-8.99687
 20
13.1587
 30
0.0
 10
-9.00562
 20
13.16704
 30
0.0
 10
-9.01699
 20
13.17124
 30
0.0
 10
-9.03099
 20
13.17124
 30
0.0
 10
-9.03099
 20
13.17124
 30
0.0
 10
-9.04581
 20
13.17124
 30
0.0
 10
-9.05765
 20
13.16681
 30
0.0
 10
-9.06652
 20
13.15788
 30
0.0
 10
-9.06652
 20
13.15788
 30
0.0
 10
-9.07544
 20
13.14901
 30
0.0
 10
-9.07994
 20
13.13671
 30
0.0
 10
-9.08005
 20
13.12101
 30
0.0
 10
-9.08005
 20
13.12101
 30
0.0
 10
-9.08005
 20
13.12101
 30
0.0
 10
-9.11167
 20
13.12422
 30
0.0
 10
-9.11167
 20
13.12422
 30
0.0
 10
-9.11167
 20
13.12422
 30
0.0
 10
-9.10951
 20
13.14785
 30
0.0
 10
-9.10134
 20
13.16581
 30
0.0
 10
-9.08723
 20
13.17818
 30
0.0
 10
-9.08723
 20
13.17818
 30
0.0
 10
-9.07311
 20
13.19055
 30
0.0
 10
-9.05409
 20
13.19673
 30
0.0
 10
-9.03029
 20
13.19673
 30
0.0
 10
-9.03029
 20
13.19673
 30
0.0
 10
-9.00626
 20
13.19673
 30
0.0
 10
-8.98724
 20
13.19002
 30
0.0
 10
-8.97324
 20
13.17672
 30
0.0
 10
-8.97324
 20
13.17672
 30
0.0
 10
-8.95919
 20
13.16336
 30
0.0
 10
-8.95219
 20
13.14686
 30
0.0
 10
-8.95219
 20
13.12714
 30
0.0
 10
-8.95219
 20
13.12714
 30
0.0
 10
-8.95219
 20
13.11711
 30
0.0
 10
-8.95423
 20
13.10725
 30
0.0
 10
-8.95837
 20
13.09756
 30
0.0
 10
-8.95837
 20
13.09756
 30
0.0
 10
-8.96245
 20
13.08788
 30
0.0
 10
-8.96928
 20
13.07767
 30
0.0
 10
-8.97879
 20
13.067
 30
0.0
 10
-8.97879
 20
13.067
 30
0.0
 10
-8.98829
 20
13.05626
 30
0.0
 10
-9.0041
 20
13.04156
 30
0.0
 10
-9.02621
 20
13.0229
 30
0.0
 10
-9.02621
 20
13.0229
 30
0.0
 10
-9.04464
 20
13.00738
 30
0.0
 10
-9.05649
 20
12.99688
 30
0.0
 10
-9.06174
 20
12.99134
 30
0.0
 10
-9.06174
 20
12.99134
 30
0.0
 10
-9.06699
 20
12.98586
 30
0.0
 10
-9.0713
 20
12.98031
 30
0.0
 10
-9.07474
 20
12.97471
 30
0.0
 10
-9.07474
 20
12.97471
 30
0.0
 10
-9.07474
 20
12.97471
 30
0.0
 10
-8.95184
 20
12.97471
 30
0.0
 10
-8.95184
 20
12.97471
 30
0.0
  0
SPLINE
  5
92
330
1F
100
AcDbEntity
  8
0
100
AcDbSpline
210
0.0
220
0.0
230
1.0
 70
    27
 71
     3
 72
    12
 73
     8
 74
     0
 42
0.0000000001
 43
0.0000000001
 40
0.0
 40
0.0
 40
0.0
 40
0.0
 40
0.3333333333333333
 40
0.3333333333333333
 40
0.3333333333333333
 40
0.3333333333333333
 40
1.0
 40
1.0
 40
1.0
 40
1.0
 10
-13.43261
 20
8.55756
 30
0.0
 10
-13.43261
 20
8.55756
 30
0.0
 10
-13.10241
 20
8.60836
 30
0.0
 10
-13.10241
 20
8.60836
 30
0.0
 10
-13.10241
 20
8.60836
 30
0.0
 10
-13.10241
 20
8.60836
 30
0.0
 10
-13.43261
 20
8.55756
 30
0.0
 10
-13.43261
 20
8.55756
 30
0.0
  0
SPLINE
  5
93
330
1F
100
AcDbEntity
  8
0
100
AcDbSpline
210
0.0
220
0.0
230
1.0
 70
     8
 71
     3
 72
    12
 73
     8
 74
     0
 42
0.0000000001
 43
0.0000000001
 40
0.0
 40
0.0
 40
0.0
 40
0.0
 40
0.3333333333333333
 40
0.3333333333333333
 40
0.3333333333333333
 40
0.3333333333333333
 40
1.0
 40
1.0
 40
1.0
 40
1.0
 10
-13.10241
 20
8.60836
 30
0.0
 10
-13.10241
 20
8.60836
 30
0.0
 10
-13.10241
 20
8.50676
 30
0.0
 10
-13.10241
 20
8.50676
 30
0.0
 10
-13.10241
 20
8.50676
 30
0.0
 10
-13.10241
 20
8.50676
 30
0.0
 10
-13.43261
 20
8.55756
 30
0.0
 10
-13.43261
 20
8.55756
 30
0.0
  0
SPLINE
  5
94
330
1F
100
AcDbEntity
  8
0
370
     9
100
AcDbSpline
210
0.0
220
0.0
230
1.0
 70
    24
 71
     3
 72
     8
 73
     4
 74
     0
 42
0.0000000001
 43
0.0000000001
 40
0.0
 40
0.0
 40
0.0
 40
0.0
 40
1.0
 40
1.0
 40
1.0
 40
1.0
 10
-13.43261
 20
8.55756
 30
0.0
 10
-13.43261
 20
8.55756
 30
0.0
 10
-13.10241
 20
8.60836
 30
0.0
 10
-13.10241
 20
8.60836
 30
0.0
  0
SPLINE
  5
95
330
1F
100
AcDbEntity
  8
0
370
     9
100
AcDbSpline
210
0.0
220
0.0
230
1.0
 70
     8
 71
     3
 72
    12
 73
     8
 74
     0
 42
0.0000000001
 43
0.0000000001
 40
0.0
 40
0.0
 40
0.0
 40
0.0
 40
0.3333333333333333
 40
0.3333333333333333
 40
0.3333333333333333
 40
0.3333333333333333
 40
1.0
 40
1.0
 40
1.0
 40
1.0
 10
-13.10241
 20
8.60836
 30
0.0
 10
-13.10241
 20
8.60836
 30
0.0
 10
-13.10241
 20
8.50676
 30
0.0
 10
-13.10241
 20
8.50676
 30
0.0
 10
-13.10241
 20
8.50676
 30
0.0
 10
-13.10241
 20
8.50676
 30
0.0
 10
-13.43261
 20
8.55756
 30
0.0
 10
-13.43261
 20
8.55756
 30
0.0
  0
SPLINE
  5
96
330
1F
100
AcDbEntity
  8
0
100
AcDbSpline
210
0.0
220
0.0
230
1.0
 70
    27
 71
     3
 72
    12
 73
     8
 74
     0
 42
0.0000000001
 43
0.0000000001
 40
0.0
 40
0.0
 40
0.0
 40
0.0
 40
0.3333333333333333
 40
0.3333333333333333
 40
0.3333333333333333
 40
0.3333333333333333
 40
1.0
 40
1.0
 40
1.0
 40
1.0
 10
-5.09928
 20
8.55756
 30
0.0
 10
-5.09928
 20
8.55756
 30
0.0
 10
-5.42948
 20
8.50676
 30
0.0
 10
-5.42948
 20
8.50676
 30
0.0
 10
-5.42948
 20
8.50676
 30
0.0
 10
-5.42948
 20
8.50676
 30
0.0
 10
-5.09928
 20
8.55756
 30
0.0
 10
-5.09928
 20
8.55756
 30
0.0
  0
SPLINE
  5
97
330
1F
100
AcDbEntity
  8
0
100
AcDbSpline
210
0.0
220
0.0
230
1.0
 70
     8
 71
     3
 72
    12
 73
     8
 74
     0
 42
0.0000000001
 43
0.0000000001
 40
0.0
 40
0.0
 40
0.0
 40
0.0
 40
0.3333333333333333
 40
0.3333333333333333
 40
0.3333333333333333
 40
0.3333333333333333
 40
1.0
 40
1.0
 40
1.0
 40
1.0
 10
-5.42948
 20
8.50676
 30
0.0
 10
-5.42948
 20
8.50676
 30
0.0
 10
-5.42948
 20
8.60836
 30
0.0
 10
-5.42948
 20
8.60836
 30
0.0
 10
-5.42948
 20
8.60836
 30
0.0
 10
-5.42948
 20
8.60836
 30
0.0
 10
-5.09928
 20
8.55756
 30
0.0
 10
-5.09928
 20
8.55756
 30
0.0
  0
SPLINE
  5
98
330
1F
100
AcDbEntity
  8
0
370
     9
100
AcDbSpline
210
0.0
220
0.0
230
1.0
 70
    24
 71
     3
 72
     8
 73
     4
 74
     0
 42
0.0000000001
 43
0.0000000001
 40
0.0
 40
0.0
 40
0.0
 40
0.0
 40
1.0
 40
1.0
 40
1.0
 40
1.0
 10
-5.09928
 20
8.55756
 30
0.0
 10
-5.09928
 20
8.55756
 30
0.0
 10
-5.42948
 20
8.50676
 30
0.0
 10
-5.42948
 20
8.50676
 30
0.0
  0
SPLINE
  5
99
330
1F
100
AcDbEntity
  8
0
370
     9
100
AcDbSpline
210
0.0
220
0.0
230
1.0
 70
     8
 71
     3
 72
    12
 73
     8
 74
     0
 42
0.0000000001
 43
0.0000000001
 40
0.0
 40
0.0
 40
0.0
 40
0.0
 40
0.3333333333333333
 40
0.3333333333333333
 40
0.3333333333333333
 40
0.3333333333333333
 40
1.0
 40
1.0
 40
1.0
 40
1.0
 10
-5.42948
 20
8.50676
 30
0.0
 10
-5.42948
 20
8.50676
 30
0.0
 10
-5.42948
 20
8.60836
 30
0.0
 10
-5.42948
 20
8.60836
 30
0.0
 10
-5.42948
 20
8.60836
 30
0.0
 10
-5.42948
 20
8.60836
 30
0.0
 10
-5.09928
 20
8.55756
 30
0.0
 10
-5.09928
 20
8.55756
 30
0.0
  0
SPLINE
  5
9A
330
1F
100
AcDbEntity
  8
0
370
     9
100
AcDbSpline
210
0.0
220
0.0
230
1.0
 70
    24
 71
     3
 72
     8
 73
     4
 74
     0
 42
0.0000000001
 43
0.0000000001
 40
0.0
 40
0.0
 40
0.0
 40
0.0
 40
1.0
 40
1.0
 40
1.0
 40
1.0
 10
-13.43261
 20
10.90017
 30
0.0
 10
-13.43261
 20
10.90017
 30
0.0
 10
-13.43261
 20
8.45756
 30
0.0
 10
-13.43261
 20
8.45756
 30
0.0
  0
SPLINE
  5
9B
330
1F
100
AcDbEntity
  8
0
370
     9
100
AcDbSpline
210
0.0
220
0.0
230
1.0
 70
    24
 71
     3
 72
     8
 73
     4
 74
     0
 42
0.0000000001
 43
0.0000000001
 40
0.0
 40
0.0
 40
0.0
 40
0.0
 40
1.0
 40
1.0
 40
1.0
 40
1.0
 10
-5.09928
 20
10.90017
 30
0.0
 10
-5.09928
 20
10.90017
 30
0.0
 10
-5.09928
 20
8.45756
 30
0.0
 10
-5.09928
 20
8.45756
 30
0.0
  0
SPLINE
  5
9C
330
1F
100
AcDbEntity
  8
0
370
     9
100
AcDbSpline
210
0.0
220
0.0
230
1.0
 70
    24
 71
     3
 72
     8
 73
     4
 74
     0
 42
0.0000000001
 43
0.0000000001
 40
0.0
 40
0.0
 40
0.0
 40
0.0
 40
1.0
 40
1.0
 40
1.0
 40
1.0
 10
-13.43261
 20
8.55756
 30
0.0
 10
-13.43261
 20
8.55756
 30
0.0
 10
-5.09928
 20
8.55756
 30
0.0
 10
-5.09928
 20
8.55756
 30
0.0
  0
SPLINE
  5
9D
330
1F
100
AcDbEntity
  8
0
100
AcDbSpline
210
0.0
220
0.0
230
1.0
 70
    11
 71
     3
 72
    92
 73
    88
 74
     0
 42
0.0000000001
 43
0.0000000001
 40
0.0
 40
0.0
 40
0.0
 40
0.0
 40
0.0434782608695652
 40
0.0434782608695652
 40
0.0434782608695652
 40
0.0434782608695652
 40
0.0869565217391304
 40
0.0869565217391304
 40
0.0869565217391304
 40
0.0869565217391304
 40
0.1304347826086956
 40
0.1304347826086956
 40
0.1304347826086956
 40
0.1304347826086956
 40
0.1739130434782609
 40
0.1739130434782609
 40
0.1739130434782609
 40
0.1739130434782609
 40
0.2173913043478261
 40
0.2173913043478261
 40
0.2173913043478261
 40
0.2173913043478261
 40
0.2608695652173913
 40
0.2608695652173913
 40
0.2608695652173913
 40
0.2608695652173913
 40
0.3043478260869565
 40
0.3043478260869565
 40
0.3043478260869565
 40
0.3043478260869565
 40
0.3478260869565217
 40
0.3478260869565217
 40
0.3478260869565217
 40
0.3478260869565217
 40
0.391304347826087
 40
0.391304347826087
 40
0.391304347826087
 40
0.391304347826087
 40
0.4347826086956522
 40
0.4347826086956522
 40
0.4347826086956522
 40
0.4347826086956522
 40
0.4782608695652174
 40
0.4782608695652174
 40
0.4782608695652174
 40
0.4782608695652174
 40
0.5217391304347826
 40
0.5217391304347826
 40
0.5217391304347826
 40
0.5217391304347826
 40
0.5652173913043478
 40
0.5652173913043478
 40
0.5652173913043478
 40
0.5652173913043478
 40
0.6086956521739131
 40
0.6086956521739131
 40
0.6086956521739131
 40
0.6086956521739131
 40
0.6521739130434783
 40
0.6521739130434783
 40
0.6521739130434783
 40
0.6521739130434783
 40
0.6956521739130435
 40
0.6956521739130435
 40
0.6956521739130435
 40
0.6956521739130435
 40
0.7391304347826086
 40
0.7391304347826086
 40
0.7391304347826086
 40
0.7391304347826086
 40
0.782608695652174
 40
0.782608695652174
 40
0.782608695652174
 40
0.782608695652174
 40
0.8260869565217391
 40
0.8260869565217391
 40
0.8260869565217391
 40
0.8260869565217391
 40
0.8695652173913043
 40
0.8695652173913043
 40
0.8695652173913043
 40
0.8695652173913043
 40
0.9130434782608695
 40
0.9130434782608695
 40
0.9130434782608695
 40
0.9130434782608695
 40
1.0
 40
1.0
 40
1.0
 40
1.0
 10
-9.35775
 20
8.72144
 30
0.0
 10
-9.35775
 20
8.72144
 30
0.0
 10
-9.35775
 20
8.69187
 30
0.0
 10
-9.35775
 20
8.69187
 30
0.0
 10
-9.35775
 20
8.69187
 30
0.0
 10
-9.35775
 20
8.69187
 30
0.0
 10
-9.52335
 20
8.69187
 30
0.0
 10
-9.52335
 20
8.69187
 30
0.0
 10
-9.52335
 20
8.69187
 30
0.0
 10
-9.52359
 20
8.69928
 30
0.0
 10
-9.52242
 20
8.70639
 30
0.0
 10
-9.5198
 20
8.71322
 30
0.0
 10
-9.5198
 20
8.71322
 30
0.0
 10
-9.5156
 20
8.72454
 30
0.0
 10
-9.50883
 20
8.73562
 30
0.0
 10
-9.49955
 20
8.74659
 30
0.0
 10
-9.49955
 20
8.74659
 30
0.0
 10
-9.49022
 20
8.75749
 30
0.0
 10
-9.4768
 20
8.77015
 30
0.0
 10
-9.4593
 20
8.7845
 30
0.0
 10
-9.4593
 20
8.7845
 30
0.0
 10
-9.43206
 20
8.80684
 30
0.0
 10
-9.41363
 20
8.82452
 30
0.0
 10
-9.40406
 20
8.83759
 30
0.0
 10
-9.40406
 20
8.83759
 30
0.0
 10
-9.3945
 20
8.85059
 30
0.0
 10
-9.38971
 20
8.86296
 30
0.0
 10
-9.38971
 20
8.87457
 30
0.0
 10
-9.38971
 20
8.87457
 30
0.0
 10
-9.38971
 20
8.88676
 30
0.0
 10
-9.39409
 20
8.89703
 30
0.0
 10
-9.40278
 20
8.90543
 30
0.0
 10
-9.40278
 20
8.90543
 30
0.0
 10
-9.41153
 20
8.91377
 30
0.0
 10
-9.4229
 20
8.91797
 30
0.0
 10
-9.4369
 20
8.91797
 30
0.0
 10
-9.4369
 20
8.91797
 30
0.0
 10
-9.45172
 20
8.91797
 30
0.0
 10
-9.46356
 20
8.91354
 30
0.0
 10
-9.47243
 20
8.90461
 30
0.0
 10
-9.47243
 20
8.90461
 30
0.0
 10
-9.48135
 20
8.89574
 30
0.0
 10
-9.48585
 20
8.88344
 30
0.0
 10
-9.48596
 20
8.86774
 30
0.0
 10
-9.48596
 20
8.86774
 30
0.0
 10
-9.48596
 20
8.86774
 30
0.0
 10
-9.51758
 20
8.87095
 30
0.0
 10
-9.51758
 20
8.87095
 30
0.0
 10
-9.51758
 20
8.87095
 30
0.0
 10
-9.51542
 20
8.89458
 30
0.0
 10
-9.50725
 20
8.91254
 30
0.0
 10
-9.49314
 20
8.92491
 30
0.0
 10
-9.49314
 20
8.92491
 30
0.0
 10
-9.47902
 20
8.93728
 30
0.0
 10
-9.46
 20
8.94346
 30
0.0
 10
-9.4362
 20
8.94346
 30
0.0
 10
-9.4362
 20
8.94346
 30
0.0
 10
-9.41217
 20
8.94346
 30
0.0
 10
-9.39315
 20
8.93675
 30
0.0
 10
-9.37915
 20
8.92345
 30
0.0
 10
-9.37915
 20
8.92345
 30
0.0
 10
-9.3651
 20
8.91009
 30
0.0
 10
-9.3581
 20
8.89359
 30
0.0
 10
-9.3581
 20
8.87387
 30
0.0
 10
-9.3581
 20
8.87387
 30
0.0
 10
-9.3581
 20
8.86384
 30
0.0
 10
-9.36014
 20
8.85398
 30
0.0
 10
-9.36428
 20
8.84429
 30
0.0
 10
-9.36428
 20
8.84429
 30
0.0
 10
-9.36836
 20
8.83461
 30
0.0
 10
-9.37519
 20
8.8244
 30
0.0
 10
-9.3847
 20
8.81373
 30
0.0
 10
-9.3847
 20
8.81373
 30
0.0
 10
-9.3942
 20
8.80299
 30
0.0
 10
-9.41001
 20
8.78829
 30
0.0
 10
-9.43212
 20
8.76963
 30
0.0
 10
-9.43212
 20
8.76963
 30
0.0
 10
-9.45055
 20
8.75411
 30
0.0
 10
-9.4624
 20
8.74361
 30
0.0
 10
-9.46765
 20
8.73807
 30
0.0
 10
-9.46765
 20
8.73807
 30
0.0
 10
-9.4729
 20
8.73259
 30
0.0
 10
-9.47721
 20
8.72704
 30
0.0
 10
-9.48065
 20
8.72144
 30
0.0
 10
-9.48065
 20
8.72144
 30
0.0
 10
-9.48065
 20
8.72144
 30
0.0
 10
-9.35775
 20
8.72144
 30
0.0
 10
-9.35775
 20
8.72144
 30
0.0
  0
SPLINE
  5
9E
330
1F
100
AcDbEntity
  8
0
100
AcDbSpline
210
0.0
220
0.0
230
1.0
 70
    11
 71
     3
 72
    92
 73
    88
 74
     0
 42
0.0000000001
 43
0.0000000001
 40
0.0
 40
0.0
 40
0.0
 40
0.0
 40
0.0434782608695652
 40
0.0434782608695652
 40
0.0434782608695652
 40
0.0434782608695652
 40
0.0869565217391304
 40
0.0869565217391304
 40
0.0869565217391304
 40
0.0869565217391304
 40
0.1304347826086956
 40
0.1304347826086956
 40
0.1304347826086956
 40
0.1304347826086956
 40
0.1739130434782609
 40
0.1739130434782609
 40
0.1739130434782609
 40
0.1739130434782609
 40
0.2173913043478261
 40
0.2173913043478261
 40
0.2173913043478261
 40
0.2173913043478261
 40
0.2608695652173913
 40
0.2608695652173913
 40
0.2608695652173913
 40
0.2608695652173913
 40
0.3043478260869565
 40
0.3043478260869565
 40
0.3043478260869565
 40
0.3043478260869565
 40
0.3478260869565217
 40
0.3478260869565217
 40
0.3478260869565217
 40
0.3478260869565217
 40
0.391304347826087
 40
0.391304347826087
 40
0.391304347826087
 40
0.391304347826087
 40
0.4347826086956522
 40
0.4347826086956522
 40
0.4347826086956522
 40
0.4347826086956522
 40
0.4782608695652174
 40
0.4782608695652174
 40
0.4782608695652174
 40
0.4782608695652174
 40
0.5217391304347826
 40
0.5217391304347826
 40
0.5217391304347826
 40
0.5217391304347826
 40
0.5652173913043478
 40
0.5652173913043478
 40
0.5652173913043478
 40
0.5652173913043478
 40
0.6086956521739131
 40
0.6086956521739131
 40
0.6086956521739131
 40
0.6086956521739131
 40
0.6521739130434783
 40
0.6521739130434783
 40
0.6521739130434783
 40
0.6521739130434783
 40
0.6956521739130435
 40
0.6956521739130435
 40
0.6956521739130435
 40
0.6956521739130435
 40
0.7391304347826086
 40
0.7391304347826086
 40
0.7391304347826086
 40
0.7391304347826086
 40
0.782608695652174
 40
0.782608695652174
 40
0.782608695652174
 40
0.782608695652174
 40
0.8260869565217391
 40
0.8260869565217391
 40
0.8260869565217391
 40
0.8260869565217391
 40
0.8695652173913043
 40
0.8695652173913043
 40
0.8695652173913043
 40
0.8695652173913043
 40
0.9130434782608695
 40
0.9130434782608695
 40
0.9130434782608695
 40
0.9130434782608695
 40
1.0
 40
1.0
 40
1.0
 40
1.0
 10
-9.32479
 20
8.75749
 30
0.0
 10
-9.32479
 20
8.75749
 30
0.0
 10
-9.29247
 20
8.76024
 30
0.0
 10
-9.29247
 20
8.76024
 30
0.0
 10
-9.29247
 20
8.76024
 30
0.0
 10
-9.29008
 20
8.74449
 30
0.0
 10
-9.28454
 20
8.7327
 30
0.0
 10
-9.27584
 20
8.72477
 30
0.0
 10
-9.27584
 20
8.72477
 30
0.0
 10
-9.26709
 20
8.71684
 30
0.0
 10
-9.25659
 20
8.71287
 30
0.0
 10
-9.24429
 20
8.71287
 30
0.0
 10
-9.24429
 20
8.71287
 30
0.0
 10
-9.22947
 20
8.71287
 30
0.0
 10
-9.21693
 20
8.71847
 30
0.0
 10
-9.20672
 20
8.72961
 30
0.0
 10
-9.20672
 20
8.72961
 30
0.0
 10
-9.19645
 20
8.74081
 30
0.0
 10
-9.19132
 20
8.75563
 30
0.0
 10
-9.19132
 20
8.77406
 30
0.0
 10
-9.19132
 20
8.77406
 30
0.0
 10
-9.19132
 20
8.79162
 30
0.0
 10
-9.19622
 20
8.80544
 30
0.0
 10
-9.20608
 20
8.81559
 30
0.0
 10
-9.20608
 20
8.81559
 30
0.0
 10
-9.21594
 20
8.82574
 30
0.0
 10
-9.22883
 20
8.83082
 30
0.0
 10
-9.24481
 20
8.83082
 30
0.0
 10
-9.24481
 20
8.83082
 30
0.0
 10
-9.25473
 20
8.83082
 30
0.0
 10
-9.26365
 20
8.82854
 30
0.0
 10
-9.27164
 20
8.82405
 30
0.0
 10
-9.27164
 20
8.82405
 30
0.0
 10
-9.27964
 20
8.81956
 30
0.0
 10
-9.28588
 20
8.81373
 30
0.0
 10
-9.29043
 20
8.80655
 30
0.0
 10
-9.29043
 20
8.80655
 30
0.0
 10
-9.29043
 20
8.80655
 30
0.0
 10
-9.3193
 20
8.81029
 30
0.0
 10
-9.3193
 20
8.81029
 30
0.0
 10
-9.3193
 20
8.81029
 30
0.0
 10
-9.3193
 20
8.81029
 30
0.0
 10
-9.29504
 20
8.93897
 30
0.0
 10
-9.29504
 20
8.93897
 30
0.0
 10
-9.29504
 20
8.93897
 30
0.0
 10
-9.29504
 20
8.93897
 30
0.0
 10
-9.17044
 20
8.93897
 30
0.0
 10
-9.17044
 20
8.93897
 30
0.0
 10
-9.17044
 20
8.93897
 30
0.0
 10
-9.17044
 20
8.93897
 30
0.0
 10
-9.17044
 20
8.90957
 30
0.0
 10
-9.17044
 20
8.90957
 30
0.0
 10
-9.17044
 20
8.90957
 30
0.0
 10
-9.17044
 20
8.90957
 30
0.0
 10
-9.27042
 20
8.90957
 30
0.0
 10
-9.27042
 20
8.90957
 30
0.0
 10
-9.27042
 20
8.90957
 30
0.0
 10
-9.27042
 20
8.90957
 30
0.0
 10
-9.28395
 20
8.84225
 30
0.0
 10
-9.28395
 20
8.84225
 30
0.0
 10
-9.28395
 20
8.84225
 30
0.0
 10
-9.2689
 20
8.85275
 30
0.0
 10
-9.25309
 20
8.858
 30
0.0
 10
-9.23659
 20
8.858
 30
0.0
 10
-9.23659
 20
8.858
 30
0.0
 10
-9.21471
 20
8.858
 30
0.0
 10
-9.19628
 20
8.85042
 30
0.0
 10
-9.18123
 20
8.83525
 30
0.0
 10
-9.18123
 20
8.83525
 30
0.0
 10
-9.16618
 20
8.82009
 30
0.0
 10
-9.15865
 20
8.8006
 30
0.0
 10
-9.15865
 20
8.7768
 30
0.0
 10
-9.15865
 20
8.7768
 30
0.0
 10
-9.15865
 20
8.75411
 30
0.0
 10
-9.1653
 20
8.73451
 30
0.0
 10
-9.17849
 20
8.718
 30
0.0
 10
-9.17849
 20
8.718
 30
0.0
 10
-9.19459
 20
8.69776
 30
0.0
 10
-9.21652
 20
8.68761
 30
0.0
 10
-9.24429
 20
8.68761
 30
0.0
 10
-9.24429
 20
8.68761
 30
0.0
 10
-9.26709
 20
8.68761
 30
0.0
 10
-9.2857
 20
8.69397
 30
0.0
 10
-9.30011
 20
8.70674
 30
0.0
 10
-9.30011
 20
8.70674
 30
0.0
 10
-9.31452
 20
8.71952
 30
0.0
 10
-9.32274
 20
8.73644
 30
0.0
 10
-9.32479
 20
8.75749
 30
0.0
  0
SPLINE
  5
9F
330
1F
100
AcDbEntity
  8
0
100
AcDbSpline
210
0.0
220
0.0
230
1.0
 70
    11
 71
     3
 72
    52
 73
    48
 74
     0
 42
0.0000000001
 43
0.0000000001
 40
0.0
 40
0.0
 40
0.0
 40
0.0
 40
0.0769230769230769
 40
0.0769230769230769
 40
0.0769230769230769
 40
0.0769230769230769
 40
0.1538461538461539
 40
0.1538461538461539
 40
0.1538461538461539
 40
0.1538461538461539
 40
0.2307692307692308
 40
0.2307692307692308
 40
0.2307692307692308
 40
0.2307692307692308
 40
0.3076923076923077
 40
0.3076923076923077
 40
0.3076923076923077
 40
0.3076923076923077
 40
0.3846153846153846
 40
0.3846153846153846
 40
0.3846153846153846
 40
0.3846153846153846
 40
0.4615384615384616
 40
0.4615384615384616
 40
0.4615384615384616
 40
0.4615384615384616
 40
0.5384615384615384
 40
0.5384615384615384
 40
0.5384615384615384
 40
0.5384615384615384
 40
0.6153846153846154
 40
0.6153846153846154
 40
0.6153846153846154
 40
0.6153846153846154
 40
0.6923076923076923
 40
0.6923076923076923
 40
0.6923076923076923
 40
0.6923076923076923
 40
0.7692307692307693
 40
0.7692307692307693
 40
0.7692307692307693
 40
0.7692307692307693
 40
0.8461538461538461
 40
0.8461538461538461
 40
0.8461538461538461
 40
0.8461538461538461
 40
1.0
 40
1.0
 40
1.0
 40
1.0
 10
-9.13013
 20
8.81542
 30
0.0
 10
-9.13013
 20
8.84505
 30
0.0
 10
-9.12709
 20
8.86891
 30
0.0
 10
-9.12097
 20
8.88694
 30
0.0
 10
-9.12097
 20
8.88694
 30
0.0
 10
-9.1149
 20
8.90502
 30
0.0
 10
-9.1058
 20
8.91896
 30
0.0
 10
-9.09378
 20
8.92876
 30
0.0
 10
-9.09378
 20
8.92876
 30
0.0
 10
-9.08177
 20
8.93856
 30
0.0
 10
-9.06666
 20
8.94346
 30
0.0
 10
-9.04846
 20
8.94346
 30
0.0
 10
-9.04846
 20
8.94346
 30
0.0
 10
-9.03498
 20
8.94346
 30
0.0
 10
-9.0232
 20
8.94072
 30
0.0
 10
-9.01305
 20
8.93529
 30
0.0
 10
-9.01305
 20
8.93529
 30
0.0
 10
-9.0029
 20
8.92993
 30
0.0
 10
-8.99456
 20
8.92211
 30
0.0
 10
-8.98791
 20
8.9119
 30
0.0
 10
-8.98791
 20
8.9119
 30
0.0
 10
-8.98132
 20
8.90169
 30
0.0
 10
-8.97613
 20
8.88927
 30
0.0
 10
-8.97239
 20
8.87463
 30
0.0
 10
-8.97239
 20
8.87463
 30
0.0
 10
-8.9686
 20
8.85999
 30
0.0
 10
-8.96673
 20
8.84027
 30
0.0
 10
-8.96673
 20
8.81542
 30
0.0
 10
-8.96673
 20
8.81542
 30
0.0
 10
-8.96673
 20
8.78602
 30
0.0
 10
-8.96977
 20
8.76234
 30
0.0
 10
-8.97578
 20
8.74425
 30
0.0
 10
-8.97578
 20
8.74425
 30
0.0
 10
-8.98184
 20
8.72617
 30
0.0
 10
-8.99088
 20
8.71223
 30
0.0
 10
-9.0029
 20
8.70237
 30
0.0
 10
-9.0029
 20
8.70237
 30
0.0
 10
-9.01492
 20
8.69251
 30
0.0
 10
-9.03008
 20
8.68761
 30
0.0
 10
-9.04846
 20
8.68761
 30
0.0
 10
-9.04846
 20
8.68761
 30
0.0
 10
-9.07261
 20
8.68761
 30
0.0
 10
-9.09157
 20
8.69624
 30
0.0
 10
-9.10533
 20
8.71357
 30
0.0
 10
-9.10533
 20
8.71357
 30
0.0
 10
-9.12184
 20
8.73439
 30
0.0
 10
-9.13013
 20
8.7684
 30
0.0
 10
-9.13013
 20
8.81542
 30
0.0
  0
SPLINE
  5
A0
330
1F
100
AcDbEntity
  8
0
100
AcDbSpline
210
0.0
220
0.0
230
1.0
 70
    11
 71
     3
 72
    36
 73
    32
 74
     0
 42
0.0000000001
 43
0.0000000001
 40
0.0
 40
0.0
 40
0.0
 40
0.0
 40
0.1111111111111111
 40
0.1111111111111111
 40
0.1111111111111111
 40
0.1111111111111111
 40
0.2222222222222222
 40
0.2222222222222222
 40
0.2222222222222222
 40
0.2222222222222222
 40
0.3333333333333333
 40
0.3333333333333333
 40
0.3333333333333333
 40
0.3333333333333333
 40
0.4444444444444444
 40
0.4444444444444444
 40
0.4444444444444444
 40
0.4444444444444444
 40
0.5555555555555556
 40
0.5555555555555556
 40
0.5555555555555556
 40
0.5555555555555556
 40
0.6666666666666666
 40
0.6666666666666666
 40
0.6666666666666666
 40
0.6666666666666666
 40
0.7777777777777778
 40
0.7777777777777778
 40
0.7777777777777778
 40
0.7777777777777778
 40
1.0
 40
1.0
 40
1.0
 40
1.0
 10
-9.09851
 20
8.81542
 30
0.0
 10
-9.09851
 20
8.77429
 30
0.0
 10
-9.09367
 20
8.74694
 30
0.0
 10
-9.08404
 20
8.73329
 30
0.0
 10
-9.08404
 20
8.73329
 30
0.0
 10
-9.07442
 20
8.71969
 30
0.0
 10
-9.06258
 20
8.71287
 30
0.0
 10
-9.04846
 20
8.71287
 30
0.0
 10
-9.04846
 20
8.71287
 30
0.0
 10
-9.03428
 20
8.71287
 30
0.0
 10
-9.02244
 20
8.71975
 30
0.0
 10
-9.01282
 20
8.7334
 30
0.0
 10
-9.01282
 20
8.7334
 30
0.0
 10
-9.00319
 20
8.74705
 30
0.0
 10
-8.99835
 20
8.77441
 30
0.0
 10
-8.99835
 20
8.81542
 30
0.0
 10
-8.99835
 20
8.81542
 30
0.0
 10
-8.99835
 20
8.85666
 30
0.0
 10
-9.00319
 20
8.88408
 30
0.0
 10
-9.01282
 20
8.89761
 30
0.0
 10
-9.01282
 20
8.89761
 30
0.0
 10
-9.02244
 20
8.9112
 30
0.0
 10
-9.0344
 20
8.91797
 30
0.0
 10
-9.04875
 20
8.91797
 30
0.0
 10
-9.04875
 20
8.91797
 30
0.0
 10
-9.06293
 20
8.91797
 30
0.0
 10
-9.07418
 20
8.91196
 30
0.0
 10
-9.08264
 20
8.9
 30
0.0
 10
-9.08264
 20
8.9
 30
0.0
 10
-9.0932
 20
8.88478
 30
0.0
 10
-9.09851
 20
8.85654
 30
0.0
 10
-9.09851
 20
8.81542
 30
0.0
  0
SPLINE
  5
A1
330
1F
100
AcDbEntity
  8
0
100
AcDbSpline
210
0.0
220
0.0
230
1.0
 70
    27
 71
     3
 72
    12
 73
     8
 74
     0
 42
0.0000000001
 43
0.0000000001
 40
0.0
 40
0.0
 40
0.0
 40
0.0
 40
0.3333333333333333
 40
0.3333333333333333
 40
0.3333333333333333
 40
0.3333333333333333
 40
1.0
 40
1.0
 40
1.0
 40
1.0
 10
-15.01576
 20
11.56684
 30
0.0
 10
-15.01576
 20
11.56684
 30
0.0
 10
-15.06656
 20
11.89704
 30
0.0
 10
-15.06656
 20
11.89704
 30
0.0
 10
-15.06656
 20
11.89704
 30
0.0
 10
-15.06656
 20
11.89704
 30
0.0
 10
-15.01576
 20
11.56684
 30
0.0
 10
-15.01576
 20
11.56684
 30
0.0
  0
SPLINE
  5
A2
330
1F
100
AcDbEntity
  8
0
100
AcDbSpline
210
0.0
220
0.0
230
1.0
 70
     8
 71
     3
 72
    12
 73
     8
 74
     0
 42
0.0000000001
 43
0.0000000001
 40
0.0
 40
0.0
 40
0.0
 40
0.0
 40
0.3333333333333333
 40
0.3333333333333333
 40
0.3333333333333333
 40
0.3333333333333333
 40
1.0
 40
1.0
 40
1.0
 40
1.0
 10
-15.06656
 20
11.89704
 30
0.0
 10
-15.06656
 20
11.89704
 30
0.0
 10
-14.96496
 20
11.89704
 30
0.0
 10
-14.96496
 20
11.89704
 30
0.0
 10
-14.96496
 20
11.89704
 30
0.0
 10
-14.96496
 20
11.89704
 30
0.0
 10
-15.01576
 20
11.56684
 30
0.0
 10
-15.01576
 20
11.56684
 30
0.0
  0
SPLINE
  5
A3
330
1F
100
AcDbEntity
  8
0
370
     9
100
AcDbSpline
210
0.0
220
0.0
230
1.0
 70
    24
 71
     3
 72
     8
 73
     4
 74
     0
 42
0.0000000001
 43
0.0000000001
 40
0.0
 40
0.0
 40
0.0
 40
0.0
 40
1.0
 40
1.0
 40
1.0
 40
1.0
 10
-15.01576
 20
11.56684
 30
0.0
 10
-15.01576
 20
11.56684
 30
0.0
 10
-15.06656
 20
11.89704
 30
0.0
 10
-15.06656
 20
11.89704
 30
0.0
  0
SPLINE
  5
A4
330
1F
100
AcDbEntity
  8
0
370
     9
100
AcDbSpline
210
0.0
220
0.0
230
1.0
 70
     8
 71
     3
 72
    12
 73
     8
 74
     0
 42
0.0000000001
 43
0.0000000001
 40
0.0
 40
0.0
 40
0.0
 40
0.0
 40
0.3333333333333333
 40
0.3333333333333333
 40
0.3333333333333333
 40
0.3333333333333333
 40
1.0
 40
1.0
 40
1.0
 40
1.0
 10
-15.06656
 20
11.89704
 30
0.0
 10
-15.06656
 20
11.89704
 30
0.0
 10
-14.96496
 20
11.89704
 30
0.0
 10
-14.96496
 20
11.89704
 30
0.0
 10
-14.96496
 20
11.89704
 30
0.0
 10
-14.96496
 20
11.89704
 30
0.0
 10
-15.01576
 20
11.56684
 30
0.0
 10
-15.01576
 20
11.56684
 30
0.0
  0
SPLINE
  5
A5
330
1F
100
AcDbEntity
  8
0
100
AcDbSpline
210
0.0
220
0.0
230
1.0
 70
    27
 71
     3
 72
    12
 73
     8
 74
     0
 42
0.0000000001
 43
0.0000000001
 40
0.0
 40
0.0
 40
0.0
 40
0.0
 40
0.3333333333333333
 40
0.3333333333333333
 40
0.3333333333333333
 40
0.3333333333333333
 40
1.0
 40
1.0
 40
1.0
 40
1.0
 10
-15.01576
 20
10.4335
 30
0.0
 10
-15.01576
 20
10.4335
 30
0.0
 10
-14.96496
 20
10.1033
 30
0.0
 10
-14.96496
 20
10.1033
 30
0.0
 10
-14.96496
 20
10.1033
 30
0.0
 10
-14.96496
 20
10.1033
 30
0.0
 10
-15.01576
 20
10.4335
 30
0.0
 10
-15.01576
 20
10.4335
 30
0.0
  0
SPLINE
  5
A6
330
1F
100
AcDbEntity
  8
0
100
AcDbSpline
210
0.0
220
0.0
230
1.0
 70
     8
 71
     3
 72
    12
 73
     8
 74
     0
 42
0.0000000001
 43
0.0000000001
 40
0.0
 40
0.0
 40
0.0
 40
0.0
 40
0.3333333333333333
 40
0.3333333333333333
 40
0.3333333333333333
 40
0.3333333333333333
 40
1.0
 40
1.0
 40
1.0
 40
1.0
 10
-14.96496
 20
10.1033
 30
0.0
 10
-14.96496
 20
10.1033
 30
0.0
 10
-15.06656
 20
10.1033
 30
0.0
 10
-15.06656
 20
10.1033
 30
0.0
 10
-15.06656
 20
10.1033
 30
0.0
 10
-15.06656
 20
10.1033
 30
0.0
 10
-15.01576
 20
10.4335
 30
0.0
 10
-15.01576
 20
10.4335
 30
0.0
  0
SPLINE
  5
A7
330
1F
100
AcDbEntity
  8
0
370
     9
100
AcDbSpline
210
0.0
220
0.0
230
1.0
 70
    24
 71
     3
 72
     8
 73
     4
 74
     0
 42
0.0000000001
 43
0.0000000001
 40
0.0
 40
0.0
 40
0.0
 40
0.0
 40
1.0
 40
1.0
 40
1.0
 40
1.0
 10
-15.01576
 20
10.4335
 30
0.0
 10
-15.01576
 20
10.4335
 30
0.0
 10
-14.96496
 20
10.1033
 30
0.0
 10
-14.96496
 20
10.1033
 30
0.0
  0
SPLINE
  5
A8
330
1F
100
AcDbEntity
  8
0
370
     9
100
AcDbSpline
210
0.0
220
0.0
230
1.0
 70
     8
 71
     3
 72
    12
 73
     8
 74
     0
 42
0.0000000001
 43
0.0000000001
 40
0.0
 40
0.0
 40
0.0
 40
0.0
 40
0.3333333333333333
 40
0.3333333333333333
 40
0.3333333333333333
 40
0.3333333333333333
 40
1.0
 40
1.0
 40
1.0
 40
1.0
 10
-14.96496
 20
10.1033
 30
0.0
 10
-14.96496
 20
10.1033
 30
0.0
 10
-15.06656
 20
10.1033
 30
0.0
 10
-15.06656
 20
10.1033
 30
0.0
 10
-15.06656
 20
10.1033
 30
0.0
 10
-15.06656
 20
10.1033
 30
0.0
 10
-15.01576
 20
10.4335
 30
0.0
 10
-15.01576
 20
10.4335
 30
0.0
  0
SPLINE
  5
A9
330
1F
100
AcDbEntity
  8
0
370
     9
100
AcDbSpline
210
0.0
220
0.0
230
1.0
 70
    24
 71
     3
 72
     8
 73
     4
 74
     0
 42
0.0000000001
 43
0.0000000001
 40
0.0
 40
0.0
 40
0.0
 40
0.0
 40
1.0
 40
1.0
 40
1.0
 40
1.0
 10
-14.41594
 20
11.56684
 30
0.0
 10
-14.41594
 20
11.56684
 30
0.0
 10
-15.11576
 20
11.56684
 30
0.0
 10
-15.11576
 20
11.56684
 30
0.0
  0
SPLINE
  5
AA
330
1F
100
AcDbEntity
  8
0
370
     9
100
AcDbSpline
210
0.0
220
0.0
230
1.0
 70
    24
 71
     3
 72
     8
 73
     4
 74
     0
 42
0.0000000001
 43
0.0000000001
 40
0.0
 40
0.0
 40
0.0
 40
0.0
 40
1.0
 40
1.0
 40
1.0
 40
1.0
 10
-14.41594
 20
10.4335
 30
0.0
 10
-14.41594
 20
10.4335
 30
0.0
 10
-15.11576
 20
10.4335
 30
0.0
 10
-15.11576
 20
10.4335
 30
0.0
  0
SPLINE
  5
AB
330
1F
100
AcDbEntity
  8
0
370
     9
100
AcDbSpline
210
0.0
220
0.0
230
1.0
 70
    24
 71
     3
 72
     8
 73
     4
 74
     0
 42
0.0000000001
 43
0.0000000001
 40
0.0
 40
0.0
 40
0.0
 40
0.0
 40
1.0
 40
1.0
 40
1.0
 40
1.0
 10
-15.01576
 20
11.56684
 30
0.0
 10
-15.01576
 20
11.56684
 30
0.0
 10
-15.01576
 20
12.20184
 30
0.0
 10
-15.01576
 20
12.20184
 30
0.0
  0
SPLINE
  5
AC
330
1F
100
AcDbEntity
  8
0
370
     9
100
AcDbSpline
210
0.0
220
0.0
230
1.0
 70
    24
 71
     3
 72
     8
 73
     4
 74
     0
 42
0.0000000001
 43
0.0000000001
 40
0.0
 40
0.0
 40
0.0
 40
0.0
 40
1.0
 40
1.0
 40
1.0
 40
1.0
 10
-15.01576
 20
11.56684
 30
0.0
 10
-15.01576
 20
11.56684
 30
0.0
 10
-15.01576
 20
10.4335
 30
0.0
 10
-15.01576
 20
10.4335
 30
0.0
  0
SPLINE
  5
AD
330
1F
100
AcDbEntity
  8
0
370
     9
100
AcDbSpline
210
0.0
220
0.0
230
1.0
 70
    24
 71
     3
 72
     8
 73
     4
 74
     0
 42
0.0000000001
 43
0.0000000001
 40
0.0
 40
0.0
 40
0.0
 40
0.0
 40
1.0
 40
1.0
 40
1.0
 40
1.0
 10
-15.01576
 20
10.4335
 30
0.0
 10
-15.01576
 20
10.4335
 30
0.0
 10
-15.01576
 20
9.7985
 30
0.0
 10
-15.01576
 20
9.7985
 30
0.0
  0
SPLINE
  5
AE
330
1F
100
AcDbEntity
  8
0
100
AcDbSpline
210
0.0
220
0.0
230
1.0
 70
    11
 71
     3
 72
   124
 73
   120
 74
     0
 42
0.0000000001
 43
0.0000000001
 40
0.0
 40
0.0
 40
0.0
 40
0.0
 40
0.032258064516129
 40
0.032258064516129
 40
0.032258064516129
 40
0.032258064516129
 40
0.0645161290322581
 40
0.0645161290322581
 40
0.0645161290322581
 40
0.0645161290322581
 40
0.0967741935483871
 40
0.0967741935483871
 40
0.0967741935483871
 40
0.0967741935483871
 40
0.1290322580645161
 40
0.1290322580645161
 40
0.1290322580645161
 40
0.1290322580645161
 40
0.1612903225806452
 40
0.1612903225806452
 40
0.1612903225806452
 40
0.1612903225806452
 40
0.1935483870967742
 40
0.1935483870967742
 40
0.1935483870967742
 40
0.1935483870967742
 40
0.2258064516129032
 40
0.2258064516129032
 40
0.2258064516129032
 40
0.2258064516129032
 40
0.2580645161290323
 40
0.2580645161290323
 40
0.2580645161290323
 40
0.2580645161290323
 40
0.2903225806451613
 40
0.2903225806451613
 40
0.2903225806451613
 40
0.2903225806451613
 40
0.3225806451612903
 40
0.3225806451612903
 40
0.3225806451612903
 40
0.3225806451612903
 40
0.3548387096774194
 40
0.3548387096774194
 40
0.3548387096774194
 40
0.3548387096774194
 40
0.3870967741935484
 40
0.3870967741935484
 40
0.3870967741935484
 40
0.3870967741935484
 40
0.4193548387096774
 40
0.4193548387096774
 40
0.4193548387096774
 40
0.4193548387096774
 40
0.4516129032258064
 40
0.4516129032258064
 40
0.4516129032258064
 40
0.4516129032258064
 40
0.4838709677419355
 40
0.4838709677419355
 40
0.4838709677419355
 40
0.4838709677419355
 40
0.5161290322580645
 40
0.5161290322580645
 40
0.5161290322580645
 40
0.5161290322580645
 40
0.5483870967741935
 40
0.5483870967741935
 40
0.5483870967741935
 40
0.5483870967741935
 40
0.5806451612903226
 40
0.5806451612903226
 40
0.5806451612903226
 40
0.5806451612903226
 40
0.6129032258064516
 40
0.6129032258064516
 40
0.6129032258064516
 40
0.6129032258064516
 40
0.6451612903225806
 40
0.6451612903225806
 40
0.6451612903225806
 40
0.6451612903225806
 40
0.6774193548387096
 40
0.6774193548387096
 40
0.6774193548387096
 40
0.6774193548387096
 40
0.7096774193548387
 40
0.7096774193548387
 40
0.7096774193548387
 40
0.7096774193548387
 40
0.7419354838709677
 40
0.7419354838709677
 40
0.7419354838709677
 40
0.7419354838709677
 40
0.7741935483870968
 40
0.7741935483870968
 40
0.7741935483870968
 40
0.7741935483870968
 40
0.8064516129032258
 40
0.8064516129032258
 40
0.8064516129032258
 40
0.8064516129032258
 40
0.8387096774193549
 40
0.8387096774193549
 40
0.8387096774193549
 40
0.8387096774193549
 40
0.8709677419354839
 40
0.8709677419354839
 40
0.8709677419354839
 40
0.8709677419354839
 40
0.9032258064516129
 40
0.9032258064516129
 40
0.9032258064516129
 40
0.9032258064516129
 40
0.9354838709677419
 40
0.9354838709677419
 40
0.9354838709677419
 40
0.9354838709677419
 40
1.0
 40
1.0
 40
1.0
 40
1.0
 10
-15.21622
 20
10.62806
 30
0.0
 10
-15.21622
 20
10.62806
 30
0.0
 10
-15.2203
 20
10.6588
 30
0.0
 10
-15.2203
 20
10.6588
 30
0.0
 10
-15.2203
 20
10.6588
 30
0.0
 10
-15.20286
 20
10.66236
 30
0.0
 10
-15.19032
 20
10.66837
 30
0.0
 10
-15.18262
 20
10.67683
 30
0.0
 10
-15.18262
 20
10.67683
 30
0.0
 10
-15.17492
 20
10.68534
 30
0.0
 10
-15.17107
 20
10.69567
 30
0.0
 10
-15.17107
 20
10.70786
 30
0.0
 10
-15.17107
 20
10.70786
 30
0.0
 10
-15.17107
 20
10.72233
 30
0.0
 10
-15.17609
 20
10.73458
 30
0.0
 10
-15.18612
 20
10.74455
 30
0.0
 10
-15.18612
 20
10.74455
 30
0.0
 10
-15.19615
 20
10.75447
 30
0.0
 10
-15.20858
 20
10.75948
 30
0.0
 10
-15.22339
 20
10.75948
 30
0.0
 10
-15.22339
 20
10.75948
 30
0.0
 10
-15.23751
 20
10.75948
 30
0.0
 10
-15.24918
 20
10.75488
 30
0.0
 10
-15.25834
 20
10.74566
 30
0.0
 10
-15.25834
 20
10.74566
 30
0.0
 10
-15.26749
 20
10.73638
 30
0.0
 10
-15.2721
 20
10.72466
 30
0.0
 10
-15.2721
 20
10.71043
 30
0.0
 10
-15.2721
 20
10.71043
 30
0.0
 10
-15.2721
 20
10.70459
 30
0.0
 10
-15.27094
 20
10.69736
 30
0.0
 10
-15.26866
 20
10.68873
 30
0.0
 10
-15.26866
 20
10.68873
 30
0.0
 10
-15.26866
 20
10.68873
 30
0.0
 10
-15.29567
 20
10.69217
 30
0.0
 10
-15.29567
 20
10.69217
 30
0.0
 10
-15.29567
 20
10.69217
 30
0.0
 10
-15.29544
 20
10.69421
 30
0.0
 10
-15.29532
 20
10.69584
 30
0.0
 10
-15.29532
 20
10.69713
 30
0.0
 10
-15.29532
 20
10.69713
 30
0.0
 10
-15.29532
 20
10.71019
 30
0.0
 10
-15.29876
 20
10.72198
 30
0.0
 10
-15.30559
 20
10.73248
 30
0.0
 10
-15.30559
 20
10.73248
 30
0.0
 10
-15.31241
 20
10.74298
 30
0.0
 10
-15.32297
 20
10.74823
 30
0.0
 10
-15.3372
 20
10.74823
 30
0.0
 10
-15.3372
 20
10.74823
 30
0.0
 10
-15.34846
 20
10.74823
 30
0.0
 10
-15.35785
 20
10.74438
 30
0.0
 10
-15.3652
 20
10.73673
 30
0.0
 10
-15.3652
 20
10.73673
 30
0.0
 10
-15.37261
 20
10.72909
 30
0.0
 10
-15.37634
 20
10.71923
 30
0.0
 10
-15.37634
 20
10.70716
 30
0.0
 10
-15.37634
 20
10.70716
 30
0.0
 10
-15.37634
 20
10.6952
 30
0.0
 10
-15.37255
 20
10.68523
 30
0.0
 10
-15.36509
 20
10.67729
 30
0.0
 10
-15.36509
 20
10.67729
 30
0.0
 10
-15.35756
 20
10.6693
 30
0.0
 10
-15.34624
 20
10.66417
 30
0.0
 10
-15.33119
 20
10.66189
 30
0.0
 10
-15.33119
 20
10.66189
 30
0.0
 10
-15.33119
 20
10.66189
 30
0.0
 10
-15.33668
 20
10.63115
 30
0.0
 10
-15.33668
 20
10.63115
 30
0.0
 10
-15.33668
 20
10.63115
 30
0.0
 10
-15.35733
 20
10.63488
 30
0.0
 10
-15.37331
 20
10.64346
 30
0.0
 10
-15.38463
 20
10.65676
 30
0.0
 10
-15.38463
 20
10.65676
 30
0.0
 10
-15.39594
 20
10.67012
 30
0.0
 10
-15.4016
 20
10.68668
 30
0.0
 10
-15.4016
 20
10.70652
 30
0.0
 10
-15.4016
 20
10.70652
 30
0.0
 10
-15.4016
 20
10.72017
 30
0.0
 10
-15.39869
 20
10.73277
 30
0.0
 10
-15.39285
 20
10.74426
 30
0.0
 10
-15.39285
 20
10.74426
 30
0.0
 10
-15.38696
 20
10.75575
 30
0.0
 10
-15.37897
 20
10.76456
 30
0.0
 10
-15.36882
 20
10.77068
 30
0.0
 10
-15.36882
 20
10.77068
 30
0.0
 10
-15.35867
 20
10.77675
 30
0.0
 10
-15.34794
 20
10.77984
 30
0.0
 10
-15.3365
 20
10.77984
 30
0.0
 10
-15.3365
 20
10.77984
 30
0.0
 10
-15.32571
 20
10.77984
 30
0.0
 10
-15.31585
 20
10.77693
 30
0.0
 10
-15.30693
 20
10.77109
 30
0.0
 10
-15.30693
 20
10.77109
 30
0.0
 10
-15.29806
 20
10.76526
 30
0.0
 10
-15.291
 20
10.75668
 30
0.0
 10
-15.28575
 20
10.74531
 30
0.0
 10
-15.28575
 20
10.74531
 30
0.0
 10
-15.28237
 20
10.76013
 30
0.0
 10
-15.27525
 20
10.77162
 30
0.0
 10
-15.26446
 20
10.77984
 30
0.0
 10
-15.26446
 20
10.77984
 30
0.0
 10
-15.25373
 20
10.78801
 30
0.0
 10
-15.24025
 20
10.79209
 30
0.0
 10
-15.22409
 20
10.79209
 30
0.0
 10
-15.22409
 20
10.79209
 30
0.0
 10
-15.20222
 20
10.79209
 30
0.0
 10
-15.18367
 20
10.78416
 30
0.0
 10
-15.16844
 20
10.76818
 30
0.0
 10
-15.16844
 20
10.76818
 30
0.0
 10
-15.15322
 20
10.75225
 30
0.0
 10
-15.14564
 20
10.73207
 30
0.0
 10
-15.14564
 20
10.70768
 30
0.0
 10
-15.14564
 20
10.70768
 30
0.0
 10
-15.14564
 20
10.68569
 30
0.0
 10
-15.15217
 20
10.66743
 30
0.0
 10
-15.16529
 20
10.65291
 30
0.0
 10
-15.16529
 20
10.65291
 30
0.0
 10
-15.17836
 20
10.63838
 30
0.0
 10
-15.19534
 20
10.6301
 30
0.0
 10
-15.21622
 20
10.62806
 30
0.0
  0
SPLINE
  5
AF
330
1F
100
AcDbEntity
  8
0
100
AcDbSpline
210
0.0
220
0.0
230
1.0
 70
    11
 71
     3
 72
    48
 73
    44
 74
     0
 42
0.0000000001
 43
0.0000000001
 40
0.0
 40
0.0
 40
0.0
 40
0.0
 40
0.0833333333333333
 40
0.0833333333333333
 40
0.0833333333333333
 40
0.0833333333333333
 40
0.1666666666666667
 40
0.1666666666666667
 40
0.1666666666666667
 40
0.1666666666666667
 40
0.25
 40
0.25
 40
0.25
 40
0.25
 40
0.3333333333333333
 40
0.3333333333333333
 40
0.3333333333333333
 40
0.3333333333333333
 40
0.4166666666666667
 40
0.4166666666666667
 40
0.4166666666666667
 40
0.4166666666666667
 40
0.5
 40
0.5
 40
0.5
 40
0.5
 40
0.5833333333333334
 40
0.5833333333333334
 40
0.5833333333333334
 40
0.5833333333333334
 40
0.6666666666666666
 40
0.6666666666666666
 40
0.6666666666666666
 40
0.6666666666666666
 40
0.75
 40
0.75
 40
0.75
 40
0.75
 40
0.8333333333333334
 40
0.8333333333333334
 40
0.8333333333333334
 40
0.8333333333333334
 40
1.0
 40
1.0
 40
1.0
 40
1.0
 10
-15.15007
 20
10.92113
 30
0.0
 10
-15.15007
 20
10.92113
 30
0.0
 10
-15.21004
 20
10.92113
 30
0.0
 10
-15.21004
 20
10.92113
 30
0.0
 10
-15.21004
 20
10.92113
 30
0.0
 10
-15.21004
 20
10.92113
 30
0.0
 10
-15.21004
 20
10.81245
 30
0.0
 10
-15.21004
 20
10.81245
 30
0.0
 10
-15.21004
 20
10.81245
 30
0.0
 10
-15.21004
 20
10.81245
 30
0.0
 10
-15.23827
 20
10.81245
 30
0.0
 10
-15.23827
 20
10.81245
 30
0.0
 10
-15.23827
 20
10.81245
 30
0.0
 10
-15.23827
 20
10.81245
 30
0.0
 10
-15.40061
 20
10.92679
 30
0.0
 10
-15.40061
 20
10.92679
 30
0.0
 10
-15.40061
 20
10.92679
 30
0.0
 10
-15.40061
 20
10.92679
 30
0.0
 10
-15.40061
 20
10.95193
 30
0.0
 10
-15.40061
 20
10.95193
 30
0.0
 10
-15.40061
 20
10.95193
 30
0.0
 10
-15.40061
 20
10.95193
 30
0.0
 10
-15.23827
 20
10.95193
 30
0.0
 10
-15.23827
 20
10.95193
 30
0.0
 10
-15.23827
 20
10.95193
 30
0.0
 10
-15.23827
 20
10.95193
 30
0.0
 10
-15.23827
 20
10.98576
 30
0.0
 10
-15.23827
 20
10.98576
 30
0.0
 10
-15.23827
 20
10.98576
 30
0.0
 10
-15.23827
 20
10.98576
 30
0.0
 10
-15.21004
 20
10.98576
 30
0.0
 10
-15.21004
 20
10.98576
 30
0.0
 10
-15.21004
 20
10.98576
 30
0.0
 10
-15.21004
 20
10.98576
 30
0.0
 10
-15.21004
 20
10.95193
 30
0.0
 10
-15.21004
 20
10.95193
 30
0.0
 10
-15.21004
 20
10.95193
 30
0.0
 10
-15.21004
 20
10.95193
 30
0.0
 10
-15.15007
 20
10.95193
 30
0.0
 10
-15.15007
 20
10.95193
 30
0.0
 10
-15.15007
 20
10.95193
 30
0.0
 10
-15.15007
 20
10.95193
 30
0.0
 10
-15.15007
 20
10.92113
 30
0.0
 10
-15.15007
 20
10.92113
 30
0.0
  0
SPLINE
  5
B0
330
1F
100
AcDbEntity
  8
0
100
AcDbSpline
210
0.0
220
0.0
230
1.0
 70
    11
 71
     3
 72
    16
 73
    12
 74
     0
 42
0.0000000001
 43
0.0000000001
 40
0.0
 40
0.0
 40
0.0
 40
0.0
 40
0.25
 40
0.25
 40
0.25
 40
0.25
 40
0.5
 40
0.5
 40
0.5
 40
0.5
 40
1.0
 40
1.0
 40
1.0
 40
1.0
 10
-15.23827
 20
10.92113
 30
0.0
 10
-15.23827
 20
10.92113
 30
0.0
 10
-15.3512
 20
10.92113
 30
0.0
 10
-15.3512
 20
10.92113
 30
0.0
 10
-15.3512
 20
10.92113
 30
0.0
 10
-15.3512
 20
10.92113
 30
0.0
 10
-15.23827
 20
10.84273
 30
0.0
 10
-15.23827
 20
10.84273
 30
0.0
 10
-15.23827
 20
10.84273
 30
0.0
 10
-15.23827
 20
10.84273
 30
0.0
 10
-15.23827
 20
10.92113
 30
0.0
 10
-15.23827
 20
10.92113
 30
0.0
  0
SPLINE
  5
B1
330
1F
100
AcDbEntity
  8
0
370
    15
100
AcDbSpline
210
0.0
220
0.0
230
1.0
 70
    24
 71
     3
 72
     8
 73
     4
 74
     0
 42
0.0000000001
 43
0.0000000001
 40
0.0
 40
0.0
 40
0.0
 40
0.0
 40
1.0
 40
1.0
 40
1.0
 40
1.0
 10
-5.39928
 20
4.70906
 30
0.0
 10
-5.39928
 20
4.70906
 30
0.0
 10
-5.39928
 20
4.05906
 30
0.0
 10
-5.39928
 20
4.05906
 30
0.0
  0
SPLINE
  5
B2
330
1F
100
AcDbEntity
  8
0
370
    15
100
AcDbSpline
210
0.0
220
0.0
230
1.0
 70
    24
 71
     3
 72
     8
 73
     4
 74
     0
 42
0.0000000001
 43
0.0000000001
 40
0.0
 40
0.0
 40
0.0
 40
0.0
 40
1.0
 40
1.0
 40
1.0
 40
1.0
 10
-4.79928
 20
4.05906
 30
0.0
 10
-4.79928
 20
4.05906
 30
0.0
 10
-4.79928
 20
4.70906
 30
0.0
 10
-4.79928
 20
4.70906
 30
0.0
  0
SPLINE
  5
B3
330
1F
100
AcDbEntity
  8
0
370
    15
100
AcDbSpline
210
0.0
220
0.0
230
1.0
 70
    24
 71
     3
 72
     8
 73
     4
 74
     0
 42
0.0000000001
 43
0.0000000001
 40
0.0
 40
0.0
 40
0.0
 40
0.0
 40
1.0
 40
1.0
 40
1.0
 40
1.0
 10
-13.73261
 20
4.70906
 30
0.0
 10
-13.73261
 20
4.70906
 30
0.0
 10
-13.73261
 20
4.05906
 30
0.0
 10
-13.73261
 20
4.05906
 30
0.0
  0
SPLINE
  5
B4
330
1F
100
AcDbEntity
  8
0
370
    15
100
AcDbSpline
210
0.0
220
0.0
230
1.0
 70
    24
 71
     3
 72
     8
 73
     4
 74
     0
 42
0.0000000001
 43
0.0000000001
 40
0.0
 40
0.0
 40
0.0
 40
0.0
 40
1.0
 40
1.0
 40
1.0
 40
1.0
 10
-13.13261
 20
4.05906
 30
0.0
 10
-13.13261
 20
4.05906
 30
0.0
 10
-13.13261
 20
4.70906
 30
0.0
 10
-13.13261
 20
4.70906
 30
0.0
  0
SPLINE
  5
B5
330
1F
100
AcDbEntity
  8
0
370
    15
100
AcDbSpline
210
0.0
220
0.0
230
1.0
 70
     8
 71
     3
 72
    12
 73
     8
 74
     0
 42
0.0000000001
 43
0.0000000001
 40
0.0
 40
0.0
 40
0.0
 40
0.0
 40
0.3333333333333333
 40
0.3333333333333333
 40
0.3333333333333333
 40
0.3333333333333333
 40
1.0
 40
1.0
 40
1.0
 40
1.0
 10
-13.13261
 20
4.05906
 30
0.0
 10
-13.13261
 20
3.785
 30
0.0
 10
-13.02374
 20
3.52217
 30
0.0
 10
-12.82995
 20
3.32838
 30
0.0
 10
-12.82995
 20
3.32838
 30
0.0
 10
-12.63617
 20
3.13459
 30
0.0
 10
-12.37333
 20
3.02572
 30
0.0
 10
-12.09928
 20
3.02572
 30
0.0
  0
SPLINE
  5
B6
330
1F
100
AcDbEntity
  8
0
370
    15
100
AcDbSpline
210
0.0
220
0.0
230
1.0
 70
     8
 71
     3
 72
    12
 73
     8
 74
     0
 42
0.0000000001
 43
0.0000000001
 40
0.0
 40
0.0
 40
0.0
 40
0.0
 40
0.3333333333333333
 40
0.3333333333333333
 40
0.3333333333333333
 40
0.3333333333333333
 40
1.0
 40
1.0
 40
1.0
 40
1.0
 10
-13.73261
 20
4.05906
 30
0.0
 10
-13.73261
 20
3.62587
 30
0.0
 10
-13.56053
 20
3.21043
 30
0.0
 10
-13.25422
 20
2.90412
 30
0.0
 10
-13.25422
 20
2.90412
 30
0.0
 10
-12.94791
 20
2.59781
 30
0.0
 10
-12.53246
 20
2.42572
 30
0.0
 10
-12.09928
 20
2.42572
 30
0.0
  0
SPLINE
  5
B7
330
1F
100
AcDbEntity
  8
0
370
    15
100
AcDbSpline
210
0.0
220
0.0
230
1.0
 70
     8
 71
     3
 72
     8
 73
     4
 74
     0
 42
0.0000000001
 43
0.0000000001
 40
0.0
 40
0.0
 40
0.0
 40
0.0
 40
1.0
 40
1.0
 40
1.0
 40
1.0
 10
-6.43261
 20
3.02572
 30
0.0
 10
-5.86192
 20
3.02572
 30
0.0
 10
-5.39928
 20
3.48836
 30
0.0
 10
-5.39928
 20
4.05905
 30
0.0
  0
SPLINE
  5
B8
330
1F
100
AcDbEntity
  8
0
370
    15
100
AcDbSpline
210
0.0
220
0.0
230
1.0
 70
     8
 71
     3
 72
     8
 73
     4
 74
     0
 42
0.0000000001
 43
0.0000000001
 40
0.0
 40
0.0
 40
0.0
 40
0.0
 40
1.0
 40
1.0
 40
1.0
 40
1.0
 10
-6.43261
 20
2.42572
 30
0.0
 10
-5.53055
 20
2.42572
 30
0.0
 10
-4.79928
 20
3.15699
 30
0.0
 10
-4.79928
 20
4.05905
 30
0.0
  0
SPLINE
  5
B9
330
1F
100
AcDbEntity
  8
0
370
    15
100
AcDbSpline
210
0.0
220
0.0
230
1.0
 70
    24
 71
     3
 72
     8
 73
     4
 74
     0
 42
0.0000000001
 43
0.0000000001
 40
0.0
 40
0.0
 40
0.0
 40
0.0
 40
1.0
 40
1.0
 40
1.0
 40
1.0
 10
-6.43261
 20
3.02572
 30
0.0
 10
-6.43261
 20
3.02572
 30
0.0
 10
-12.09928
 20
3.02572
 30
0.0
 10
-12.09928
 20
3.02572
 30
0.0
  0
SPLINE
  5
BA
330
1F
100
AcDbEntity
  8
0
370
    15
100
AcDbSpline
210
0.0
220
0.0
230
1.0
 70
    24
 71
     3
 72
     8
 73
     4
 74
     0
 42
0.0000000001
 43
0.0000000001
 40
0.0
 40
0.0
 40
0.0
 40
0.0
 40
1.0
 40
1.0
 40
1.0
 40
1.0
 10
-12.09928
 20
2.42572
 30
0.0
 10
-12.09928
 20
2.42572
 30
0.0
 10
-6.43261
 20
2.42572
 30
0.0
 10
-6.43261
 20
2.42572
 30
0.0
  0
SPLINE
  5
BB
330
1F
100
AcDbEntity
  8
0
370
    15
100
AcDbSpline
210
0.0
220
0.0
230
1.0
 70
    24
 71
     3
 72
     8
 73
     4
 74
     0
 42
0.0000000001
 43
0.0000000001
 40
0.0
 40
0.0
 40
0.0
 40
0.0
 40
1.0
 40
1.0
 40
1.0
 40
1.0
 10
-5.98261
 20
5.00906
 30
0.0
 10
-5.98261
 20
5.00906
 30
0.0
 10
-5.98261
 20
4.72572
 30
0.0
 10
-5.98261
 20
4.72572
 30
0.0
  0
SPLINE
  5
BC
330
1F
100
AcDbEntity
  8
0
370
    15
100
AcDbSpline
210
0.0
220
0.0
230
1.0
 70
    24
 71
     3
 72
     8
 73
     4
 74
     0
 42
0.0000000001
 43
0.0000000001
 40
0.0
 40
0.0
 40
0.0
 40
0.0
 40
1.0
 40
1.0
 40
1.0
 40
1.0
 10
-6.14928
 20
4.72572
 30
0.0
 10
-6.14928
 20
4.72572
 30
0.0
 10
-5.98261
 20
4.72572
 30
0.0
 10
-5.98261
 20
4.72572
 30
0.0
  0
SPLINE
  5
BD
330
1F
100
AcDbEntity
  8
0
370
    15
100
AcDbSpline
210
0.0
220
0.0
230
1.0
 70
    24
 71
     3
 72
     8
 73
     4
 74
     0
 42
0.0000000001
 43
0.0000000001
 40
0.0
 40
0.0
 40
0.0
 40
0.0
 40
1.0
 40
1.0
 40
1.0
 40
1.0
 10
-6.14928
 20
4.72572
 30
0.0
 10
-6.14928
 20
4.72572
 30
0.0
 10
-6.14928
 20
5.00906
 30
0.0
 10
-6.14928
 20
5.00906
 30
0.0
  0
SPLINE
  5
BE
330
1F
100
AcDbEntity
  8
0
370
    15
100
AcDbSpline
210
0.0
220
0.0
230
1.0
 70
    24
 71
     3
 72
     8
 73
     4
 74
     0
 42
0.0000000001
 43
0.0000000001
 40
0.0
 40
0.0
 40
0.0
 40
0.0
 40
1.0
 40
1.0
 40
1.0
 40
1.0
 10
-6.14928
 20
5.00906
 30
0.0
 10
-6.14928
 20
5.00906
 30
0.0
 10
-5.98261
 20
5.00906
 30
0.0
 10
-5.98261
 20
5.00906
 30
0.0
  0
SPLINE
  5
BF
330
1F
100
AcDbEntity
  8
0
370
    15
100
AcDbSpline
210
0.0
220
0.0
230
1.0
 70
    24
 71
     3
 72
     8
 73
     4
 74
     0
 42
0.0000000001
 43
0.0000000001
 40
0.0
 40
0.0
 40
0.0
 40
0.0
 40
1.0
 40
1.0
 40
1.0
 40
1.0
 10
-4.21594
 20
4.72572
 30
0.0
 10
-4.21594
 20
4.72572
 30
0.0
 10
-4.21594
 20
5.00906
 30
0.0
 10
-4.21594
 20
5.00906
 30
0.0
  0
SPLINE
  5
C0
330
1F
100
AcDbEntity
  8
0
370
    15
100
AcDbSpline
210
0.0
220
0.0
230
1.0
 70
    24
 71
     3
 72
     8
 73
     4
 74
     0
 42
0.0000000001
 43
0.0000000001
 40
0.0
 40
0.0
 40
0.0
 40
0.0
 40
1.0
 40
1.0
 40
1.0
 40
1.0
 10
-5.98261
 20
4.72572
 30
0.0
 10
-5.98261
 20
4.72572
 30
0.0
 10
-4.21594
 20
4.72572
 30
0.0
 10
-4.21594
 20
4.72572
 30
0.0
  0
SPLINE
  5
C1
330
1F
100
AcDbEntity
  8
0
370
    15
100
AcDbSpline
210
0.0
220
0.0
230
1.0
 70
    24
 71
     3
 72
     8
 73
     4
 74
     0
 42
0.0000000001
 43
0.0000000001
 40
0.0
 40
0.0
 40
0.0
 40
0.0
 40
1.0
 40
1.0
 40
1.0
 40
1.0
 10
-5.98261
 20
5.00906
 30
0.0
 10
-5.98261
 20
5.00906
 30
0.0
 10
-4.21594
 20
5.00906
 30
0.0
 10
-4.21594
 20
5.00906
 30
0.0
  0
SPLINE
  5
C2
330
1F
100
AcDbEntity
  8
0
370
    15
100
AcDbSpline
210
0.0
220
0.0
230
1.0
 70
    24
 71
     3
 72
     8
 73
     4
 74
     0
 42
0.0000000001
 43
0.0000000001
 40
0.0
 40
0.0
 40
0.0
 40
0.0
 40
1.0
 40
1.0
 40
1.0
 40
1.0
 10
-4.04928
 20
5.00906
 30
0.0
 10
-4.04928
 20
5.00906
 30
0.0
 10
-4.04928
 20
4.72572
 30
0.0
 10
-4.04928
 20
4.72572
 30
0.0
  0
SPLINE
  5
C3
330
1F
100
AcDbEntity
  8
0
370
    15
100
AcDbSpline
210
0.0
220
0.0
230
1.0
 70
    24
 71
     3
 72
     8
 73
     4
 74
     0
 42
0.0000000001
 43
0.0000000001
 40
0.0
 40
0.0
 40
0.0
 40
0.0
 40
1.0
 40
1.0
 40
1.0
 40
1.0
 10
-4.21594
 20
4.72572
 30
0.0
 10
-4.21594
 20
4.72572
 30
0.0
 10
-4.04928
 20
4.72572
 30
0.0
 10
-4.04928
 20
4.72572
 30
0.0
  0
SPLINE
  5
C4
330
1F
100
AcDbEntity
  8
0
370
    15
100
AcDbSpline
210
0.0
220
0.0
230
1.0
 70
    24
 71
     3
 72
     8
 73
     4
 74
     0
 42
0.0000000001
 43
0.0000000001
 40
0.0
 40
0.0
 40
0.0
 40
0.0
 40
1.0
 40
1.0
 40
1.0
 40
1.0
 10
-4.21594
 20
5.00906
 30
0.0
 10
-4.21594
 20
5.00906
 30
0.0
 10
-4.04928
 20
5.00906
 30
0.0
 10
-4.04928
 20
5.00906
 30
0.0
  0
SPLINE
  5
C5
330
1F
100
AcDbEntity
  8
0
370
    15
100
AcDbSpline
210
0.0
220
0.0
230
1.0
 70
    24
 71
     3
 72
     8
 73
     4
 74
     0
 42
0.0000000001
 43
0.0000000001
 40
0.0
 40
0.0
 40
0.0
 40
0.0
 40
1.0
 40
1.0
 40
1.0
 40
1.0
 10
-5.98261
 20
4.70906
 30
0.0
 10
-5.98261
 20
4.70906
 30
0.0
 10
-6.13261
 20
4.70906
 30
0.0
 10
-6.13261
 20
4.70906
 30
0.0
  0
SPLINE
  5
C6
330
1F
100
AcDbEntity
  8
0
370
    15
100
AcDbSpline
210
0.0
220
0.0
230
1.0
 70
     8
 71
     3
 72
    12
 73
     8
 74
     0
 42
0.0000000001
 43
0.0000000001
 40
0.0
 40
0.0
 40
0.0
 40
0.0
 40
0.3333333333333333
 40
0.3333333333333333
 40
0.3333333333333333
 40
0.3333333333333333
 40
1.0
 40
1.0
 40
1.0
 40
1.0
 10
-6.14928
 20
4.72572
 30
0.0
 10
-6.14928
 20
4.7213
 30
0.0
 10
-6.14752
 20
4.71706
 30
0.0
 10
-6.14439
 20
4.71394
 30
0.0
 10
-6.14439
 20
4.71394
 30
0.0
 10
-6.14127
 20
4.71081
 30
0.0
 10
-6.13703
 20
4.70906
 30
0.0
 10
-6.13261
 20
4.70906
 30
0.0
  0
SPLINE
  5
C7
330
1F
100
AcDbEntity
  8
0
370
    15
100
AcDbSpline
210
0.0
220
0.0
230
1.0
 70
    24
 71
     3
 72
     8
 73
     4
 74
     0
 42
0.0000000001
 43
0.0000000001
 40
0.0
 40
0.0
 40
0.0
 40
0.0
 40
1.0
 40
1.0
 40
1.0
 40
1.0
 10
-5.98261
 20
4.70906
 30
0.0
 10
-5.98261
 20
4.70906
 30
0.0
 10
-5.98261
 20
4.72572
 30
0.0
 10
-5.98261
 20
4.72572
 30
0.0
  0
SPLINE
  5
C8
330
1F
100
AcDbEntity
  8
0
370
    15
100
AcDbSpline
210
0.0
220
0.0
230
1.0
 70
    24
 71
     3
 72
     8
 73
     4
 74
     0
 42
0.0000000001
 43
0.0000000001
 40
0.0
 40
0.0
 40
0.0
 40
0.0
 40
1.0
 40
1.0
 40
1.0
 40
1.0
 10
-4.21594
 20
4.70906
 30
0.0
 10
-4.21594
 20
4.70906
 30
0.0
 10
-5.98261
 20
4.70906
 30
0.0
 10
-5.98261
 20
4.70906
 30
0.0
  0
SPLINE
  5
C9
330
1F
100
AcDbEntity
  8
0
370
    15
100
AcDbSpline
210
0.0
220
0.0
230
1.0
 70
    24
 71
     3
 72
     8
 73
     4
 74
     0
 42
0.0000000001
 43
0.0000000001
 40
0.0
 40
0.0
 40
0.0
 40
0.0
 40
1.0
 40
1.0
 40
1.0
 40
1.0
 10
-4.21594
 20
4.70906
 30
0.0
 10
-4.21594
 20
4.70906
 30
0.0
 10
-4.21594
 20
4.72572
 30
0.0
 10
-4.21594
 20
4.72572
 30
0.0
  0
SPLINE
  5
CA
330
1F
100
AcDbEntity
  8
0
370
    15
100
AcDbSpline
210
0.0
220
0.0
230
1.0
 70
    24
 71
     3
 72
     8
 73
     4
 74
     0
 42
0.0000000001
 43
0.0000000001
 40
0.0
 40
0.0
 40
0.0
 40
0.0
 40
1.0
 40
1.0
 40
1.0
 40
1.0
 10
-4.06594
 20
4.70906
 30
0.0
 10
-4.06594
 20
4.70906
 30
0.0
 10
-4.21594
 20
4.70906
 30
0.0
 10
-4.21594
 20
4.70906
 30
0.0
  0
SPLINE
  5
CB
330
1F
100
AcDbEntity
  8
0
370
    15
100
AcDbSpline
210
0.0
220
0.0
230
1.0
 70
     8
 71
     3
 72
     8
 73
     4
 74
     0
 42
0.0000000001
 43
0.0000000001
 40
0.0
 40
0.0
 40
0.0
 40
0.0
 40
1.0
 40
1.0
 40
1.0
 40
1.0
 10
-4.06594
 20
4.70906
 30
0.0
 10
-4.05674
 20
4.70906
 30
0.0
 10
-4.04928
 20
4.71652
 30
0.0
 10
-4.04928
 20
4.72572
 30
0.0
  0
SPLINE
  5
CC
330
1F
100
AcDbEntity
  8
0
370
    15
100
AcDbSpline
210
0.0
220
0.0
230
1.0
 70
    24
 71
     3
 72
     8
 73
     4
 74
     0
 42
0.0000000001
 43
0.0000000001
 40
0.0
 40
0.0
 40
0.0
 40
0.0
 40
1.0
 40
1.0
 40
1.0
 40
1.0
 10
-14.31594
 20
5.00906
 30
0.0
 10
-14.31594
 20
5.00906
 30
0.0
 10
-14.31594
 20
4.72572
 30
0.0
 10
-14.31594
 20
4.72572
 30
0.0
  0
SPLINE
  5
CD
330
1F
100
AcDbEntity
  8
0
370
    15
100
AcDbSpline
210
0.0
220
0.0
230
1.0
 70
    24
 71
     3
 72
     8
 73
     4
 74
     0
 42
0.0000000001
 43
0.0000000001
 40
0.0
 40
0.0
 40
0.0
 40
0.0
 40
1.0
 40
1.0
 40
1.0
 40
1.0
 10
-14.48261
 20
4.72572
 30
0.0
 10
-14.48261
 20
4.72572
 30
0.0
 10
-14.31594
 20
4.72572
 30
0.0
 10
-14.31594
 20
4.72572
 30
0.0
  0
SPLINE
  5
CE
330
1F
100
AcDbEntity
  8
0
370
    15
100
AcDbSpline
210
0.0
220
0.0
230
1.0
 70
    24
 71
     3
 72
     8
 73
     4
 74
     0
 42
0.0000000001
 43
0.0000000001
 40
0.0
 40
0.0
 40
0.0
 40
0.0
 40
1.0
 40
1.0
 40
1.0
 40
1.0
 10
-14.48261
 20
4.72572
 30
0.0
 10
-14.48261
 20
4.72572
 30
0.0
 10
-14.48261
 20
5.00906
 30
0.0
 10
-14.48261
 20
5.00906
 30
0.0
  0
SPLINE
  5
CF
330
1F
100
AcDbEntity
  8
0
370
    15
100
AcDbSpline
210
0.0
220
0.0
230
1.0
 70
    24
 71
     3
 72
     8
 73
     4
 74
     0
 42
0.0000000001
 43
0.0000000001
 40
0.0
 40
0.0
 40
0.0
 40
0.0
 40
1.0
 40
1.0
 40
1.0
 40
1.0
 10
-14.48261
 20
5.00906
 30
0.0
 10
-14.48261
 20
5.00906
 30
0.0
 10
-14.31594
 20
5.00906
 30
0.0
 10
-14.31594
 20
5.00906
 30
0.0
  0
SPLINE
  5
D0
330
1F
100
AcDbEntity
  8
0
370
    15
100
AcDbSpline
210
0.0
220
0.0
230
1.0
 70
    24
 71
     3
 72
     8
 73
     4
 74
     0
 42
0.0000000001
 43
0.0000000001
 40
0.0
 40
0.0
 40
0.0
 40
0.0
 40
1.0
 40
1.0
 40
1.0
 40
1.0
 10
-12.54928
 20
4.72572
 30
0.0
 10
-12.54928
 20
4.72572
 30
0.0
 10
-12.54928
 20
5.00906
 30
0.0
 10
-12.54928
 20
5.00906
 30
0.0
  0
SPLINE
  5
D1
330
1F
100
AcDbEntity
  8
0
370
    15
100
AcDbSpline
210
0.0
220
0.0
230
1.0
 70
    24
 71
     3
 72
     8
 73
     4
 74
     0
 42
0.0000000001
 43
0.0000000001
 40
0.0
 40
0.0
 40
0.0
 40
0.0
 40
1.0
 40
1.0
 40
1.0
 40
1.0
 10
-14.31594
 20
4.72572
 30
0.0
 10
-14.31594
 20
4.72572
 30
0.0
 10
-12.54928
 20
4.72572
 30
0.0
 10
-12.54928
 20
4.72572
 30
0.0
  0
SPLINE
  5
D2
330
1F
100
AcDbEntity
  8
0
370
    15
100
AcDbSpline
210
0.0
220
0.0
230
1.0
 70
    24
 71
     3
 72
     8
 73
     4
 74
     0
 42
0.0000000001
 43
0.0000000001
 40
0.0
 40
0.0
 40
0.0
 40
0.0
 40
1.0
 40
1.0
 40
1.0
 40
1.0
 10
-14.31594
 20
5.00906
 30
0.0
 10
-14.31594
 20
5.00906
 30
0.0
 10
-12.54928
 20
5.00906
 30
0.0
 10
-12.54928
 20
5.00906
 30
0.0
  0
SPLINE
  5
D3
330
1F
100
AcDbEntity
  8
0
370
    15
100
AcDbSpline
210
0.0
220
0.0
230
1.0
 70
    24
 71
     3
 72
     8
 73
     4
 74
     0
 42
0.0000000001
 43
0.0000000001
 40
0.0
 40
0.0
 40
0.0
 40
0.0
 40
1.0
 40
1.0
 40
1.0
 40
1.0
 10
-12.38261
 20
5.00906
 30
0.0
 10
-12.38261
 20
5.00906
 30
0.0
 10
-12.38261
 20
4.72572
 30
0.0
 10
-12.38261
 20
4.72572
 30
0.0
  0
SPLINE
  5
D4
330
1F
100
AcDbEntity
  8
0
370
    15
100
AcDbSpline
210
0.0
220
0.0
230
1.0
 70
    24
 71
     3
 72
     8
 73
     4
 74
     0
 42
0.0000000001
 43
0.0000000001
 40
0.0
 40
0.0
 40
0.0
 40
0.0
 40
1.0
 40
1.0
 40
1.0
 40
1.0
 10
-12.54928
 20
4.72572
 30
0.0
 10
-12.54928
 20
4.72572
 30
0.0
 10
-12.38261
 20
4.72572
 30
0.0
 10
-12.38261
 20
4.72572
 30
0.0
  0
SPLINE
  5
D5
330
1F
100
AcDbEntity
  8
0
370
    15
100
AcDbSpline
210
0.0
220
0.0
230
1.0
 70
    24
 71
     3
 72
     8
 73
     4
 74
     0
 42
0.0000000001
 43
0.0000000001
 40
0.0
 40
0.0
 40
0.0
 40
0.0
 40
1.0
 40
1.0
 40
1.0
 40
1.0
 10
-12.54928
 20
5.00906
 30
0.0
 10
-12.54928
 20
5.00906
 30
0.0
 10
-12.38261
 20
5.00906
 30
0.0
 10
-12.38261
 20
5.00906
 30
0.0
  0
SPLINE
  5
D6
330
1F
100
AcDbEntity
  8
0
370
    15
100
AcDbSpline
210
0.0
220
0.0
230
1.0
 70
    24
 71
     3
 72
     8
 73
     4
 74
     0
 42
0.0000000001
 43
0.0000000001
 40
0.0
 40
0.0
 40
0.0
 40
0.0
 40
1.0
 40
1.0
 40
1.0
 40
1.0
 10
-14.31594
 20
4.70906
 30
0.0
 10
-14.31594
 20
4.70906
 30
0.0
 10
-14.46594
 20
4.70906
 30
0.0
 10
-14.46594
 20
4.70906
 30
0.0
  0
SPLINE
  5
D7
330
1F
100
AcDbEntity
  8
0
370
    15
100
AcDbSpline
210
0.0
220
0.0
230
1.0
 70
     8
 71
     3
 72
    12
 73
     8
 74
     0
 42
0.0000000001
 43
0.0000000001
 40
0.0
 40
0.0
 40
0.0
 40
0.0
 40
0.3333333333333333
 40
0.3333333333333333
 40
0.3333333333333333
 40
0.3333333333333333
 40
1.0
 40
1.0
 40
1.0
 40
1.0
 10
-14.48261
 20
4.72572
 30
0.0
 10
-14.48261
 20
4.7213
 30
0.0
 10
-14.48085
 20
4.71706
 30
0.0
 10
-14.47773
 20
4.71394
 30
0.0
 10
-14.47773
 20
4.71394
 30
0.0
 10
-14.4746
 20
4.71081
 30
0.0
 10
-14.47036
 20
4.70906
 30
0.0
 10
-14.46594
 20
4.70906
 30
0.0
  0
SPLINE
  5
D8
330
1F
100
AcDbEntity
  8
0
370
    15
100
AcDbSpline
210
0.0
220
0.0
230
1.0
 70
    24
 71
     3
 72
     8
 73
     4
 74
     0
 42
0.0000000001
 43
0.0000000001
 40
0.0
 40
0.0
 40
0.0
 40
0.0
 40
1.0
 40
1.0
 40
1.0
 40
1.0
 10
-14.31594
 20
4.70906
 30
0.0
 10
-14.31594
 20
4.70906
 30
0.0
 10
-14.31594
 20
4.72572
 30
0.0
 10
-14.31594
 20
4.72572
 30
0.0
  0
SPLINE
  5
D9
330
1F
100
AcDbEntity
  8
0
370
    15
100
AcDbSpline
210
0.0
220
0.0
230
1.0
 70
    24
 71
     3
 72
     8
 73
     4
 74
     0
 42
0.0000000001
 43
0.0000000001
 40
0.0
 40
0.0
 40
0.0
 40
0.0
 40
1.0
 40
1.0
 40
1.0
 40
1.0
 10
-12.54928
 20
4.70906
 30
0.0
 10
-12.54928
 20
4.70906
 30
0.0
 10
-14.31594
 20
4.70906
 30
0.0
 10
-14.31594
 20
4.70906
 30
0.0
  0
SPLINE
  5
DA
330
1F
100
AcDbEntity
  8
0
370
    15
100
AcDbSpline
210
0.0
220
0.0
230
1.0
 70
    24
 71
     3
 72
     8
 73
     4
 74
     0
 42
0.0000000001
 43
0.0000000001
 40
0.0
 40
0.0
 40
0.0
 40
0.0
 40
1.0
 40
1.0
 40
1.0
 40
1.0
 10
-12.54928
 20
4.70906
 30
0.0
 10
-12.54928
 20
4.70906
 30
0.0
 10
-12.54928
 20
4.72572
 30
0.0
 10
-12.54928
 20
4.72572
 30
0.0
  0
SPLINE
  5
DB
330
1F
100
AcDbEntity
  8
0
370
    15
100
AcDbSpline
210
0.0
220
0.0
230
1.0
 70
    24
 71
     3
 72
     8
 73
     4
 74
     0
 42
0.0000000001
 43
0.0000000001
 40
0.0
 40
0.0
 40
0.0
 40
0.0
 40
1.0
 40
1.0
 40
1.0
 40
1.0
 10
-12.39928
 20
4.70906
 30
0.0
 10
-12.39928
 20
4.70906
 30
0.0
 10
-12.54928
 20
4.70906
 30
0.0
 10
-12.54928
 20
4.70906
 30
0.0
  0
SPLINE
  5
DC
330
1F
100
AcDbEntity
  8
0
370
    15
100
AcDbSpline
210
0.0
220
0.0
230
1.0
 70
     8
 71
     3
 72
     8
 73
     4
 74
     0
 42
0.0000000001
 43
0.0000000001
 40
0.0
 40
0.0
 40
0.0
 40
0.0
 40
1.0
 40
1.0
 40
1.0
 40
1.0
 10
-12.39928
 20
4.70906
 30
0.0
 10
-12.39007
 20
4.70906
 30
0.0
 10
-12.38261
 20
4.71652
 30
0.0
 10
-12.38261
 20
4.72572
 30
0.0
  0
SPLINE
  5
DD
330
1F
100
AcDbEntity
  8
0
 62
     8
370
    15
100
AcDbSpline
210
0.0
220
0.0
230
1.0
 70
    24
 71
     3
 72
     8
 73
     4
 74
     0
 42
0.0000000001
 43
0.0000000001
 40
0.0
 40
0.0
 40
0.0
 40
0.0
 40
1.0
 40
1.0
 40
1.0
 40
1.0
 10
-5.39928
 20
4.05906
 30
0.0
 10
-5.39928
 20
4.05906
 30
0.0
 10
-4.79928
 20
4.05906
 30
0.0
 10
-4.79928
 20
4.05906
 30
0.0
  0
SPLINE
  5
DE
330
1F
100
AcDbEntity
  8
0
 62
     8
370
    15
100
AcDbSpline
210
0.0
220
0.0
230
1.0
 70
    24
 71
     3
 72
     8
 73
     4
 74
     0
 42
0.0000000001
 43
0.0000000001
 40
0.0
 40
0.0
 40
0.0
 40
0.0
 40
1.0
 40
1.0
 40
1.0
 40
1.0
 10
-13.13261
 20
4.05906
 30
0.0
 10
-13.13261
 20
4.05906
 30
0.0
 10
-13.73261
 20
4.05906
 30
0.0
 10
-13.73261
 20
4.05906
 30
0.0
  0
SPLINE
  5
DF
330
1F
100
AcDbEntity
  8
0
 62
     8
370
    15
100
AcDbSpline
210
0.0
220
0.0
230
1.0
 70
    24
 71
     3
 72
     8
 73
     4
 74
     0
 42
0.0000000001
 43
0.0000000001
 40
0.0
 40
0.0
 40
0.0
 40
0.0
 40
1.0
 40
1.0
 40
1.0
 40
1.0
 10
-12.09928
 20
3.02572
 30
0.0
 10
-12.09928
 20
3.02572
 30
0.0
 10
-12.09928
 20
2.42572
 30
0.0
 10
-12.09928
 20
2.42572
 30
0.0
  0
SPLINE
  5
E0
330
1F
100
AcDbEntity
  8
0
 62
     8
370
    15
100
AcDbSpline
210
0.0
220
0.0
230
1.0
 70
    24
 71
     3
 72
     8
 73
     4
 74
     0
 42
0.0000000001
 43
0.0000000001
 40
0.0
 40
0.0
 40
0.0
 40
0.0
 40
1.0
 40
1.0
 40
1.0
 40
1.0
 10
-6.43261
 20
3.02572
 30
0.0
 10
-6.43261
 20
3.02572
 30
0.0
 10
-6.43261
 20
2.42572
 30
0.0
 10
-6.43261
 20
2.42572
 30
0.0
  0
SPLINE
  5
E1
330
1F
100
AcDbEntity
  8
0
100
AcDbSpline
210
0.0
220
0.0
230
1.0
 70
    27
 71
     3
 72
    12
 73
     8
 74
     0
 42
0.0000000001
 43
0.0000000001
 40
0.0
 40
0.0
 40
0.0
 40
0.0
 40
0.3333333333333333
 40
0.3333333333333333
 40
0.3333333333333333
 40
0.3333333333333333
 40
1.0
 40
1.0
 40
1.0
 40
1.0
 10
-12.38261
 20
5.51912
 30
0.0
 10
-12.38261
 20
5.51912
 30
0.0
 10
-12.71281
 20
5.46832
 30
0.0
 10
-12.71281
 20
5.46832
 30
0.0
 10
-12.71281
 20
5.46832
 30
0.0
 10
-12.71281
 20
5.46832
 30
0.0
 10
-12.38261
 20
5.51912
 30
0.0
 10
-12.38261
 20
5.51912
 30
0.0
  0
SPLINE
  5
E2
330
1F
100
AcDbEntity
  8
0
100
AcDbSpline
210
0.0
220
0.0
230
1.0
 70
     8
 71
     3
 72
    12
 73
     8
 74
     0
 42
0.0000000001
 43
0.0000000001
 40
0.0
 40
0.0
 40
0.0
 40
0.0
 40
0.3333333333333333
 40
0.3333333333333333
 40
0.3333333333333333
 40
0.3333333333333333
 40
1.0
 40
1.0
 40
1.0
 40
1.0
 10
-12.71281
 20
5.46832
 30
0.0
 10
-12.71281
 20
5.46832
 30
0.0
 10
-12.71281
 20
5.56992
 30
0.0
 10
-12.71281
 20
5.56992
 30
0.0
 10
-12.71281
 20
5.56992
 30
0.0
 10
-12.71281
 20
5.56992
 30
0.0
 10
-12.38261
 20
5.51912
 30
0.0
 10
-12.38261
 20
5.51912
 30
0.0
  0
SPLINE
  5
E3
330
1F
100
AcDbEntity
  8
0
370
     9
100
AcDbSpline
210
0.0
220
0.0
230
1.0
 70
    24
 71
     3
 72
     8
 73
     4
 74
     0
 42
0.0000000001
 43
0.0000000001
 40
0.0
 40
0.0
 40
0.0
 40
0.0
 40
1.0
 40
1.0
 40
1.0
 40
1.0
 10
-12.38261
 20
5.51912
 30
0.0
 10
-12.38261
 20
5.51912
 30
0.0
 10
-12.71281
 20
5.46832
 30
0.0
 10
-12.71281
 20
5.46832
 30
0.0
  0
SPLINE
  5
E4
330
1F
100
AcDbEntity
  8
0
370
     9
100
AcDbSpline
210
0.0
220
0.0
230
1.0
 70
     8
 71
     3
 72
    12
 73
     8
 74
     0
 42
0.0000000001
 43
0.0000000001
 40
0.0
 40
0.0
 40
0.0
 40
0.0
 40
0.3333333333333333
 40
0.3333333333333333
 40
0.3333333333333333
 40
0.3333333333333333
 40
1.0
 40
1.0
 40
1.0
 40
1.0
 10
-12.71281
 20
5.46832
 30
0.0
 10
-12.71281
 20
5.46832
 30
0.0
 10
-12.71281
 20
5.56992
 30
0.0
 10
-12.71281
 20
5.56992
 30
0.0
 10
-12.71281
 20
5.56992
 30
0.0
 10
-12.71281
 20
5.56992
 30
0.0
 10
-12.38261
 20
5.51912
 30
0.0
 10
-12.38261
 20
5.51912
 30
0.0
  0
SPLINE
  5
E5
330
1F
100
AcDbEntity
  8
0
100
AcDbSpline
210
0.0
220
0.0
230
1.0
 70
    27
 71
     3
 72
    12
 73
     8
 74
     0
 42
0.0000000001
 43
0.0000000001
 40
0.0
 40
0.0
 40
0.0
 40
0.0
 40
0.3333333333333333
 40
0.3333333333333333
 40
0.3333333333333333
 40
0.3333333333333333
 40
1.0
 40
1.0
 40
1.0
 40
1.0
 10
-14.48261
 20
5.51912
 30
0.0
 10
-14.48261
 20
5.51912
 30
0.0
 10
-14.15241
 20
5.56992
 30
0.0
 10
-14.15241
 20
5.56992
 30
0.0
 10
-14.15241
 20
5.56992
 30
0.0
 10
-14.15241
 20
5.56992
 30
0.0
 10
-14.48261
 20
5.51912
 30
0.0
 10
-14.48261
 20
5.51912
 30
0.0
  0
SPLINE
  5
E6
330
1F
100
AcDbEntity
  8
0
100
AcDbSpline
210
0.0
220
0.0
230
1.0
 70
     8
 71
     3
 72
    12
 73
     8
 74
     0
 42
0.0000000001
 43
0.0000000001
 40
0.0
 40
0.0
 40
0.0
 40
0.0
 40
0.3333333333333333
 40
0.3333333333333333
 40
0.3333333333333333
 40
0.3333333333333333
 40
1.0
 40
1.0
 40
1.0
 40
1.0
 10
-14.15241
 20
5.56992
 30
0.0
 10
-14.15241
 20
5.56992
 30
0.0
 10
-14.15241
 20
5.46832
 30
0.0
 10
-14.15241
 20
5.46832
 30
0.0
 10
-14.15241
 20
5.46832
 30
0.0
 10
-14.15241
 20
5.46832
 30
0.0
 10
-14.48261
 20
5.51912
 30
0.0
 10
-14.48261
 20
5.51912
 30
0.0
  0
SPLINE
  5
E7
330
1F
100
AcDbEntity
  8
0
370
     9
100
AcDbSpline
210
0.0
220
0.0
230
1.0
 70
    24
 71
     3
 72
     8
 73
     4
 74
     0
 42
0.0000000001
 43
0.0000000001
 40
0.0
 40
0.0
 40
0.0
 40
0.0
 40
1.0
 40
1.0
 40
1.0
 40
1.0
 10
-14.48261
 20
5.51912
 30
0.0
 10
-14.48261
 20
5.51912
 30
0.0
 10
-14.15241
 20
5.56992
 30
0.0
 10
-14.15241
 20
5.56992
 30
0.0
  0
SPLINE
  5
E8
330
1F
100
AcDbEntity
  8
0
370
     9
100
AcDbSpline
210
0.0
220
0.0
230
1.0
 70
     8
 71
     3
 72
    12
 73
     8
 74
     0
 42
0.0000000001
 43
0.0000000001
 40
0.0
 40
0.0
 40
0.0
 40
0.0
 40
0.3333333333333333
 40
0.3333333333333333
 40
0.3333333333333333
 40
0.3333333333333333
 40
1.0
 40
1.0
 40
1.0
 40
1.0
 10
-14.15241
 20
5.56992
 30
0.0
 10
-14.15241
 20
5.56992
 30
0.0
 10
-14.15241
 20
5.46832
 30
0.0
 10
-14.15241
 20
5.46832
 30
0.0
 10
-14.15241
 20
5.46832
 30
0.0
 10
-14.15241
 20
5.46832
 30
0.0
 10
-14.48261
 20
5.51912
 30
0.0
 10
-14.48261
 20
5.51912
 30
0.0
  0
SPLINE
  5
E9
330
1F
100
AcDbEntity
  8
0
370
     9
100
AcDbSpline
210
0.0
220
0.0
230
1.0
 70
    24
 71
     3
 72
     8
 73
     4
 74
     0
 42
0.0000000001
 43
0.0000000001
 40
0.0
 40
0.0
 40
0.0
 40
0.0
 40
1.0
 40
1.0
 40
1.0
 40
1.0
 10
-12.38261
 20
5.10906
 30
0.0
 10
-12.38261
 20
5.10906
 30
0.0
 10
-12.38261
 20
5.61912
 30
0.0
 10
-12.38261
 20
5.61912
 30
0.0
  0
SPLINE
  5
EA
330
1F
100
AcDbEntity
  8
0
370
     9
100
AcDbSpline
210
0.0
220
0.0
230
1.0
 70
    24
 71
     3
 72
     8
 73
     4
 74
     0
 42
0.0000000001
 43
0.0000000001
 40
0.0
 40
0.0
 40
0.0
 40
0.0
 40
1.0
 40
1.0
 40
1.0
 40
1.0
 10
-14.48261
 20
5.10906
 30
0.0
 10
-14.48261
 20
5.10906
 30
0.0
 10
-14.48261
 20
5.61912
 30
0.0
 10
-14.48261
 20
5.61912
 30
0.0
  0
SPLINE
  5
EB
330
1F
100
AcDbEntity
  8
0
370
     9
100
AcDbSpline
210
0.0
220
0.0
230
1.0
 70
    24
 71
     3
 72
     8
 73
     4
 74
     0
 42
0.0000000001
 43
0.0000000001
 40
0.0
 40
0.0
 40
0.0
 40
0.0
 40
1.0
 40
1.0
 40
1.0
 40
1.0
 10
-12.38261
 20
5.51912
 30
0.0
 10
-12.38261
 20
5.51912
 30
0.0
 10
-14.48261
 20
5.51912
 30
0.0
 10
-14.48261
 20
5.51912
 30
0.0
  0
SPLINE
  5
EC
330
1F
100
AcDbEntity
  8
0
100
AcDbSpline
210
0.0
220
0.0
230
1.0
 70
    11
 71
     3
 72
    80
 73
    76
 74
     0
 42
0.0000000001
 43
0.0000000001
 40
0.0
 40
0.0
 40
0.0
 40
0.0
 40
0.05
 40
0.05
 40
0.05
 40
0.05
 40
0.1
 40
0.1
 40
0.1
 40
0.1
 40
0.15
 40
0.15
 40
0.15
 40
0.15
 40
0.2
 40
0.2
 40
0.2
 40
0.2
 40
0.25
 40
0.25
 40
0.25
 40
0.25
 40
0.3
 40
0.3
 40
0.3
 40
0.3
 40
0.35
 40
0.35
 40
0.35
 40
0.35
 40
0.4
 40
0.4
 40
0.4
 40
0.4
 40
0.45
 40
0.45
 40
0.45
 40
0.45
 40
0.5
 40
0.5
 40
0.5
 40
0.5
 40
0.55
 40
0.55
 40
0.55
 40
0.55
 40
0.6
 40
0.6
 40
0.6
 40
0.6
 40
0.65
 40
0.65
 40
0.65
 40
0.65
 40
0.7
 40
0.7
 40
0.7
 40
0.7
 40
0.75
 40
0.75
 40
0.75
 40
0.75
 40
0.8
 40
0.8
 40
0.8
 40
0.8
 40
0.85
 40
0.85
 40
0.85
 40
0.85
 40
0.9
 40
0.9
 40
0.9
 40
0.9
 40
1.0
 40
1.0
 40
1.0
 40
1.0
 10
-13.6952
 20
5.8426
 30
0.0
 10
-13.6952
 20
5.8426
 30
0.0
 10
-13.72576
 20
5.84021
 30
0.0
 10
-13.72576
 20
5.84021
 30
0.0
 10
-13.72576
 20
5.84021
 30
0.0
 10
-13.7285
 20
5.85229
 30
0.0
 10
-13.73235
 20
5.8611
 30
0.0
 10
-13.73737
 20
5.86652
 30
0.0
 10
-13.73737
 20
5.86652
 30
0.0
 10
-13.74571
 20
5.87533
 30
0.0
 10
-13.75598
 20
5.8797
 30
0.0
 10
-13.76817
 20
5.8797
 30
0.0
 10
-13.76817
 20
5.8797
 30
0.0
 10
-13.77797
 20
5.8797
 30
0.0
 10
-13.78655
 20
5.87696
 30
0.0
 10
-13.79395
 20
5.87148
 30
0.0
 10
-13.79395
 20
5.87148
 30
0.0
 10
-13.80364
 20
5.86442
 30
0.0
 10
-13.81128
 20
5.8541
 30
0.0
 10
-13.81688
 20
5.84056
 30
0.0
 10
-13.81688
 20
5.84056
 30
0.0
 10
-13.82242
 20
5.82703
 30
0.0
 10
-13.82534
 20
5.80772
 30
0.0
 10
-13.82557
 20
5.78264
 30
0.0
 10
-13.82557
 20
5.78264
 30
0.0
 10
-13.81816
 20
5.7939
 30
0.0
 10
-13.80912
 20
5.8023
 30
0.0
 10
-13.79839
 20
5.80778
 30
0.0
 10
-13.79839
 20
5.80778
 30
0.0
 10
-13.78771
 20
5.8132
 30
0.0
 10
-13.77645
 20
5.81595
 30
0.0
 10
-13.76473
 20
5.81595
 30
0.0
 10
-13.76473
 20
5.81595
 30
0.0
 10
-13.7442
 20
5.81595
 30
0.0
 10
-13.72675
 20
5.80842
 30
0.0
 10
-13.71235
 20
5.79331
 30
0.0
 10
-13.71235
 20
5.79331
 30
0.0
 10
-13.69794
 20
5.7782
 30
0.0
 10
-13.6907
 20
5.75872
 30
0.0
 10
-13.6907
 20
5.7348
 30
0.0
 10
-13.6907
 20
5.7348
 30
0.0
 10
-13.6907
 20
5.71905
 30
0.0
 10
-13.69415
 20
5.70447
 30
0.0
 10
-13.70091
 20
5.69094
 30
0.0
 10
-13.70091
 20
5.69094
 30
0.0
 10
-13.70768
 20
5.67746
 30
0.0
 10
-13.71701
 20
5.66708
 30
0.0
 10
-13.72885
 20
5.6599
 30
0.0
 10
-13.72885
 20
5.6599
 30
0.0
 10
-13.7407
 20
5.65273
 30
0.0
 10
-13.75411
 20
5.64917
 30
0.0
 10
-13.76916
 20
5.64917
 30
0.0
 10
-13.76916
 20
5.64917
 30
0.0
 10
-13.79483
 20
5.64917
 30
0.0
 10
-13.81571
 20
5.65856
 30
0.0
 10
-13.83187
 20
5.67746
 30
0.0
 10
-13.83187
 20
5.67746
 30
0.0
 10
-13.84809
 20
5.6963
 30
0.0
 10
-13.85614
 20
5.7274
 30
0.0
 10
-13.85614
 20
5.77068
 30
0.0
 10
-13.85614
 20
5.77068
 30
0.0
 10
-13.85614
 20
5.8191
 30
0.0
 10
-13.84721
 20
5.85427
 30
0.0
 10
-13.8293
 20
5.87626
 30
0.0
 10
-13.8293
 20
5.87626
 30
0.0
 10
-13.81373
 20
5.8954
 30
0.0
 10
-13.79273
 20
5.90502
 30
0.0
 10
-13.76625
 20
5.90502
 30
0.0
 10
-13.76625
 20
5.90502
 30
0.0
 10
-13.74659
 20
5.90502
 30
0.0
 10
-13.73043
 20
5.89948
 30
0.0
 10
-13.71783
 20
5.8884
 30
0.0
 10
-13.71783
 20
5.8884
 30
0.0
 10
-13.70523
 20
5.87737
 30
0.0
 10
-13.6977
 20
5.86209
 30
0.0
 10
-13.6952
 20
5.8426
 30
0.0
  0
SPLINE
  5
ED
330
1F
100
AcDbEntity
  8
0
100
AcDbSpline
210
0.0
220
0.0
230
1.0
 70
    11
 71
     3
 72
    40
 73
    36
 74
     0
 42
0.0000000001
 43
0.0000000001
 40
0.0
 40
0.0
 40
0.0
 40
0.0
 40
0.1
 40
0.1
 40
0.1
 40
0.1
 40
0.2
 40
0.2
 40
0.2
 40
0.2
 40
0.3
 40
0.3
 40
0.3
 40
0.3
 40
0.4
 40
0.4
 40
0.4
 40
0.4
 40
0.5
 40
0.5
 40
0.5
 40
0.5
 40
0.6
 40
0.6
 40
0.6
 40
0.6
 40
0.7
 40
0.7
 40
0.7
 40
0.7
 40
0.8
 40
0.8
 40
0.8
 40
0.8
 40
1.0
 40
1.0
 40
1.0
 40
1.0
 10
-13.82079
 20
5.73463
 30
0.0
 10
-13.82079
 20
5.72401
 30
0.0
 10
-13.81851
 20
5.71386
 30
0.0
 10
-13.81402
 20
5.70418
 30
0.0
 10
-13.81402
 20
5.70418
 30
0.0
 10
-13.80953
 20
5.6945
 30
0.0
 10
-13.80323
 20
5.68715
 30
0.0
 10
-13.79518
 20
5.68207
 30
0.0
 10
-13.79518
 20
5.68207
 30
0.0
 10
-13.78707
 20
5.677
 30
0.0
 10
-13.77855
 20
5.67443
 30
0.0
 10
-13.76969
 20
5.67443
 30
0.0
 10
-13.76969
 20
5.67443
 30
0.0
 10
-13.75668
 20
5.67443
 30
0.0
 10
-13.74554
 20
5.67968
 30
0.0
 10
-13.7362
 20
5.69018
 30
0.0
 10
-13.7362
 20
5.69018
 30
0.0
 10
-13.72687
 20
5.70068
 30
0.0
 10
-13.7222
 20
5.71491
 30
0.0
 10
-13.7222
 20
5.73288
 30
0.0
 10
-13.7222
 20
5.73288
 30
0.0
 10
-13.7222
 20
5.7502
 30
0.0
 10
-13.72681
 20
5.76385
 30
0.0
 10
-13.73603
 20
5.77383
 30
0.0
 10
-13.73603
 20
5.77383
 30
0.0
 10
-13.74525
 20
5.7838
 30
0.0
 10
-13.75685
 20
5.78876
 30
0.0
 10
-13.77085
 20
5.78876
 30
0.0
 10
-13.77085
 20
5.78876
 30
0.0
 10
-13.7848
 20
5.78876
 30
0.0
 10
-13.79658
 20
5.7838
 30
0.0
 10
-13.80626
 20
5.77383
 30
0.0
 10
-13.80626
 20
5.77383
 30
0.0
 10
-13.81595
 20
5.76385
 30
0.0
 10
-13.82079
 20
5.75079
 30
0.0
 10
-13.82079
 20
5.73463
 30
0.0
  0
SPLINE
  5
EE
330
1F
100
AcDbEntity
  8
0
100
AcDbSpline
210
0.0
220
0.0
230
1.0
 70
    11
 71
     3
 72
   124
 73
   120
 74
     0
 42
0.0000000001
 43
0.0000000001
 40
0.0
 40
0.0
 40
0.0
 40
0.0
 40
0.032258064516129
 40
0.032258064516129
 40
0.032258064516129
 40
0.032258064516129
 40
0.0645161290322581
 40
0.0645161290322581
 40
0.0645161290322581
 40
0.0645161290322581
 40
0.0967741935483871
 40
0.0967741935483871
 40
0.0967741935483871
 40
0.0967741935483871
 40
0.1290322580645161
 40
0.1290322580645161
 40
0.1290322580645161
 40
0.1290322580645161
 40
0.1612903225806452
 40
0.1612903225806452
 40
0.1612903225806452
 40
0.1612903225806452
 40
0.1935483870967742
 40
0.1935483870967742
 40
0.1935483870967742
 40
0.1935483870967742
 40
0.2258064516129032
 40
0.2258064516129032
 40
0.2258064516129032
 40
0.2258064516129032
 40
0.2580645161290323
 40
0.2580645161290323
 40
0.2580645161290323
 40
0.2580645161290323
 40
0.2903225806451613
 40
0.2903225806451613
 40
0.2903225806451613
 40
0.2903225806451613
 40
0.3225806451612903
 40
0.3225806451612903
 40
0.3225806451612903
 40
0.3225806451612903
 40
0.3548387096774194
 40
0.3548387096774194
 40
0.3548387096774194
 40
0.3548387096774194
 40
0.3870967741935484
 40
0.3870967741935484
 40
0.3870967741935484
 40
0.3870967741935484
 40
0.4193548387096774
 40
0.4193548387096774
 40
0.4193548387096774
 40
0.4193548387096774
 40
0.4516129032258064
 40
0.4516129032258064
 40
0.4516129032258064
 40
0.4516129032258064
 40
0.4838709677419355
 40
0.4838709677419355
 40
0.4838709677419355
 40
0.4838709677419355
 40
0.5161290322580645
 40
0.5161290322580645
 40
0.5161290322580645
 40
0.5161290322580645
 40
0.5483870967741935
 40
0.5483870967741935
 40
0.5483870967741935
 40
0.5483870967741935
 40
0.5806451612903226
 40
0.5806451612903226
 40
0.5806451612903226
 40
0.5806451612903226
 40
0.6129032258064516
 40
0.6129032258064516
 40
0.6129032258064516
 40
0.6129032258064516
 40
0.6451612903225806
 40
0.6451612903225806
 40
0.6451612903225806
 40
0.6451612903225806
 40
0.6774193548387096
 40
0.6774193548387096
 40
0.6774193548387096
 40
0.6774193548387096
 40
0.7096774193548387
 40
0.7096774193548387
 40
0.7096774193548387
 40
0.7096774193548387
 40
0.7419354838709677
 40
0.7419354838709677
 40
0.7419354838709677
 40
0.7419354838709677
 40
0.7741935483870968
 40
0.7741935483870968
 40
0.7741935483870968
 40
0.7741935483870968
 40
0.8064516129032258
 40
0.8064516129032258
 40
0.8064516129032258
 40
0.8064516129032258
 40
0.8387096774193549
 40
0.8387096774193549
 40
0.8387096774193549
 40
0.8387096774193549
 40
0.8709677419354839
 40
0.8709677419354839
 40
0.8709677419354839
 40
0.8709677419354839
 40
0.9032258064516129
 40
0.9032258064516129
 40
0.9032258064516129
 40
0.9032258064516129
 40
0.9354838709677419
 40
0.9354838709677419
 40
0.9354838709677419
 40
0.9354838709677419
 40
1.0
 40
1.0
 40
1.0
 40
1.0
 10
-13.65996
 20
5.71958
 30
0.0
 10
-13.65996
 20
5.71958
 30
0.0
 10
-13.62922
 20
5.72366
 30
0.0
 10
-13.62922
 20
5.72366
 30
0.0
 10
-13.62922
 20
5.72366
 30
0.0
 10
-13.62566
 20
5.70622
 30
0.0
 10
-13.61965
 20
5.69368
 30
0.0
 10
-13.61119
 20
5.68598
 30
0.0
 10
-13.61119
 20
5.68598
 30
0.0
 10
-13.60268
 20
5.67828
 30
0.0
 10
-13.59235
 20
5.67443
 30
0.0
 10
-13.58016
 20
5.67443
 30
0.0
 10
-13.58016
 20
5.67443
 30
0.0
 10
-13.56569
 20
5.67443
 30
0.0
 10
-13.55344
 20
5.67945
 30
0.0
 10
-13.54347
 20
5.68948
 30
0.0
 10
-13.54347
 20
5.68948
 30
0.0
 10
-13.53355
 20
5.69951
 30
0.0
 10
-13.52854
 20
5.71194
 30
0.0
 10
-13.52854
 20
5.72675
 30
0.0
 10
-13.52854
 20
5.72675
 30
0.0
 10
-13.52854
 20
5.74087
 30
0.0
 10
-13.53314
 20
5.75254
 30
0.0
 10
-13.54236
 20
5.7617
 30
0.0
 10
-13.54236
 20
5.7617
 30
0.0
 10
-13.55164
 20
5.77085
 30
0.0
 10
-13.56336
 20
5.77546
 30
0.0
 10
-13.57759
 20
5.77546
 30
0.0
 10
-13.57759
 20
5.77546
 30
0.0
 10
-13.58343
 20
5.77546
 30
0.0
 10
-13.59066
 20
5.7743
 30
0.0
 10
-13.59929
 20
5.77202
 30
0.0
 10
-13.59929
 20
5.77202
 30
0.0
 10
-13.59929
 20
5.77202
 30
0.0
 10
-13.59585
 20
5.79903
 30
0.0
 10
-13.59585
 20
5.79903
 30
0.0
 10
-13.59585
 20
5.79903
 30
0.0
 10
-13.59381
 20
5.7988
 30
0.0
 10
-13.59218
 20
5.79868
 30
0.0
 10
-13.59089
 20
5.79868
 30
0.0
 10
-13.59089
 20
5.79868
 30
0.0
 10
-13.57783
 20
5.79868
 30
0.0
 10
-13.56604
 20
5.80212
 30
0.0
 10
-13.55554
 20
5.80895
 30
0.0
 10
-13.55554
 20
5.80895
 30
0.0
 10
-13.54504
 20
5.81577
 30
0.0
 10
-13.53979
 20
5.82633
 30
0.0
 10
-13.53979
 20
5.84056
 30
0.0
 10
-13.53979
 20
5.84056
 30
0.0
 10
-13.53979
 20
5.85182
 30
0.0
 10
-13.54364
 20
5.86121
 30
0.0
 10
-13.55129
 20
5.86856
 30
0.0
 10
-13.55129
 20
5.86856
 30
0.0
 10
-13.55893
 20
5.87597
 30
0.0
 10
-13.56879
 20
5.8797
 30
0.0
 10
-13.58086
 20
5.8797
 30
0.0
 10
-13.58086
 20
5.8797
 30
0.0
 10
-13.59282
 20
5.8797
 30
0.0
 10
-13.60279
 20
5.87591
 30
0.0
 10
-13.61073
 20
5.86845
 30
0.0
 10
-13.61073
 20
5.86845
 30
0.0
 10
-13.61872
 20
5.86092
 30
0.0
 10
-13.62385
 20
5.8496
 30
0.0
 10
-13.62613
 20
5.83455
 30
0.0
 10
-13.62613
 20
5.83455
 30
0.0
 10
-13.62613
 20
5.83455
 30
0.0
 10
-13.65687
 20
5.84004
 30
0.0
 10
-13.65687
 20
5.84004
 30
0.0
 10
-13.65687
 20
5.84004
 30
0.0
 10
-13.65314
 20
5.86069
 30
0.0
 10
-13.64456
 20
5.87667
 30
0.0
 10
-13.63126
 20
5.88799
 30
0.0
 10
-13.63126
 20
5.88799
 30
0.0
 10
-13.6179
 20
5.8993
 30
0.0
 10
-13.60134
 20
5.90502
 30
0.0
 10
-13.5815
 20
5.90502
 30
0.0
 10
-13.5815
 20
5.90502
 30
0.0
 10
-13.56785
 20
5.90502
 30
0.0
 10
-13.55525
 20
5.90205
 30
0.0
 10
-13.54376
 20
5.89621
 30
0.0
 10
-13.54376
 20
5.89621
 30
0.0
 10
-13.53227
 20
5.89032
 30
0.0
 10
-13.52346
 20
5.88233
 30
0.0
 10
-13.51734
 20
5.87218
 30
0.0
 10
-13.51734
 20
5.87218
 30
0.0
 10
-13.51127
 20
5.86203
 30
0.0
 10
-13.50818
 20
5.8513
 30
0.0
 10
-13.50818
 20
5.83986
 30
0.0
 10
-13.50818
 20
5.83986
 30
0.0
 10
-13.50818
 20
5.82907
 30
0.0
 10
-13.51109
 20
5.81921
 30
0.0
 10
-13.51693
 20
5.81029
 30
0.0
 10
-13.51693
 20
5.81029
 30
0.0
 10
-13.52276
 20
5.80142
 30
0.0
 10
-13.53134
 20
5.79436
 30
0.0
 10
-13.54271
 20
5.78911
 30
0.0
 10
-13.54271
 20
5.78911
 30
0.0
 10
-13.52789
 20
5.78573
 30
0.0
 10
-13.5164
 20
5.77861
 30
0.0
 10
-13.50818
 20
5.76782
 30
0.0
 10
-13.50818
 20
5.76782
 30
0.0
 10
-13.50001
 20
5.75709
 30
0.0
 10
-13.49593
 20
5.74361
 30
0.0
 10
-13.49593
 20
5.72745
 30
0.0
 10
-13.49593
 20
5.72745
 30
0.0
 10
-13.49593
 20
5.70558
 30
0.0
 10
-13.50386
 20
5.68703
 30
0.0
 10
-13.51984
 20
5.6718
 30
0.0
 10
-13.51984
 20
5.6718
 30
0.0
 10
-13.53577
 20
5.65658
 30
0.0
 10
-13.55595
 20
5.649
 30
0.0
 10
-13.58034
 20
5.649
 30
0.0
 10
-13.58034
 20
5.649
 30
0.0
 10
-13.60233
 20
5.649
 30
0.0
 10
-13.62059
 20
5.65553
 30
0.0
 10
-13.63511
 20
5.66865
 30
0.0
 10
-13.63511
 20
5.66865
 30
0.0
 10
-13.64964
 20
5.68172
 30
0.0
 10
-13.65792
 20
5.6987
 30
0.0
 10
-13.65996
 20
5.71958
 30
0.0
  0
SPLINE
  5
EF
330
1F
100
AcDbEntity
  8
0
100
AcDbSpline
210
0.0
220
0.0
230
1.0
 70
    27
 71
     3
 72
    12
 73
     8
 74
     0
 42
0.0000000001
 43
0.0000000001
 40
0.0
 40
0.0
 40
0.0
 40
0.0
 40
0.3333333333333333
 40
0.3333333333333333
 40
0.3333333333333333
 40
0.3333333333333333
 40
1.0
 40
1.0
 40
1.0
 40
1.0
 10
-16.37139
 20
5.00906
 30
0.0
 10
-16.37139
 20
5.00906
 30
0.0
 10
-16.42219
 20
5.33926
 30
0.0
 10
-16.42219
 20
5.33926
 30
0.0
 10
-16.42219
 20
5.33926
 30
0.0
 10
-16.42219
 20
5.33926
 30
0.0
 10
-16.37139
 20
5.00906
 30
0.0
 10
-16.37139
 20
5.00906
 30
0.0
  0
SPLINE
  5
F0
330
1F
100
AcDbEntity
  8
0
100
AcDbSpline
210
0.0
220
0.0
230
1.0
 70
     8
 71
     3
 72
    12
 73
     8
 74
     0
 42
0.0000000001
 43
0.0000000001
 40
0.0
 40
0.0
 40
0.0
 40
0.0
 40
0.3333333333333333
 40
0.3333333333333333
 40
0.3333333333333333
 40
0.3333333333333333
 40
1.0
 40
1.0
 40
1.0
 40
1.0
 10
-16.42219
 20
5.33926
 30
0.0
 10
-16.42219
 20
5.33926
 30
0.0
 10
-16.32059
 20
5.33926
 30
0.0
 10
-16.32059
 20
5.33926
 30
0.0
 10
-16.32059
 20
5.33926
 30
0.0
 10
-16.32059
 20
5.33926
 30
0.0
 10
-16.37139
 20
5.00906
 30
0.0
 10
-16.37139
 20
5.00906
 30
0.0
  0
SPLINE
  5
F1
330
1F
100
AcDbEntity
  8
0
370
     9
100
AcDbSpline
210
0.0
220
0.0
230
1.0
 70
    24
 71
     3
 72
     8
 73
     4
 74
     0
 42
0.0000000001
 43
0.0000000001
 40
0.0
 40
0.0
 40
0.0
 40
0.0
 40
1.0
 40
1.0
 40
1.0
 40
1.0
 10
-16.37139
 20
5.00906
 30
0.0
 10
-16.37139
 20
5.00906
 30
0.0
 10
-16.42219
 20
5.33926
 30
0.0
 10
-16.42219
 20
5.33926
 30
0.0
  0
SPLINE
  5
F2
330
1F
100
AcDbEntity
  8
0
370
     9
100
AcDbSpline
210
0.0
220
0.0
230
1.0
 70
     8
 71
     3
 72
    12
 73
     8
 74
     0
 42
0.0000000001
 43
0.0000000001
 40
0.0
 40
0.0
 40
0.0
 40
0.0
 40
0.3333333333333333
 40
0.3333333333333333
 40
0.3333333333333333
 40
0.3333333333333333
 40
1.0
 40
1.0
 40
1.0
 40
1.0
 10
-16.42219
 20
5.33926
 30
0.0
 10
-16.42219
 20
5.33926
 30
0.0
 10
-16.32059
 20
5.33926
 30
0.0
 10
-16.32059
 20
5.33926
 30
0.0
 10
-16.32059
 20
5.33926
 30
0.0
 10
-16.32059
 20
5.33926
 30
0.0
 10
-16.37139
 20
5.00906
 30
0.0
 10
-16.37139
 20
5.00906
 30
0.0
  0
SPLINE
  5
F3
330
1F
100
AcDbEntity
  8
0
100
AcDbSpline
210
0.0
220
0.0
230
1.0
 70
    27
 71
     3
 72
    12
 73
     8
 74
     0
 42
0.0000000001
 43
0.0000000001
 40
0.0
 40
0.0
 40
0.0
 40
0.0
 40
0.3333333333333333
 40
0.3333333333333333
 40
0.3333333333333333
 40
0.3333333333333333
 40
1.0
 40
1.0
 40
1.0
 40
1.0
 10
-16.37139
 20
2.42572
 30
0.0
 10
-16.37139
 20
2.42572
 30
0.0
 10
-16.32059
 20
2.09552
 30
0.0
 10
-16.32059
 20
2.09552
 30
0.0
 10
-16.32059
 20
2.09552
 30
0.0
 10
-16.32059
 20
2.09552
 30
0.0
 10
-16.37139
 20
2.42572
 30
0.0
 10
-16.37139
 20
2.42572
 30
0.0
  0
SPLINE
  5
F4
330
1F
100
AcDbEntity
  8
0
100
AcDbSpline
210
0.0
220
0.0
230
1.0
 70
     8
 71
     3
 72
    12
 73
     8
 74
     0
 42
0.0000000001
 43
0.0000000001
 40
0.0
 40
0.0
 40
0.0
 40
0.0
 40
0.3333333333333333
 40
0.3333333333333333
 40
0.3333333333333333
 40
0.3333333333333333
 40
1.0
 40
1.0
 40
1.0
 40
1.0
 10
-16.32059
 20
2.09552
 30
0.0
 10
-16.32059
 20
2.09552
 30
0.0
 10
-16.42219
 20
2.09552
 30
0.0
 10
-16.42219
 20
2.09552
 30
0.0
 10
-16.42219
 20
2.09552
 30
0.0
 10
-16.42219
 20
2.09552
 30
0.0
 10
-16.37139
 20
2.42572
 30
0.0
 10
-16.37139
 20
2.42572
 30
0.0
  0
SPLINE
  5
F5
330
1F
100
AcDbEntity
  8
0
370
     9
100
AcDbSpline
210
0.0
220
0.0
230
1.0
 70
    24
 71
     3
 72
     8
 73
     4
 74
     0
 42
0.0000000001
 43
0.0000000001
 40
0.0
 40
0.0
 40
0.0
 40
0.0
 40
1.0
 40
1.0
 40
1.0
 40
1.0
 10
-16.37139
 20
2.42572
 30
0.0
 10
-16.37139
 20
2.42572
 30
0.0
 10
-16.32059
 20
2.09552
 30
0.0
 10
-16.32059
 20
2.09552
 30
0.0
  0
SPLINE
  5
F6
330
1F
100
AcDbEntity
  8
0
370
     9
100
AcDbSpline
210
0.0
220
0.0
230
1.0
 70
     8
 71
     3
 72
    12
 73
     8
 74
     0
 42
0.0000000001
 43
0.0000000001
 40
0.0
 40
0.0
 40
0.0
 40
0.0
 40
0.3333333333333333
 40
0.3333333333333333
 40
0.3333333333333333
 40
0.3333333333333333
 40
1.0
 40
1.0
 40
1.0
 40
1.0
 10
-16.32059
 20
2.09552
 30
0.0
 10
-16.32059
 20
2.09552
 30
0.0
 10
-16.42219
 20
2.09552
 30
0.0
 10
-16.42219
 20
2.09552
 30
0.0
 10
-16.42219
 20
2.09552
 30
0.0
 10
-16.42219
 20
2.09552
 30
0.0
 10
-16.37139
 20
2.42572
 30
0.0
 10
-16.37139
 20
2.42572
 30
0.0
  0
SPLINE
  5
F7
330
1F
100
AcDbEntity
  8
0
370
     9
100
AcDbSpline
210
0.0
220
0.0
230
1.0
 70
    24
 71
     3
 72
     8
 73
     4
 74
     0
 42
0.0000000001
 43
0.0000000001
 40
0.0
 40
0.0
 40
0.0
 40
0.0
 40
1.0
 40
1.0
 40
1.0
 40
1.0
 10
-14.41594
 20
5.00906
 30
0.0
 10
-14.41594
 20
5.00906
 30
0.0
 10
-16.47139
 20
5.00906
 30
0.0
 10
-16.47139
 20
5.00906
 30
0.0
  0
SPLINE
  5
F8
330
1F
100
AcDbEntity
  8
0
370
     9
100
AcDbSpline
210
0.0
220
0.0
230
1.0
 70
    24
 71
     3
 72
     8
 73
     4
 74
     0
 42
0.0000000001
 43
0.0000000001
 40
0.0
 40
0.0
 40
0.0
 40
0.0
 40
1.0
 40
1.0
 40
1.0
 40
1.0
 10
-12.19928
 20
2.42572
 30
0.0
 10
-12.19928
 20
2.42572
 30
0.0
 10
-16.47139
 20
2.42572
 30
0.0
 10
-16.47139
 20
2.42572
 30
0.0
  0
SPLINE
  5
F9
330
1F
100
AcDbEntity
  8
0
370
     9
100
AcDbSpline
210
0.0
220
0.0
230
1.0
 70
    24
 71
     3
 72
     8
 73
     4
 74
     0
 42
0.0000000001
 43
0.0000000001
 40
0.0
 40
0.0
 40
0.0
 40
0.0
 40
1.0
 40
1.0
 40
1.0
 40
1.0
 10
-16.37139
 20
5.00906
 30
0.0
 10
-16.37139
 20
5.00906
 30
0.0
 10
-16.37139
 20
5.64406
 30
0.0
 10
-16.37139
 20
5.64406
 30
0.0
  0
SPLINE
  5
FA
330
1F
100
AcDbEntity
  8
0
370
     9
100
AcDbSpline
210
0.0
220
0.0
230
1.0
 70
    24
 71
     3
 72
     8
 73
     4
 74
     0
 42
0.0000000001
 43
0.0000000001
 40
0.0
 40
0.0
 40
0.0
 40
0.0
 40
1.0
 40
1.0
 40
1.0
 40
1.0
 10
-16.37139
 20
5.00906
 30
0.0
 10
-16.37139
 20
5.00906
 30
0.0
 10
-16.37139
 20
2.42572
 30
0.0
 10
-16.37139
 20
2.42572
 30
0.0
  0
SPLINE
  5
FB
330
1F
100
AcDbEntity
  8
0
370
     9
100
AcDbSpline
210
0.0
220
0.0
230
1.0
 70
    24
 71
     3
 72
     8
 73
     4
 74
     0
 42
0.0000000001
 43
0.0000000001
 40
0.0
 40
0.0
 40
0.0
 40
0.0
 40
1.0
 40
1.0
 40
1.0
 40
1.0
 10
-16.37139
 20
2.42572
 30
0.0
 10
-16.37139
 20
2.42572
 30
0.0
 10
-16.37139
 20
1.79072
 30
0.0
 10
-16.37139
 20
1.79072
 30
0.0
  0
SPLINE
  5
FC
330
1F
100
AcDbEntity
  8
0
100
AcDbSpline
210
0.0
220
0.0
230
1.0
 70
    11
 71
     3
 72
    48
 73
    44
 74
     0
 42
0.0000000001
 43
0.0000000001
 40
0.0
 40
0.0
 40
0.0
 40
0.0
 40
0.0833333333333333
 40
0.0833333333333333
 40
0.0833333333333333
 40
0.0833333333333333
 40
0.1666666666666667
 40
0.1666666666666667
 40
0.1666666666666667
 40
0.1666666666666667
 40
0.25
 40
0.25
 40
0.25
 40
0.25
 40
0.3333333333333333
 40
0.3333333333333333
 40
0.3333333333333333
 40
0.3333333333333333
 40
0.4166666666666667
 40
0.4166666666666667
 40
0.4166666666666667
 40
0.4166666666666667
 40
0.5
 40
0.5
 40
0.5
 40
0.5
 40
0.5833333333333334
 40
0.5833333333333334
 40
0.5833333333333334
 40
0.5833333333333334
 40
0.6666666666666666
 40
0.6666666666666666
 40
0.6666666666666666
 40
0.6666666666666666
 40
0.75
 40
0.75
 40
0.75
 40
0.75
 40
0.8333333333333334
 40
0.8333333333333334
 40
0.8333333333333334
 40
0.8333333333333334
 40
1.0
 40
1.0
 40
1.0
 40
1.0
 10
-16.72339
 20
3.135
 30
0.0
 10
-16.72339
 20
3.135
 30
0.0
 10
-16.75296
 20
3.135
 30
0.0
 10
-16.75296
 20
3.135
 30
0.0
 10
-16.75296
 20
3.135
 30
0.0
 10
-16.75296
 20
3.135
 30
0.0
 10
-16.75296
 20
3.29716
 30
0.0
 10
-16.75296
 20
3.29716
 30
0.0
 10
-16.75296
 20
3.29716
 30
0.0
 10
-16.75296
 20
3.29716
 30
0.0
 10
-16.72905
 20
3.29716
 30
0.0
 10
-16.72905
 20
3.29716
 30
0.0
 10
-16.72905
 20
3.29716
 30
0.0
 10
-16.71207
 20
3.28124
 30
0.0
 10
-16.6895
 20
3.26543
 30
0.0
 10
-16.66138
 20
3.24974
 30
0.0
 10
-16.66138
 20
3.24974
 30
0.0
 10
-16.63326
 20
3.2341
 30
0.0
 10
-16.60427
 20
3.22197
 30
0.0
 10
-16.57458
 20
3.21345
 30
0.0
 10
-16.57458
 20
3.21345
 30
0.0
 10
-16.55358
 20
3.20727
 30
0.0
 10
-16.53066
 20
3.20336
 30
0.0
 10
-16.50569
 20
3.20167
 30
0.0
 10
-16.50569
 20
3.20167
 30
0.0
 10
-16.50569
 20
3.20167
 30
0.0
 10
-16.50569
 20
3.17005
 30
0.0
 10
-16.50569
 20
3.17005
 30
0.0
 10
-16.50569
 20
3.17005
 30
0.0
 10
-16.52541
 20
3.1704
 30
0.0
 10
-16.54921
 20
3.17425
 30
0.0
 10
-16.57715
 20
3.18166
 30
0.0
 10
-16.57715
 20
3.18166
 30
0.0
 10
-16.60503
 20
3.18907
 30
0.0
 10
-16.63198
 20
3.19969
 30
0.0
 10
-16.65788
 20
3.21351
 30
0.0
 10
-16.65788
 20
3.21351
 30
0.0
 10
-16.68378
 20
3.2274
 30
0.0
 10
-16.70566
 20
3.2421
 30
0.0
 10
-16.72339
 20
3.25773
 30
0.0
 10
-16.72339
 20
3.25773
 30
0.0
 10
-16.72339
 20
3.25773
 30
0.0
 10
-16.72339
 20
3.135
 30
0.0
 10
-16.72339
 20
3.135
 30
0.0
  0
SPLINE
  5
FD
330
1F
100
AcDbEntity
  8
0
100
AcDbSpline
210
0.0
220
0.0
230
1.0
 70
    11
 71
     3
 72
    48
 73
    44
 74
     0
 42
0.0000000001
 43
0.0000000001
 40
0.0
 40
0.0
 40
0.0
 40
0.0
 40
0.0833333333333333
 40
0.0833333333333333
 40
0.0833333333333333
 40
0.0833333333333333
 40
0.1666666666666667
 40
0.1666666666666667
 40
0.1666666666666667
 40
0.1666666666666667
 40
0.25
 40
0.25
 40
0.25
 40
0.25
 40
0.3333333333333333
 40
0.3333333333333333
 40
0.3333333333333333
 40
0.3333333333333333
 40
0.4166666666666667
 40
0.4166666666666667
 40
0.4166666666666667
 40
0.4166666666666667
 40
0.5
 40
0.5
 40
0.5
 40
0.5
 40
0.5833333333333334
 40
0.5833333333333334
 40
0.5833333333333334
 40
0.5833333333333334
 40
0.6666666666666666
 40
0.6666666666666666
 40
0.6666666666666666
 40
0.6666666666666666
 40
0.75
 40
0.75
 40
0.75
 40
0.75
 40
0.8333333333333334
 40
0.8333333333333334
 40
0.8333333333333334
 40
0.8333333333333334
 40
1.0
 40
1.0
 40
1.0
 40
1.0
 10
-16.72339
 20
3.32966
 30
0.0
 10
-16.72339
 20
3.32966
 30
0.0
 10
-16.75296
 20
3.32966
 30
0.0
 10
-16.75296
 20
3.32966
 30
0.0
 10
-16.75296
 20
3.32966
 30
0.0
 10
-16.75296
 20
3.32966
 30
0.0
 10
-16.75296
 20
3.49182
 30
0.0
 10
-16.75296
 20
3.49182
 30
0.0
 10
-16.75296
 20
3.49182
 30
0.0
 10
-16.75296
 20
3.49182
 30
0.0
 10
-16.72905
 20
3.49182
 30
0.0
 10
-16.72905
 20
3.49182
 30
0.0
 10
-16.72905
 20
3.49182
 30
0.0
 10
-16.71207
 20
3.4759
 30
0.0
 10
-16.6895
 20
3.46009
 30
0.0
 10
-16.66138
 20
3.4444
 30
0.0
 10
-16.66138
 20
3.4444
 30
0.0
 10
-16.63326
 20
3.42876
 30
0.0
 10
-16.60427
 20
3.41663
 30
0.0
 10
-16.57458
 20
3.40811
 30
0.0
 10
-16.57458
 20
3.40811
 30
0.0
 10
-16.55358
 20
3.40193
 30
0.0
 10
-16.53066
 20
3.39802
 30
0.0
 10
-16.50569
 20
3.39633
 30
0.0
 10
-16.50569
 20
3.39633
 30
0.0
 10
-16.50569
 20
3.39633
 30
0.0
 10
-16.50569
 20
3.36471
 30
0.0
 10
-16.50569
 20
3.36471
 30
0.0
 10
-16.50569
 20
3.36471
 30
0.0
 10
-16.52541
 20
3.36506
 30
0.0
 10
-16.54921
 20
3.36891
 30
0.0
 10
-16.57715
 20
3.37632
 30
0.0
 10
-16.57715
 20
3.37632
 30
0.0
 10
-16.60503
 20
3.38373
 30
0.0
 10
-16.63198
 20
3.39435
 30
0.0
 10
-16.65788
 20
3.40817
 30
0.0
 10
-16.65788
 20
3.40817
 30
0.0
 10
-16.68378
 20
3.42206
 30
0.0
 10
-16.70566
 20
3.43676
 30
0.0
 10
-16.72339
 20
3.45239
 30
0.0
 10
-16.72339
 20
3.45239
 30
0.0
 10
-16.72339
 20
3.45239
 30
0.0
 10
-16.72339
 20
3.32966
 30
0.0
 10
-16.72339
 20
3.32966
 30
0.0
  0
SPLINE
  5
FE
330
1F
100
AcDbEntity
  8
0
100
AcDbSpline
210
0.0
220
0.0
230
1.0
 70
    11
 71
     3
 72
    20
 73
    16
 74
     0
 42
0.0000000001
 43
0.0000000001
 40
0.0
 40
0.0
 40
0.0
 40
0.0
 40
0.2
 40
0.2
 40
0.2
 40
0.2
 40
0.4
 40
0.4
 40
0.4
 40
0.4
 40
0.6
 40
0.6
 40
0.6
 40
0.6
 40
1.0
 40
1.0
 40
1.0
 40
1.0
 10
-16.50569
 20
3.53954
 30
0.0
 10
-16.50569
 20
3.53954
 30
0.0
 10
-16.54075
 20
3.53954
 30
0.0
 10
-16.54075
 20
3.53954
 30
0.0
 10
-16.54075
 20
3.53954
 30
0.0
 10
-16.54075
 20
3.53954
 30
0.0
 10
-16.54075
 20
3.5746
 30
0.0
 10
-16.54075
 20
3.5746
 30
0.0
 10
-16.54075
 20
3.5746
 30
0.0
 10
-16.54075
 20
3.5746
 30
0.0
 10
-16.50569
 20
3.5746
 30
0.0
 10
-16.50569
 20
3.5746
 30
0.0
 10
-16.50569
 20
3.5746
 30
0.0
 10
-16.50569
 20
3.5746
 30
0.0
 10
-16.50569
 20
3.53954
 30
0.0
 10
-16.50569
 20
3.53954
 30
0.0
  0
SPLINE
  5
FF
330
1F
100
AcDbEntity
  8
0
100
AcDbSpline
210
0.0
220
0.0
230
1.0
 70
    11
 71
     3
 72
    92
 73
    88
 74
     0
 42
0.0000000001
 43
0.0000000001
 40
0.0
 40
0.0
 40
0.0
 40
0.0
 40
0.0434782608695652
 40
0.0434782608695652
 40
0.0434782608695652
 40
0.0434782608695652
 40
0.0869565217391304
 40
0.0869565217391304
 40
0.0869565217391304
 40
0.0869565217391304
 40
0.1304347826086956
 40
0.1304347826086956
 40
0.1304347826086956
 40
0.1304347826086956
 40
0.1739130434782609
 40
0.1739130434782609
 40
0.1739130434782609
 40
0.1739130434782609
 40
0.2173913043478261
 40
0.2173913043478261
 40
0.2173913043478261
 40
0.2173913043478261
 40
0.2608695652173913
 40
0.2608695652173913
 40
0.2608695652173913
 40
0.2608695652173913
 40
0.3043478260869565
 40
0.3043478260869565
 40
0.3043478260869565
 40
0.3043478260869565
 40
0.3478260869565217
 40
0.3478260869565217
 40
0.3478260869565217
 40
0.3478260869565217
 40
0.391304347826087
 40
0.391304347826087
 40
0.391304347826087
 40
0.391304347826087
 40
0.4347826086956522
 40
0.4347826086956522
 40
0.4347826086956522
 40
0.4347826086956522
 40
0.4782608695652174
 40
0.4782608695652174
 40
0.4782608695652174
 40
0.4782608695652174
 40
0.5217391304347826
 40
0.5217391304347826
 40
0.5217391304347826
 40
0.5217391304347826
 40
0.5652173913043478
 40
0.5652173913043478
 40
0.5652173913043478
 40
0.5652173913043478
 40
0.6086956521739131
 40
0.6086956521739131
 40
0.6086956521739131
 40
0.6086956521739131
 40
0.6521739130434783
 40
0.6521739130434783
 40
0.6521739130434783
 40
0.6521739130434783
 40
0.6956521739130435
 40
0.6956521739130435
 40
0.6956521739130435
 40
0.6956521739130435
 40
0.7391304347826086
 40
0.7391304347826086
 40
0.7391304347826086
 40
0.7391304347826086
 40
0.782608695652174
 40
0.782608695652174
 40
0.782608695652174
 40
0.782608695652174
 40
0.8260869565217391
 40
0.8260869565217391
 40
0.8260869565217391
 40
0.8260869565217391
 40
0.8695652173913043
 40
0.8695652173913043
 40
0.8695652173913043
 40
0.8695652173913043
 40
0.9130434782608695
 40
0.9130434782608695
 40
0.9130434782608695
 40
0.9130434782608695
 40
1.0
 40
1.0
 40
1.0
 40
1.0
 10
-16.57131
 20
3.61951
 30
0.0
 10
-16.57131
 20
3.61951
 30
0.0
 10
-16.57406
 20
3.65183
 30
0.0
 10
-16.57406
 20
3.65183
 30
0.0
 10
-16.57406
 20
3.65183
 30
0.0
 10
-16.55831
 20
3.65422
 30
0.0
 10
-16.54652
 20
3.65976
 30
0.0
 10
-16.53859
 20
3.66846
 30
0.0
 10
-16.53859
 20
3.66846
 30
0.0
 10
-16.53066
 20
3.67721
 30
0.0
 10
-16.52669
 20
3.68771
 30
0.0
 10
-16.52669
 20
3.70001
 30
0.0
 10
-16.52669
 20
3.70001
 30
0.0
 10
-16.52669
 20
3.71483
 30
0.0
 10
-16.53229
 20
3.72737
 30
0.0
 10
-16.54343
 20
3.73758
 30
0.0
 10
-16.54343
 20
3.73758
 30
0.0
 10
-16.55463
 20
3.74785
 30
0.0
 10
-16.56945
 20
3.75298
 30
0.0
 10
-16.58788
 20
3.75298
 30
0.0
 10
-16.58788
 20
3.75298
 30
0.0
 10
-16.60544
 20
3.75298
 30
0.0
 10
-16.61926
 20
3.74808
 30
0.0
 10
-16.62941
 20
3.73822
 30
0.0
 10
-16.62941
 20
3.73822
 30
0.0
 10
-16.63956
 20
3.72836
 30
0.0
 10
-16.64464
 20
3.71547
 30
0.0
 10
-16.64464
 20
3.69949
 30
0.0
 10
-16.64464
 20
3.69949
 30
0.0
 10
-16.64464
 20
3.68957
 30
0.0
 10
-16.64236
 20
3.68065
 30
0.0
 10
-16.63787
 20
3.67266
 30
0.0
 10
-16.63787
 20
3.67266
 30
0.0
 10
-16.63338
 20
3.66466
 30
0.0
 10
-16.62755
 20
3.65842
 30
0.0
 10
-16.62037
 20
3.65387
 30
0.0
 10
-16.62037
 20
3.65387
 30
0.0
 10
-16.62037
 20
3.65387
 30
0.0
 10
-16.62411
 20
3.625
 30
0.0
 10
-16.62411
 20
3.625
 30
0.0
 10
-16.62411
 20
3.625
 30
0.0
 10
-16.62411
 20
3.625
 30
0.0
 10
-16.75279
 20
3.64926
 30
0.0
 10
-16.75279
 20
3.64926
 30
0.0
 10
-16.75279
 20
3.64926
 30
0.0
 10
-16.75279
 20
3.64926
 30
0.0
 10
-16.75279
 20
3.77386
 30
0.0
 10
-16.75279
 20
3.77386
 30
0.0
 10
-16.75279
 20
3.77386
 30
0.0
 10
-16.75279
 20
3.77386
 30
0.0
 10
-16.72339
 20
3.77386
 30
0.0
 10
-16.72339
 20
3.77386
 30
0.0
 10
-16.72339
 20
3.77386
 30
0.0
 10
-16.72339
 20
3.77386
 30
0.0
 10
-16.72339
 20
3.67388
 30
0.0
 10
-16.72339
 20
3.67388
 30
0.0
 10
-16.72339
 20
3.67388
 30
0.0
 10
-16.72339
 20
3.67388
 30
0.0
 10
-16.65607
 20
3.66035
 30
0.0
 10
-16.65607
 20
3.66035
 30
0.0
 10
-16.65607
 20
3.66035
 30
0.0
 10
-16.66657
 20
3.6754
 30
0.0
 10
-16.67182
 20
3.69121
 30
0.0
 10
-16.67182
 20
3.70771
 30
0.0
 10
-16.67182
 20
3.70771
 30
0.0
 10
-16.67182
 20
3.72959
 30
0.0
 10
-16.66424
 20
3.74802
 30
0.0
 10
-16.64907
 20
3.76307
 30
0.0
 10
-16.64907
 20
3.76307
 30
0.0
 10
-16.63391
 20
3.77812
 30
0.0
 10
-16.61442
 20
3.78565
 30
0.0
 10
-16.59062
 20
3.78565
 30
0.0
 10
-16.59062
 20
3.78565
 30
0.0
 10
-16.56793
 20
3.78565
 30
0.0
 10
-16.54833
 20
3.779
 30
0.0
 10
-16.53182
 20
3.76581
 30
0.0
 10
-16.53182
 20
3.76581
 30
0.0
 10
-16.51158
 20
3.74971
 30
0.0
 10
-16.50143
 20
3.72778
 30
0.0
 10
-16.50143
 20
3.70001
 30
0.0
 10
-16.50143
 20
3.70001
 30
0.0
 10
-16.50143
 20
3.67721
 30
0.0
 10
-16.50779
 20
3.6586
 30
0.0
 10
-16.52056
 20
3.64419
 30
0.0
 10
-16.52056
 20
3.64419
 30
0.0
 10
-16.53334
 20
3.62978
 30
0.0
 10
-16.55026
 20
3.62156
 30
0.0
 10
-16.57131
 20
3.61951
 30
0.0
  0
SPLINE
  5
100
330
1F
100
AcDbEntity
  8
0
100
AcDbSpline
210
0.0
220
0.0
230
1.0
 70
    11
 71
     3
 72
    52
 73
    48
 74
     0
 42
0.0000000001
 43
0.0000000001
 40
0.0
 40
0.0
 40
0.0
 40
0.0
 40
0.0769230769230769
 40
0.0769230769230769
 40
0.0769230769230769
 40
0.0769230769230769
 40
0.1538461538461539
 40
0.1538461538461539
 40
0.1538461538461539
 40
0.1538461538461539
 40
0.2307692307692308
 40
0.2307692307692308
 40
0.2307692307692308
 40
0.2307692307692308
 40
0.3076923076923077
 40
0.3076923076923077
 40
0.3076923076923077
 40
0.3076923076923077
 40
0.3846153846153846
 40
0.3846153846153846
 40
0.3846153846153846
 40
0.3846153846153846
 40
0.4615384615384616
 40
0.4615384615384616
 40
0.4615384615384616
 40
0.4615384615384616
 40
0.5384615384615384
 40
0.5384615384615384
 40
0.5384615384615384
 40
0.5384615384615384
 40
0.6153846153846154
 40
0.6153846153846154
 40
0.6153846153846154
 40
0.6153846153846154
 40
0.6923076923076923
 40
0.6923076923076923
 40
0.6923076923076923
 40
0.6923076923076923
 40
0.7692307692307693
 40
0.7692307692307693
 40
0.7692307692307693
 40
0.7692307692307693
 40
0.8461538461538461
 40
0.8461538461538461
 40
0.8461538461538461
 40
0.8461538461538461
 40
1.0
 40
1.0
 40
1.0
 40
1.0
 10
-16.62924
 20
3.81417
 30
0.0
 10
-16.65887
 20
3.81417
 30
0.0
 10
-16.68273
 20
3.81721
 30
0.0
 10
-16.70076
 20
3.82333
 30
0.0
 10
-16.70076
 20
3.82333
 30
0.0
 10
-16.71884
 20
3.8294
 30
0.0
 10
-16.73278
 20
3.8385
 30
0.0
 10
-16.74258
 20
3.85052
 30
0.0
 10
-16.74258
 20
3.85052
 30
0.0
 10
-16.75238
 20
3.86253
 30
0.0
 10
-16.75722
 20
3.87764
 30
0.0
 10
-16.75722
 20
3.89584
 30
0.0
 10
-16.75722
 20
3.89584
 30
0.0
 10
-16.75722
 20
3.90932
 30
0.0
 10
-16.75454
 20
3.9211
 30
0.0
 10
-16.74911
 20
3.93125
 30
0.0
 10
-16.74911
 20
3.93125
 30
0.0
 10
-16.74375
 20
3.9414
 30
0.0
 10
-16.73593
 20
3.94974
 30
0.0
 10
-16.72572
 20
3.95639
 30
0.0
 10
-16.72572
 20
3.95639
 30
0.0
 10
-16.71551
 20
3.96298
 30
0.0
 10
-16.70309
 20
3.96817
 30
0.0
 10
-16.68845
 20
3.97191
 30
0.0
 10
-16.68845
 20
3.97191
 30
0.0
 10
-16.67381
 20
3.9757
 30
0.0
 10
-16.65409
 20
3.97757
 30
0.0
 10
-16.62924
 20
3.97757
 30
0.0
 10
-16.62924
 20
3.97757
 30
0.0
 10
-16.59984
 20
3.97757
 30
0.0
 10
-16.57616
 20
3.97453
 30
0.0
 10
-16.55807
 20
3.96852
 30
0.0
 10
-16.55807
 20
3.96852
 30
0.0
 10
-16.53999
 20
3.96246
 30
0.0
 10
-16.52605
 20
3.95342
 30
0.0
 10
-16.51619
 20
3.9414
 30
0.0
 10
-16.51619
 20
3.9414
 30
0.0
 10
-16.50633
 20
3.92938
 30
0.0
 10
-16.50143
 20
3.91422
 30
0.0
 10
-16.50143
 20
3.89584
 30
0.0
 10
-16.50143
 20
3.89584
 30
0.0
 10
-16.50143
 20
3.87169
 30
0.0
 10
-16.51006
 20
3.85273
 30
0.0
 10
-16.52739
 20
3.83897
 30
0.0
 10
-16.52739
 20
3.83897
 30
0.0
 10
-16.54821
 20
3.82246
 30
0.0
 10
-16.58222
 20
3.81417
 30
0.0
 10
-16.62924
 20
3.81417
 30
0.0
  0
SPLINE
  5
101
330
1F
100
AcDbEntity
  8
0
100
AcDbSpline
210
0.0
220
0.0
230
1.0
 70
    11
 71
     3
 72
    36
 73
    32
 74
     0
 42
0.0000000001
 43
0.0000000001
 40
0.0
 40
0.0
 40
0.0
 40
0.0
 40
0.1111111111111111
 40
0.1111111111111111
 40
0.1111111111111111
 40
0.1111111111111111
 40
0.2222222222222222
 40
0.2222222222222222
 40
0.2222222222222222
 40
0.2222222222222222
 40
0.3333333333333333
 40
0.3333333333333333
 40
0.3333333333333333
 40
0.3333333333333333
 40
0.4444444444444444
 40
0.4444444444444444
 40
0.4444444444444444
 40
0.4444444444444444
 40
0.5555555555555556
 40
0.5555555555555556
 40
0.5555555555555556
 40
0.5555555555555556
 40
0.6666666666666666
 40
0.6666666666666666
 40
0.6666666666666666
 40
0.6666666666666666
 40
0.7777777777777778
 40
0.7777777777777778
 40
0.7777777777777778
 40
0.7777777777777778
 40
1.0
 40
1.0
 40
1.0
 40
1.0
 10
-16.62924
 20
3.84579
 30
0.0
 10
-16.58811
 20
3.84579
 30
0.0
 10
-16.56076
 20
3.85063
 30
0.0
 10
-16.54711
 20
3.86026
 30
0.0
 10
-16.54711
 20
3.86026
 30
0.0
 10
-16.53351
 20
3.86988
 30
0.0
 10
-16.52669
 20
3.88172
 30
0.0
 10
-16.52669
 20
3.89584
 30
0.0
 10
-16.52669
 20
3.89584
 30
0.0
 10
-16.52669
 20
3.91002
 30
0.0
 10
-16.53357
 20
3.92186
 30
0.0
 10
-16.54722
 20
3.93148
 30
0.0
 10
-16.54722
 20
3.93148
 30
0.0
 10
-16.56087
 20
3.94111
 30
0.0
 10
-16.58823
 20
3.94595
 30
0.0
 10
-16.62924
 20
3.94595
 30
0.0
 10
-16.62924
 20
3.94595
 30
0.0
 10
-16.67048
 20
3.94595
 30
0.0
 10
-16.6979
 20
3.94111
 30
0.0
 10
-16.71143
 20
3.93148
 30
0.0
 10
-16.71143
 20
3.93148
 30
0.0
 10
-16.72502
 20
3.92186
 30
0.0
 10
-16.73179
 20
3.9099
 30
0.0
 10
-16.73179
 20
3.89555
 30
0.0
 10
-16.73179
 20
3.89555
 30
0.0
 10
-16.73179
 20
3.88137
 30
0.0
 10
-16.72578
 20
3.87012
 30
0.0
 10
-16.71382
 20
3.86166
 30
0.0
 10
-16.71382
 20
3.86166
 30
0.0
 10
-16.6986
 20
3.8511
 30
0.0
 10
-16.67036
 20
3.84579
 30
0.0
 10
-16.62924
 20
3.84579
 30
0.0
  0
SPLINE
  5
102
330
1F
100
AcDbEntity
  8
0
100
AcDbSpline
210
0.0
220
0.0
230
1.0
 70
    27
 71
     3
 72
    12
 73
     8
 74
     0
 42
0.0000000001
 43
0.0000000001
 40
0.0
 40
0.0
 40
0.0
 40
0.0
 40
0.3333333333333333
 40
0.3333333333333333
 40
0.3333333333333333
 40
0.3333333333333333
 40
1.0
 40
1.0
 40
1.0
 40
1.0
 10
-5.43442
 20
3.02572
 30
0.0
 10
-5.43442
 20
3.02572
 30
0.0
 10
-5.48522
 20
3.35592
 30
0.0
 10
-5.48522
 20
3.35592
 30
0.0
 10
-5.48522
 20
3.35592
 30
0.0
 10
-5.48522
 20
3.35592
 30
0.0
 10
-5.43442
 20
3.02572
 30
0.0
 10
-5.43442
 20
3.02572
 30
0.0
  0
SPLINE
  5
103
330
1F
100
AcDbEntity
  8
0
100
AcDbSpline
210
0.0
220
0.0
230
1.0
 70
     8
 71
     3
 72
    12
 73
     8
 74
     0
 42
0.0000000001
 43
0.0000000001
 40
0.0
 40
0.0
 40
0.0
 40
0.0
 40
0.3333333333333333
 40
0.3333333333333333
 40
0.3333333333333333
 40
0.3333333333333333
 40
1.0
 40
1.0
 40
1.0
 40
1.0
 10
-5.48522
 20
3.35592
 30
0.0
 10
-5.48522
 20
3.35592
 30
0.0
 10
-5.38362
 20
3.35592
 30
0.0
 10
-5.38362
 20
3.35592
 30
0.0
 10
-5.38362
 20
3.35592
 30
0.0
 10
-5.38362
 20
3.35592
 30
0.0
 10
-5.43442
 20
3.02572
 30
0.0
 10
-5.43442
 20
3.02572
 30
0.0
  0
SPLINE
  5
104
330
1F
100
AcDbEntity
  8
0
370
     9
100
AcDbSpline
210
0.0
220
0.0
230
1.0
 70
    24
 71
     3
 72
     8
 73
     4
 74
     0
 42
0.0000000001
 43
0.0000000001
 40
0.0
 40
0.0
 40
0.0
 40
0.0
 40
1.0
 40
1.0
 40
1.0
 40
1.0
 10
-5.43442
 20
3.02572
 30
0.0
 10
-5.43442
 20
3.02572
 30
0.0
 10
-5.48522
 20
3.35592
 30
0.0
 10
-5.48522
 20
3.35592
 30
0.0
  0
SPLINE
  5
105
330
1F
100
AcDbEntity
  8
0
370
     9
100
AcDbSpline
210
0.0
220
0.0
230
1.0
 70
     8
 71
     3
 72
    12
 73
     8
 74
     0
 42
0.0000000001
 43
0.0000000001
 40
0.0
 40
0.0
 40
0.0
 40
0.0
 40
0.3333333333333333
 40
0.3333333333333333
 40
0.3333333333333333
 40
0.3333333333333333
 40
1.0
 40
1.0
 40
1.0
 40
1.0
 10
-5.48522
 20
3.35592
 30
0.0
 10
-5.48522
 20
3.35592
 30
0.0
 10
-5.38362
 20
3.35592
 30
0.0
 10
-5.38362
 20
3.35592
 30
0.0
 10
-5.38362
 20
3.35592
 30
0.0
 10
-5.38362
 20
3.35592
 30
0.0
 10
-5.43442
 20
3.02572
 30
0.0
 10
-5.43442
 20
3.02572
 30
0.0
  0
SPLINE
  5
106
330
1F
100
AcDbEntity
  8
0
100
AcDbSpline
210
0.0
220
0.0
230
1.0
 70
    27
 71
     3
 72
    12
 73
     8
 74
     0
 42
0.0000000001
 43
0.0000000001
 40
0.0
 40
0.0
 40
0.0
 40
0.0
 40
0.3333333333333333
 40
0.3333333333333333
 40
0.3333333333333333
 40
0.3333333333333333
 40
1.0
 40
1.0
 40
1.0
 40
1.0
 10
-5.43442
 20
2.42572
 30
0.0
 10
-5.43442
 20
2.42572
 30
0.0
 10
-5.38362
 20
2.09552
 30
0.0
 10
-5.38362
 20
2.09552
 30
0.0
 10
-5.38362
 20
2.09552
 30
0.0
 10
-5.38362
 20
2.09552
 30
0.0
 10
-5.43442
 20
2.42572
 30
0.0
 10
-5.43442
 20
2.42572
 30
0.0
  0
SPLINE
  5
107
330
1F
100
AcDbEntity
  8
0
100
AcDbSpline
210
0.0
220
0.0
230
1.0
 70
     8
 71
     3
 72
    12
 73
     8
 74
     0
 42
0.0000000001
 43
0.0000000001
 40
0.0
 40
0.0
 40
0.0
 40
0.0
 40
0.3333333333333333
 40
0.3333333333333333
 40
0.3333333333333333
 40
0.3333333333333333
 40
1.0
 40
1.0
 40
1.0
 40
1.0
 10
-5.38362
 20
2.09552
 30
0.0
 10
-5.38362
 20
2.09552
 30
0.0
 10
-5.48522
 20
2.09552
 30
0.0
 10
-5.48522
 20
2.09552
 30
0.0
 10
-5.48522
 20
2.09552
 30
0.0
 10
-5.48522
 20
2.09552
 30
0.0
 10
-5.43442
 20
2.42572
 30
0.0
 10
-5.43442
 20
2.42572
 30
0.0
  0
SPLINE
  5
108
330
1F
100
AcDbEntity
  8
0
370
     9
100
AcDbSpline
210
0.0
220
0.0
230
1.0
 70
    24
 71
     3
 72
     8
 73
     4
 74
     0
 42
0.0000000001
 43
0.0000000001
 40
0.0
 40
0.0
 40
0.0
 40
0.0
 40
1.0
 40
1.0
 40
1.0
 40
1.0
 10
-5.43442
 20
2.42572
 30
0.0
 10
-5.43442
 20
2.42572
 30
0.0
 10
-5.38362
 20
2.09552
 30
0.0
 10
-5.38362
 20
2.09552
 30
0.0
  0
SPLINE
  5
109
330
1F
100
AcDbEntity
  8
0
370
     9
100
AcDbSpline
210
0.0
220
0.0
230
1.0
 70
     8
 71
     3
 72
    12
 73
     8
 74
     0
 42
0.0000000001
 43
0.0000000001
 40
0.0
 40
0.0
 40
0.0
 40
0.0
 40
0.3333333333333333
 40
0.3333333333333333
 40
0.3333333333333333
 40
0.3333333333333333
 40
1.0
 40
1.0
 40
1.0
 40
1.0
 10
-5.38362
 20
2.09552
 30
0.0
 10
-5.38362
 20
2.09552
 30
0.0
 10
-5.48522
 20
2.09552
 30
0.0
 10
-5.48522
 20
2.09552
 30
0.0
 10
-5.48522
 20
2.09552
 30
0.0
 10
-5.48522
 20
2.09552
 30
0.0
 10
-5.43442
 20
2.42572
 30
0.0
 10
-5.43442
 20
2.42572
 30
0.0
  0
SPLINE
  5
10A
330
1F
100
AcDbEntity
  8
0
370
     9
100
AcDbSpline
210
0.0
220
0.0
230
1.0
 70
    24
 71
     3
 72
     8
 73
     4
 74
     0
 42
0.0000000001
 43
0.0000000001
 40
0.0
 40
0.0
 40
0.0
 40
0.0
 40
1.0
 40
1.0
 40
1.0
 40
1.0
 10
-6.33261
 20
3.02572
 30
0.0
 10
-6.33261
 20
3.02572
 30
0.0
 10
-5.33442
 20
3.02572
 30
0.0
 10
-5.33442
 20
3.02572
 30
0.0
  0
SPLINE
  5
10B
330
1F
100
AcDbEntity
  8
0
370
     9
100
AcDbSpline
210
0.0
220
0.0
230
1.0
 70
    24
 71
     3
 72
     8
 73
     4
 74
     0
 42
0.0000000001
 43
0.0000000001
 40
0.0
 40
0.0
 40
0.0
 40
0.0
 40
1.0
 40
1.0
 40
1.0
 40
1.0
 10
-6.33261
 20
2.42572
 30
0.0
 10
-6.33261
 20
2.42572
 30
0.0
 10
-5.33442
 20
2.42572
 30
0.0
 10
-5.33442
 20
2.42572
 30
0.0
  0
SPLINE
  5
10C
330
1F
100
AcDbEntity
  8
0
370
     9
100
AcDbSpline
210
0.0
220
0.0
230
1.0
 70
    24
 71
     3
 72
     8
 73
     4
 74
     0
 42
0.0000000001
 43
0.0000000001
 40
0.0
 40
0.0
 40
0.0
 40
0.0
 40
1.0
 40
1.0
 40
1.0
 40
1.0
 10
-5.43442
 20
3.02572
 30
0.0
 10
-5.43442
 20
3.02572
 30
0.0
 10
-5.43442
 20
3.66072
 30
0.0
 10
-5.43442
 20
3.66072
 30
0.0
  0
SPLINE
  5
10D
330
1F
100
AcDbEntity
  8
0
370
     9
100
AcDbSpline
210
0.0
220
0.0
230
1.0
 70
    24
 71
     3
 72
     8
 73
     4
 74
     0
 42
0.0000000001
 43
0.0000000001
 40
0.0
 40
0.0
 40
0.0
 40
0.0
 40
1.0
 40
1.0
 40
1.0
 40
1.0
 10
-5.43442
 20
3.02572
 30
0.0
 10
-5.43442
 20
3.02572
 30
0.0
 10
-5.43442
 20
2.42572
 30
0.0
 10
-5.43442
 20
2.42572
 30
0.0
  0
SPLINE
  5
10E
330
1F
100
AcDbEntity
  8
0
370
     9
100
AcDbSpline
210
0.0
220
0.0
230
1.0
 70
    24
 71
     3
 72
     8
 73
     4
 74
     0
 42
0.0000000001
 43
0.0000000001
 40
0.0
 40
0.0
 40
0.0
 40
0.0
 40
1.0
 40
1.0
 40
1.0
 40
1.0
 10
-5.43442
 20
2.42572
 30
0.0
 10
-5.43442
 20
2.42572
 30
0.0
 10
-5.43442
 20
0.66077
 30
0.0
 10
-5.43442
 20
0.66077
 30
0.0
  0
SPLINE
  5
10F
330
1F
100
AcDbEntity
  8
0
100
AcDbSpline
210
0.0
220
0.0
230
1.0
 70
    11
 71
     3
 72
    84
 73
    80
 74
     0
 42
0.0000000001
 43
0.0000000001
 40
0.0
 40
0.0
 40
0.0
 40
0.0
 40
0.0476190476190476
 40
0.0476190476190476
 40
0.0476190476190476
 40
0.0476190476190476
 40
0.0952380952380952
 40
0.0952380952380952
 40
0.0952380952380952
 40
0.0952380952380952
 40
0.1428571428571428
 40
0.1428571428571428
 40
0.1428571428571428
 40
0.1428571428571428
 40
0.1904761904761905
 40
0.1904761904761905
 40
0.1904761904761905
 40
0.1904761904761905
 40
0.2380952380952381
 40
0.2380952380952381
 40
0.2380952380952381
 40
0.2380952380952381
 40
0.2857142857142857
 40
0.2857142857142857
 40
0.2857142857142857
 40
0.2857142857142857
 40
0.3333333333333333
 40
0.3333333333333333
 40
0.3333333333333333
 40
0.3333333333333333
 40
0.3809523809523809
 40
0.3809523809523809
 40
0.3809523809523809
 40
0.3809523809523809
 40
0.4285714285714285
 40
0.4285714285714285
 40
0.4285714285714285
 40
0.4285714285714285
 40
0.4761904761904762
 40
0.4761904761904762
 40
0.4761904761904762
 40
0.4761904761904762
 40
0.5238095238095238
 40
0.5238095238095238
 40
0.5238095238095238
 40
0.5238095238095238
 40
0.5714285714285714
 40
0.5714285714285714
 40
0.5714285714285714
 40
0.5714285714285714
 40
0.6190476190476191
 40
0.6190476190476191
 40
0.6190476190476191
 40
0.6190476190476191
 40
0.6666666666666666
 40
0.6666666666666666
 40
0.6666666666666666
 40
0.6666666666666666
 40
0.7142857142857143
 40
0.7142857142857143
 40
0.7142857142857143
 40
0.7142857142857143
 40
0.7619047619047619
 40
0.7619047619047619
 40
0.7619047619047619
 40
0.7619047619047619
 40
0.8095238095238095
 40
0.8095238095238095
 40
0.8095238095238095
 40
0.8095238095238095
 40
0.8571428571428571
 40
0.8571428571428571
 40
0.8571428571428571
 40
0.8571428571428571
 40
0.9047619047619048
 40
0.9047619047619048
 40
0.9047619047619048
 40
0.9047619047619048
 40
1.0
 40
1.0
 40
1.0
 40
1.0
 10
-5.79634
 20
0.87439
 30
0.0
 10
-5.79634
 20
0.87439
 30
0.0
 10
-5.82848
 20
0.90309
 30
0.0
 10
-5.82848
 20
0.90309
 30
0.0
 10
-5.82848
 20
0.90309
 30
0.0
 10
-5.82848
 20
0.90309
 30
0.0
 10
-5.81413
 20
0.92
 30
0.0
 10
-5.81413
 20
0.92
 30
0.0
 10
-5.81413
 20
0.92
 30
0.0
 10
-5.81413
 20
0.92
 30
0.0
 10
-5.78029
 20
0.88996
 30
0.0
 10
-5.78029
 20
0.88996
 30
0.0
 10
-5.78029
 20
0.88996
 30
0.0
 10
-5.76571
 20
0.89976
 30
0.0
 10
-5.75294
 20
0.90635
 30
0.0
 10
-5.74203
 20
0.90979
 30
0.0
 10
-5.74203
 20
0.90979
 30
0.0
 10
-5.72768
 20
0.91434
 30
0.0
 10
-5.71158
 20
0.91662
 30
0.0
 10
-5.69384
 20
0.91662
 30
0.0
 10
-5.69384
 20
0.91662
 30
0.0
 10
-5.66818
 20
0.91662
 30
0.0
 10
-5.64531
 20
0.91143
 30
0.0
 10
-5.6253
 20
0.90104
 30
0.0
 10
-5.6253
 20
0.90104
 30
0.0
 10
-5.60524
 20
0.89066
 30
0.0
 10
-5.59007
 20
0.87614
 30
0.0
 10
-5.5798
 20
0.85741
 30
0.0
 10
-5.5798
 20
0.85741
 30
0.0
 10
-5.56959
 20
0.83863
 30
0.0
 10
-5.56446
 20
0.81874
 30
0.0
 10
-5.56446
 20
0.79768
 30
0.0
 10
-5.56446
 20
0.79768
 30
0.0
 10
-5.56446
 20
0.78193
 30
0.0
 10
-5.56668
 20
0.76769
 30
0.0
 10
-5.57111
 20
0.75492
 30
0.0
 10
-5.57111
 20
0.75492
 30
0.0
 10
-5.57455
 20
0.74512
 30
0.0
 10
-5.58109
 20
0.73369
 30
0.0
 10
-5.59077
 20
0.72056
 30
0.0
 10
-5.59077
 20
0.72056
 30
0.0
 10
-5.59077
 20
0.72056
 30
0.0
 10
-5.55863
 20
0.69186
 30
0.0
 10
-5.55863
 20
0.69186
 30
0.0
 10
-5.55863
 20
0.69186
 30
0.0
 10
-5.55863
 20
0.69186
 30
0.0
 10
-5.57298
 20
0.67494
 30
0.0
 10
-5.57298
 20
0.67494
 30
0.0
 10
-5.57298
 20
0.67494
 30
0.0
 10
-5.57298
 20
0.67494
 30
0.0
 10
-5.60664
 20
0.70504
 30
0.0
 10
-5.60664
 20
0.70504
 30
0.0
 10
-5.60664
 20
0.70504
 30
0.0
 10
-5.62361
 20
0.69384
 30
0.0
 10
-5.63814
 20
0.68638
 30
0.0
 10
-5.65015
 20
0.68264
 30
0.0
 10
-5.65015
 20
0.68264
 30
0.0
 10
-5.66217
 20
0.67891
 30
0.0
 10
-5.67664
 20
0.67699
 30
0.0
 10
-5.69349
 20
0.67699
 30
0.0
 10
-5.69349
 20
0.67699
 30
0.0
 10
-5.71922
 20
0.67699
 30
0.0
 10
-5.74214
 20
0.68212
 30
0.0
 10
-5.76227
 20
0.69239
 30
0.0
 10
-5.76227
 20
0.69239
 30
0.0
 10
-5.78239
 20
0.70265
 30
0.0
 10
-5.79762
 20
0.717
 30
0.0
 10
-5.808
 20
0.73555
 30
0.0
 10
-5.808
 20
0.73555
 30
0.0
 10
-5.81833
 20
0.75404
 30
0.0
 10
-5.82352
 20
0.77464
 30
0.0
 10
-5.82352
 20
0.79733
 30
0.0
 10
-5.82352
 20
0.79733
 30
0.0
 10
-5.82352
 20
0.81261
 30
0.0
 10
-5.82154
 20
0.82597
 30
0.0
 10
-5.81745
 20
0.8374
 30
0.0
 10
-5.81745
 20
0.8374
 30
0.0
 10
-5.81343
 20
0.84884
 30
0.0
 10
-5.80637
 20
0.8612
 30
0.0
 10
-5.79634
 20
0.87439
 30
0.0
  0
SPLINE
  5
110
330
1F
100
AcDbEntity
  8
0
100
AcDbSpline
210
0.0
220
0.0
230
1.0
 70
    11
 71
     3
 72
    32
 73
    28
 74
     0
 42
0.0000000001
 43
0.0000000001
 40
0.0
 40
0.0
 40
0.0
 40
0.0
 40
0.125
 40
0.125
 40
0.125
 40
0.125
 40
0.25
 40
0.25
 40
0.25
 40
0.25
 40
0.375
 40
0.375
 40
0.375
 40
0.375
 40
0.5
 40
0.5
 40
0.5
 40
0.5
 40
0.625
 40
0.625
 40
0.625
 40
0.625
 40
0.75
 40
0.75
 40
0.75
 40
0.75
 40
1.0
 40
1.0
 40
1.0
 40
1.0
 10
-5.77329
 20
0.85391
 30
0.0
 10
-5.78169
 20
0.84318
 30
0.0
 10
-5.78747
 20
0.83379
 30
0.0
 10
-5.79056
 20
0.82579
 30
0.0
 10
-5.79056
 20
0.82579
 30
0.0
 10
-5.79359
 20
0.81774
 30
0.0
 10
-5.79517
 20
0.80829
 30
0.0
 10
-5.79517
 20
0.7975
 30
0.0
 10
-5.79517
 20
0.7975
 30
0.0
 10
-5.79517
 20
0.77254
 30
0.0
 10
-5.78671
 20
0.75194
 30
0.0
 10
-5.76979
 20
0.73561
 30
0.0
 10
-5.76979
 20
0.73561
 30
0.0
 10
-5.75288
 20
0.71934
 30
0.0
 10
-5.72762
 20
0.71117
 30
0.0
 10
-5.69396
 20
0.71117
 30
0.0
 10
-5.69396
 20
0.71117
 30
0.0
 10
-5.68078
 20
0.71117
 30
0.0
 10
-5.66905
 20
0.71245
 30
0.0
 10
-5.65879
 20
0.71496
 30
0.0
 10
-5.65879
 20
0.71496
 30
0.0
 10
-5.65114
 20
0.71677
 30
0.0
 10
-5.64175
 20
0.72056
 30
0.0
 10
-5.63061
 20
0.72639
 30
0.0
 10
-5.63061
 20
0.72639
 30
0.0
 10
-5.63061
 20
0.72639
 30
0.0
 10
-5.77329
 20
0.85391
 30
0.0
 10
-5.77329
 20
0.85391
 30
0.0
  0
SPLINE
  5
111
330
1F
100
AcDbEntity
  8
0
100
AcDbSpline
210
0.0
220
0.0
230
1.0
 70
    11
 71
     3
 72
    28
 73
    24
 74
     0
 42
0.0000000001
 43
0.0000000001
 40
0.0
 40
0.0
 40
0.0
 40
0.0
 40
0.1428571428571428
 40
0.1428571428571428
 40
0.1428571428571428
 40
0.1428571428571428
 40
0.2857142857142857
 40
0.2857142857142857
 40
0.2857142857142857
 40
0.2857142857142857
 40
0.4285714285714285
 40
0.4285714285714285
 40
0.4285714285714285
 40
0.4285714285714285
 40
0.5714285714285714
 40
0.5714285714285714
 40
0.5714285714285714
 40
0.5714285714285714
 40
0.7142857142857143
 40
0.7142857142857143
 40
0.7142857142857143
 40
0.7142857142857143
 40
1.0
 40
1.0
 40
1.0
 40
1.0
 10
-5.75568
 20
0.86791
 30
0.0
 10
-5.75568
 20
0.86791
 30
0.0
 10
-5.61352
 20
0.74092
 30
0.0
 10
-5.61352
 20
0.74092
 30
0.0
 10
-5.61352
 20
0.74092
 30
0.0
 10
-5.60634
 20
0.74967
 30
0.0
 10
-5.60133
 20
0.75778
 30
0.0
 10
-5.59847
 20
0.76519
 30
0.0
 10
-5.59847
 20
0.76519
 30
0.0
 10
-5.59468
 20
0.77487
 30
0.0
 10
-5.59281
 20
0.78537
 30
0.0
 10
-5.59281
 20
0.79663
 30
0.0
 10
-5.59281
 20
0.79663
 30
0.0
 10
-5.59281
 20
0.82148
 30
0.0
 10
-5.60156
 20
0.84195
 30
0.0
 10
-5.61912
 20
0.85817
 30
0.0
 10
-5.61912
 20
0.85817
 30
0.0
 10
-5.63668
 20
0.87433
 30
0.0
 10
-5.66129
 20
0.88244
 30
0.0
 10
-5.69297
 20
0.88244
 30
0.0
 10
-5.69297
 20
0.88244
 30
0.0
 10
-5.71665
 20
0.88244
 30
0.0
 10
-5.73759
 20
0.87759
 30
0.0
 10
-5.75568
 20
0.86791
 30
0.0
  0
SPLINE
  5
112
330
1F
100
AcDbEntity
  8
0
100
AcDbSpline
210
0.0
220
0.0
230
1.0
 70
    11
 71
     3
 72
    40
 73
    36
 74
     0
 42
0.0000000001
 43
0.0000000001
 40
0.0
 40
0.0
 40
0.0
 40
0.0
 40
0.1
 40
0.1
 40
0.1
 40
0.1
 40
0.2
 40
0.2
 40
0.2
 40
0.2
 40
0.3
 40
0.3
 40
0.3
 40
0.3
 40
0.4
 40
0.4
 40
0.4
 40
0.4
 40
0.5
 40
0.5
 40
0.5
 40
0.5
 40
0.6
 40
0.6
 40
0.6
 40
0.6
 40
0.7
 40
0.7
 40
0.7
 40
0.7
 40
0.8
 40
0.8
 40
0.8
 40
0.8
 40
1.0
 40
1.0
 40
1.0
 40
1.0
 10
-5.57407
 20
1.31898
 30
0.0
 10
-5.57407
 20
1.31898
 30
0.0
 10
-5.57407
 20
1.28824
 30
0.0
 10
-5.57407
 20
1.28824
 30
0.0
 10
-5.57407
 20
1.28824
 30
0.0
 10
-5.57407
 20
1.28824
 30
0.0
 10
-5.77007
 20
1.28824
 30
0.0
 10
-5.77007
 20
1.28824
 30
0.0
 10
-5.77007
 20
1.28824
 30
0.0
 10
-5.76301
 20
1.28083
 30
0.0
 10
-5.75595
 20
1.27115
 30
0.0
 10
-5.74889
 20
1.25913
 30
0.0
 10
-5.74889
 20
1.25913
 30
0.0
 10
-5.74184
 20
1.24706
 30
0.0
 10
-5.73653
 20
1.23627
 30
0.0
 10
-5.73303
 20
1.2267
 30
0.0
 10
-5.73303
 20
1.2267
 30
0.0
 10
-5.73303
 20
1.2267
 30
0.0
 10
-5.76272
 20
1.2267
 30
0.0
 10
-5.76272
 20
1.2267
 30
0.0
 10
-5.76272
 20
1.2267
 30
0.0
 10
-5.77083
 20
1.24391
 30
0.0
 10
-5.78063
 20
1.25896
 30
0.0
 10
-5.79212
 20
1.27185
 30
0.0
 10
-5.79212
 20
1.27185
 30
0.0
 10
-5.80367
 20
1.28468
 30
0.0
 10
-5.81481
 20
1.29384
 30
0.0
 10
-5.8256
 20
1.29921
 30
0.0
 10
-5.8256
 20
1.29921
 30
0.0
 10
-5.8256
 20
1.29921
 30
0.0
 10
-5.8256
 20
1.31898
 30
0.0
 10
-5.8256
 20
1.31898
 30
0.0
 10
-5.8256
 20
1.31898
 30
0.0
 10
-5.8256
 20
1.31898
 30
0.0
 10
-5.57407
 20
1.31898
 30
0.0
 10
-5.57407
 20
1.31898
 30
0.0
  0
SPLINE
  5
113
330
1F
100
AcDbEntity
  8
0
100
AcDbSpline
210
0.0
220
0.0
230
1.0
 70
    11
 71
     3
 72
    68
 73
    64
 74
     0
 42
0.0000000001
 43
0.0000000001
 40
0.0
 40
0.0
 40
0.0
 40
0.0
 40
0.0588235294117647
 40
0.0588235294117647
 40
0.0588235294117647
 40
0.0588235294117647
 40
0.1176470588235294
 40
0.1176470588235294
 40
0.1176470588235294
 40
0.1176470588235294
 40
0.1764705882352941
 40
0.1764705882352941
 40
0.1764705882352941
 40
0.1764705882352941
 40
0.2352941176470588
 40
0.2352941176470588
 40
0.2352941176470588
 40
0.2352941176470588
 40
0.2941176470588235
 40
0.2941176470588235
 40
0.2941176470588235
 40
0.2941176470588235
 40
0.3529411764705883
 40
0.3529411764705883
 40
0.3529411764705883
 40
0.3529411764705883
 40
0.4117647058823529
 40
0.4117647058823529
 40
0.4117647058823529
 40
0.4117647058823529
 40
0.4705882352941176
 40
0.4705882352941176
 40
0.4705882352941176
 40
0.4705882352941176
 40
0.5294117647058824
 40
0.5294117647058824
 40
0.5294117647058824
 40
0.5294117647058824
 40
0.5882352941176471
 40
0.5882352941176471
 40
0.5882352941176471
 40
0.5882352941176471
 40
0.6470588235294118
 40
0.6470588235294118
 40
0.6470588235294118
 40
0.6470588235294118
 40
0.7058823529411765
 40
0.7058823529411765
 40
0.7058823529411765
 40
0.7058823529411765
 40
0.7647058823529411
 40
0.7647058823529411
 40
0.7647058823529411
 40
0.7647058823529411
 40
0.8235294117647058
 40
0.8235294117647058
 40
0.8235294117647058
 40
0.8235294117647058
 40
0.8823529411764706
 40
0.8823529411764706
 40
0.8823529411764706
 40
0.8823529411764706
 40
1.0
 40
1.0
 40
1.0
 40
1.0
 10
-5.70993
 20
1.44516
 30
0.0
 10
-5.71459
 20
1.43239
 30
0.0
 10
-5.72124
 20
1.42294
 30
0.0
 10
-5.72994
 20
1.41675
 30
0.0
 10
-5.72994
 20
1.41675
 30
0.0
 10
-5.73857
 20
1.41063
 30
0.0
 10
-5.74895
 20
1.40754
 30
0.0
 10
-5.76103
 20
1.40754
 30
0.0
 10
-5.76103
 20
1.40754
 30
0.0
 10
-5.77929
 20
1.40754
 30
0.0
 10
-5.79457
 20
1.41407
 30
0.0
 10
-5.80699
 20
1.42719
 30
0.0
 10
-5.80699
 20
1.42719
 30
0.0
 10
-5.81942
 20
1.44032
 30
0.0
 10
-5.8256
 20
1.4577
 30
0.0
 10
-5.8256
 20
1.47946
 30
0.0
 10
-5.8256
 20
1.47946
 30
0.0
 10
-5.8256
 20
1.50134
 30
0.0
 10
-5.8193
 20
1.51895
 30
0.0
 10
-5.80659
 20
1.53231
 30
0.0
 10
-5.80659
 20
1.53231
 30
0.0
 10
-5.79387
 20
1.54561
 30
0.0
 10
-5.77841
 20
1.55226
 30
0.0
 10
-5.76015
 20
1.55226
 30
0.0
 10
-5.76015
 20
1.55226
 30
0.0
 10
-5.74854
 20
1.55226
 30
0.0
 10
-5.73845
 20
1.54923
 30
0.0
 10
-5.72982
 20
1.54316
 30
0.0
 10
-5.72982
 20
1.54316
 30
0.0
 10
-5.72124
 20
1.53704
 30
0.0
 10
-5.71459
 20
1.52782
 30
0.0
 10
-5.70993
 20
1.51539
 30
0.0
 10
-5.70993
 20
1.51539
 30
0.0
 10
-5.70491
 20
1.53074
 30
0.0
 10
-5.6968
 20
1.54246
 30
0.0
 10
-5.68566
 20
1.55051
 30
0.0
 10
-5.68566
 20
1.55051
 30
0.0
 10
-5.67452
 20
1.5585
 30
0.0
 10
-5.66116
 20
1.56253
 30
0.0
 10
-5.6457
 20
1.56253
 30
0.0
 10
-5.6457
 20
1.56253
 30
0.0
 10
-5.62424
 20
1.56253
 30
0.0
 10
-5.60627
 20
1.55494
 30
0.0
 10
-5.59169
 20
1.53984
 30
0.0
 10
-5.59169
 20
1.53984
 30
0.0
 10
-5.5771
 20
1.52467
 30
0.0
 10
-5.56981
 20
1.50472
 30
0.0
 10
-5.56981
 20
1.47999
 30
0.0
 10
-5.56981
 20
1.47999
 30
0.0
 10
-5.56981
 20
1.45525
 30
0.0
 10
-5.5771
 20
1.43536
 30
0.0
 10
-5.59174
 20
1.42019
 30
0.0
 10
-5.59174
 20
1.42019
 30
0.0
 10
-5.60639
 20
1.40503
 30
0.0
 10
-5.62464
 20
1.39744
 30
0.0
 10
-5.64652
 20
1.39744
 30
0.0
 10
-5.64652
 20
1.39744
 30
0.0
 10
-5.66279
 20
1.39744
 30
0.0
 10
-5.67644
 20
1.40159
 30
0.0
 10
-5.68747
 20
1.40987
 30
0.0
 10
-5.68747
 20
1.40987
 30
0.0
 10
-5.69844
 20
1.41809
 30
0.0
 10
-5.70596
 20
1.42988
 30
0.0
 10
-5.70993
 20
1.44516
 30
0.0
  0
SPLINE
  5
114
330
1F
100
AcDbEntity
  8
0
100
AcDbSpline
210
0.0
220
0.0
230
1.0
 70
    11
 71
     3
 72
    36
 73
    32
 74
     0
 42
0.0000000001
 43
0.0000000001
 40
0.0
 40
0.0
 40
0.0
 40
0.0
 40
0.1111111111111111
 40
0.1111111111111111
 40
0.1111111111111111
 40
0.1111111111111111
 40
0.2222222222222222
 40
0.2222222222222222
 40
0.2222222222222222
 40
0.2222222222222222
 40
0.3333333333333333
 40
0.3333333333333333
 40
0.3333333333333333
 40
0.3333333333333333
 40
0.4444444444444444
 40
0.4444444444444444
 40
0.4444444444444444
 40
0.4444444444444444
 40
0.5555555555555556
 40
0.5555555555555556
 40
0.5555555555555556
 40
0.5555555555555556
 40
0.6666666666666666
 40
0.6666666666666666
 40
0.6666666666666666
 40
0.6666666666666666
 40
0.7777777777777778
 40
0.7777777777777778
 40
0.7777777777777778
 40
0.7777777777777778
 40
1.0
 40
1.0
 40
1.0
 40
1.0
 10
-5.76208
 20
1.43898
 30
0.0
 10
-5.75024
 20
1.43898
 30
0.0
 10
-5.74055
 20
1.44283
 30
0.0
 10
-5.73303
 20
1.45041
 30
0.0
 10
-5.73303
 20
1.45041
 30
0.0
 10
-5.7255
 20
1.45805
 30
0.0
 10
-5.72171
 20
1.46797
 30
0.0
 10
-5.72171
 20
1.48016
 30
0.0
 10
-5.72171
 20
1.48016
 30
0.0
 10
-5.72171
 20
1.492
 30
0.0
 10
-5.72544
 20
1.50174
 30
0.0
 10
-5.73291
 20
1.50933
 30
0.0
 10
-5.73291
 20
1.50933
 30
0.0
 10
-5.74038
 20
1.51691
 30
0.0
 10
-5.74954
 20
1.52064
 30
0.0
 10
-5.76033
 20
1.52064
 30
0.0
 10
-5.76033
 20
1.52064
 30
0.0
 10
-5.77164
 20
1.52064
 30
0.0
 10
-5.78109
 20
1.51679
 30
0.0
 10
-5.78879
 20
1.50898
 30
0.0
 10
-5.78879
 20
1.50898
 30
0.0
 10
-5.79649
 20
1.50116
 30
0.0
 10
-5.80034
 20
1.49148
 30
0.0
 10
-5.80034
 20
1.47981
 30
0.0
 10
-5.80034
 20
1.47981
 30
0.0
 10
-5.80034
 20
1.46809
 30
0.0
 10
-5.79655
 20
1.45834
 30
0.0
 10
-5.78909
 20
1.45059
 30
0.0
 10
-5.78909
 20
1.45059
 30
0.0
 10
-5.78156
 20
1.44283
 30
0.0
 10
-5.77252
 20
1.43898
 30
0.0
 10
-5.76208
 20
1.43898
 30
0.0
  0
SPLINE
  5
115
330
1F
100
AcDbEntity
  8
0
100
AcDbSpline
210
0.0
220
0.0
230
1.0
 70
    11
 71
     3
 72
    40
 73
    36
 74
     0
 42
0.0000000001
 43
0.0000000001
 40
0.0
 40
0.0
 40
0.0
 40
0.0
 40
0.1
 40
0.1
 40
0.1
 40
0.1
 40
0.2
 40
0.2
 40
0.2
 40
0.2
 40
0.3
 40
0.3
 40
0.3
 40
0.3
 40
0.4
 40
0.4
 40
0.4
 40
0.4
 40
0.5
 40
0.5
 40
0.5
 40
0.5
 40
0.6
 40
0.6
 40
0.6
 40
0.6
 40
0.7
 40
0.7
 40
0.7
 40
0.7
 40
0.8
 40
0.8
 40
0.8
 40
0.8
 40
1.0
 40
1.0
 40
1.0
 40
1.0
 10
-5.64634
 20
1.42906
 30
0.0
 10
-5.63759
 20
1.42906
 30
0.0
 10
-5.62908
 20
1.43116
 30
0.0
 10
-5.62091
 20
1.4353
 30
0.0
 10
-5.62091
 20
1.4353
 30
0.0
 10
-5.61269
 20
1.43944
 30
0.0
 10
-5.60633
 20
1.44563
 30
0.0
 10
-5.60184
 20
1.45385
 30
0.0
 10
-5.60184
 20
1.45385
 30
0.0
 10
-5.59734
 20
1.46208
 30
0.0
 10
-5.59507
 20
1.47089
 30
0.0
 10
-5.59507
 20
1.48034
 30
0.0
 10
-5.59507
 20
1.48034
 30
0.0
 10
-5.59507
 20
1.49504
 30
0.0
 10
-5.59979
 20
1.50717
 30
0.0
 10
-5.6093
 20
1.51674
 30
0.0
 10
-5.6093
 20
1.51674
 30
0.0
 10
-5.61875
 20
1.5263
 30
0.0
 10
-5.63077
 20
1.53109
 30
0.0
 10
-5.64535
 20
1.53109
 30
0.0
 10
-5.64535
 20
1.53109
 30
0.0
 10
-5.66017
 20
1.53109
 30
0.0
 10
-5.67242
 20
1.52619
 30
0.0
 10
-5.6821
 20
1.51633
 30
0.0
 10
-5.6821
 20
1.51633
 30
0.0
 10
-5.69179
 20
1.50647
 30
0.0
 10
-5.69663
 20
1.4941
 30
0.0
 10
-5.69663
 20
1.47929
 30
0.0
 10
-5.69663
 20
1.47929
 30
0.0
 10
-5.69663
 20
1.46482
 30
0.0
 10
-5.69184
 20
1.45286
 30
0.0
 10
-5.68222
 20
1.44335
 30
0.0
 10
-5.68222
 20
1.44335
 30
0.0
 10
-5.67265
 20
1.43384
 30
0.0
 10
-5.66069
 20
1.42906
 30
0.0
 10
-5.64634
 20
1.42906
 30
0.0
  0
SPLINE
  5
116
330
1F
100
AcDbEntity
  8
0
370
    15
100
AcDbSpline
210
0.0
220
0.0
230
1.0
 70
    24
 71
     3
 72
     8
 73
     4
 74
     0
 42
0.0000000001
 43
0.0000000001
 40
0.0
 40
0.0
 40
0.0
 40
0.0
 40
1.0
 40
1.0
 40
1.0
 40
1.0
 10
4.66669
 20
10.70017
 30
0.0
 10
4.66669
 20
10.70017
 30
0.0
 10
5.31669
 20
10.70017
 30
0.0
 10
5.31669
 20
10.70017
 30
0.0
  0
SPLINE
  5
117
330
1F
100
AcDbEntity
  8
0
370
    15
100
AcDbSpline
210
0.0
220
0.0
230
1.0
 70
    24
 71
     3
 72
     8
 73
     4
 74
     0
 42
0.0000000001
 43
0.0000000001
 40
0.0
 40
0.0
 40
0.0
 40
0.0
 40
1.0
 40
1.0
 40
1.0
 40
1.0
 10
5.31669
 20
11.30017
 30
0.0
 10
5.31669
 20
11.30017
 30
0.0
 10
4.66669
 20
11.30017
 30
0.0
 10
4.66669
 20
11.30017
 30
0.0
  0
SPLINE
  5
118
330
1F
100
AcDbEntity
  8
0
370
    15
100
AcDbSpline
210
0.0
220
0.0
230
1.0
 70
    24
 71
     3
 72
     8
 73
     4
 74
     0
 42
0.0000000001
 43
0.0000000001
 40
0.0
 40
0.0
 40
0.0
 40
0.0
 40
1.0
 40
1.0
 40
1.0
 40
1.0
 10
5.31669
 20
10.70017
 30
0.0
 10
5.31669
 20
10.70017
 30
0.0
 10
6.65002
 20
10.70017
 30
0.0
 10
6.65002
 20
10.70017
 30
0.0
  0
SPLINE
  5
119
330
1F
100
AcDbEntity
  8
0
370
    15
100
AcDbSpline
210
0.0
220
0.0
230
1.0
 70
    24
 71
     3
 72
     8
 73
     4
 74
     0
 42
0.0000000001
 43
0.0000000001
 40
0.0
 40
0.0
 40
0.0
 40
0.0
 40
1.0
 40
1.0
 40
1.0
 40
1.0
 10
6.65002
 20
11.30017
 30
0.0
 10
6.65002
 20
11.30017
 30
0.0
 10
5.31669
 20
11.30017
 30
0.0
 10
5.31669
 20
11.30017
 30
0.0
  0
SPLINE
  5
11A
330
1F
100
AcDbEntity
  8
0
370
    15
100
AcDbSpline
210
0.0
220
0.0
230
1.0
 70
     8
 71
     3
 72
    12
 73
     8
 74
     0
 42
0.0000000001
 43
0.0000000001
 40
0.0
 40
0.0
 40
0.0
 40
0.0
 40
0.3333333333333333
 40
0.3333333333333333
 40
0.3333333333333333
 40
0.3333333333333333
 40
1.0
 40
1.0
 40
1.0
 40
1.0
 10
6.65002
 20
10.70017
 30
0.0
 10
6.81571
 20
10.70017
 30
0.0
 10
6.95002
 20
10.83448
 30
0.0
 10
6.95002
 20
11.00017
 30
0.0
 10
6.95002
 20
11.00017
 30
0.0
 10
6.95002
 20
11.16585
 30
0.0
 10
6.81571
 20
11.30017
 30
0.0
 10
6.65002
 20
11.30017
 30
0.0
  0
SPLINE
  5
11B
330
1F
100
AcDbEntity
  8
0
370
    15
100
AcDbSpline
210
0.0
220
0.0
230
1.0
 70
    24
 71
     3
 72
     8
 73
     4
 74
     0
 42
0.0000000001
 43
0.0000000001
 40
0.0
 40
0.0
 40
0.0
 40
0.0
 40
1.0
 40
1.0
 40
1.0
 40
1.0
 10
4.36669
 20
10.60017
 30
0.0
 10
4.36669
 20
10.60017
 30
0.0
 10
4.65002
 20
10.60017
 30
0.0
 10
4.65002
 20
10.60017
 30
0.0
  0
SPLINE
  5
11C
330
1F
100
AcDbEntity
  8
0
370
    15
100
AcDbSpline
210
0.0
220
0.0
230
1.0
 70
    24
 71
     3
 72
     8
 73
     4
 74
     0
 42
0.0000000001
 43
0.0000000001
 40
0.0
 40
0.0
 40
0.0
 40
0.0
 40
1.0
 40
1.0
 40
1.0
 40
1.0
 10
4.65002
 20
10.4335
 30
0.0
 10
4.65002
 20
10.4335
 30
0.0
 10
4.65002
 20
10.60017
 30
0.0
 10
4.65002
 20
10.60017
 30
0.0
  0
SPLINE
  5
11D
330
1F
100
AcDbEntity
  8
0
370
    15
100
AcDbSpline
210
0.0
220
0.0
230
1.0
 70
    24
 71
     3
 72
     8
 73
     4
 74
     0
 42
0.0000000001
 43
0.0000000001
 40
0.0
 40
0.0
 40
0.0
 40
0.0
 40
1.0
 40
1.0
 40
1.0
 40
1.0
 10
4.65002
 20
10.4335
 30
0.0
 10
4.65002
 20
10.4335
 30
0.0
 10
4.36669
 20
10.4335
 30
0.0
 10
4.36669
 20
10.4335
 30
0.0
  0
SPLINE
  5
11E
330
1F
100
AcDbEntity
  8
0
370
    15
100
AcDbSpline
210
0.0
220
0.0
230
1.0
 70
    24
 71
     3
 72
     8
 73
     4
 74
     0
 42
0.0000000001
 43
0.0000000001
 40
0.0
 40
0.0
 40
0.0
 40
0.0
 40
1.0
 40
1.0
 40
1.0
 40
1.0
 10
4.36669
 20
10.4335
 30
0.0
 10
4.36669
 20
10.4335
 30
0.0
 10
4.36669
 20
10.60017
 30
0.0
 10
4.36669
 20
10.60017
 30
0.0
  0
SPLINE
  5
11F
330
1F
100
AcDbEntity
  8
0
370
    15
100
AcDbSpline
210
0.0
220
0.0
230
1.0
 70
    24
 71
     3
 72
     8
 73
     4
 74
     0
 42
0.0000000001
 43
0.0000000001
 40
0.0
 40
0.0
 40
0.0
 40
0.0
 40
1.0
 40
1.0
 40
1.0
 40
1.0
 10
4.65002
 20
11.40017
 30
0.0
 10
4.65002
 20
11.40017
 30
0.0
 10
4.36669
 20
11.40017
 30
0.0
 10
4.36669
 20
11.40017
 30
0.0
  0
SPLINE
  5
120
330
1F
100
AcDbEntity
  8
0
370
    15
100
AcDbSpline
210
0.0
220
0.0
230
1.0
 70
    24
 71
     3
 72
     8
 73
     4
 74
     0
 42
0.0000000001
 43
0.0000000001
 40
0.0
 40
0.0
 40
0.0
 40
0.0
 40
1.0
 40
1.0
 40
1.0
 40
1.0
 10
4.65002
 20
10.60017
 30
0.0
 10
4.65002
 20
10.60017
 30
0.0
 10
4.65002
 20
11.40017
 30
0.0
 10
4.65002
 20
11.40017
 30
0.0
  0
SPLINE
  5
121
330
1F
100
AcDbEntity
  8
0
370
    15
100
AcDbSpline
210
0.0
220
0.0
230
1.0
 70
    24
 71
     3
 72
     8
 73
     4
 74
     0
 42
0.0000000001
 43
0.0000000001
 40
0.0
 40
0.0
 40
0.0
 40
0.0
 40
1.0
 40
1.0
 40
1.0
 40
1.0
 10
4.36669
 20
10.60017
 30
0.0
 10
4.36669
 20
10.60017
 30
0.0
 10
4.36669
 20
11.40017
 30
0.0
 10
4.36669
 20
11.40017
 30
0.0
  0
SPLINE
  5
122
330
1F
100
AcDbEntity
  8
0
370
    15
100
AcDbSpline
210
0.0
220
0.0
230
1.0
 70
    24
 71
     3
 72
     8
 73
     4
 74
     0
 42
0.0000000001
 43
0.0000000001
 40
0.0
 40
0.0
 40
0.0
 40
0.0
 40
1.0
 40
1.0
 40
1.0
 40
1.0
 10
4.36669
 20
11.56684
 30
0.0
 10
4.36669
 20
11.56684
 30
0.0
 10
4.65002
 20
11.56684
 30
0.0
 10
4.65002
 20
11.56684
 30
0.0
  0
SPLINE
  5
123
330
1F
100
AcDbEntity
  8
0
370
    15
100
AcDbSpline
210
0.0
220
0.0
230
1.0
 70
    24
 71
     3
 72
     8
 73
     4
 74
     0
 42
0.0000000001
 43
0.0000000001
 40
0.0
 40
0.0
 40
0.0
 40
0.0
 40
1.0
 40
1.0
 40
1.0
 40
1.0
 10
4.65002
 20
11.40017
 30
0.0
 10
4.65002
 20
11.40017
 30
0.0
 10
4.65002
 20
11.56684
 30
0.0
 10
4.65002
 20
11.56684
 30
0.0
  0
SPLINE
  5
124
330
1F
100
AcDbEntity
  8
0
370
    15
100
AcDbSpline
210
0.0
220
0.0
230
1.0
 70
    24
 71
     3
 72
     8
 73
     4
 74
     0
 42
0.0000000001
 43
0.0000000001
 40
0.0
 40
0.0
 40
0.0
 40
0.0
 40
1.0
 40
1.0
 40
1.0
 40
1.0
 10
4.36669
 20
11.40017
 30
0.0
 10
4.36669
 20
11.40017
 30
0.0
 10
4.36669
 20
11.56684
 30
0.0
 10
4.36669
 20
11.56684
 30
0.0
  0
SPLINE
  5
125
330
1F
100
AcDbEntity
  8
0
370
    15
100
AcDbSpline
210
0.0
220
0.0
230
1.0
 70
    24
 71
     3
 72
     8
 73
     4
 74
     0
 42
0.0000000001
 43
0.0000000001
 40
0.0
 40
0.0
 40
0.0
 40
0.0
 40
1.0
 40
1.0
 40
1.0
 40
1.0
 10
4.65002
 20
10.60017
 30
0.0
 10
4.65002
 20
10.60017
 30
0.0
 10
4.66669
 20
10.60017
 30
0.0
 10
4.66669
 20
10.60017
 30
0.0
  0
SPLINE
  5
126
330
1F
100
AcDbEntity
  8
0
370
    15
100
AcDbSpline
210
0.0
220
0.0
230
1.0
 70
    24
 71
     3
 72
     8
 73
     4
 74
     0
 42
0.0000000001
 43
0.0000000001
 40
0.0
 40
0.0
 40
0.0
 40
0.0
 40
1.0
 40
1.0
 40
1.0
 40
1.0
 10
4.66669
 20
10.60017
 30
0.0
 10
4.66669
 20
10.60017
 30
0.0
 10
4.66669
 20
10.45017
 30
0.0
 10
4.66669
 20
10.45017
 30
0.0
  0
SPLINE
  5
127
330
1F
100
AcDbEntity
  8
0
370
    15
100
AcDbSpline
210
0.0
220
0.0
230
1.0
 70
     8
 71
     3
 72
     8
 73
     4
 74
     0
 42
0.0000000001
 43
0.0000000001
 40
0.0
 40
0.0
 40
0.0
 40
0.0
 40
1.0
 40
1.0
 40
1.0
 40
1.0
 10
4.65002
 20
10.4335
 30
0.0
 10
4.65923
 20
10.4335
 30
0.0
 10
4.66669
 20
10.44097
 30
0.0
 10
4.66669
 20
10.45017
 30
0.0
  0
SPLINE
  5
128
330
1F
100
AcDbEntity
  8
0
370
    15
100
AcDbSpline
210
0.0
220
0.0
230
1.0
 70
    24
 71
     3
 72
     8
 73
     4
 74
     0
 42
0.0000000001
 43
0.0000000001
 40
0.0
 40
0.0
 40
0.0
 40
0.0
 40
1.0
 40
1.0
 40
1.0
 40
1.0
 10
4.65002
 20
11.40017
 30
0.0
 10
4.65002
 20
11.40017
 30
0.0
 10
4.66669
 20
11.40017
 30
0.0
 10
4.66669
 20
11.40017
 30
0.0
  0
SPLINE
  5
129
330
1F
100
AcDbEntity
  8
0
370
    15
100
AcDbSpline
210
0.0
220
0.0
230
1.0
 70
    24
 71
     3
 72
     8
 73
     4
 74
     0
 42
0.0000000001
 43
0.0000000001
 40
0.0
 40
0.0
 40
0.0
 40
0.0
 40
1.0
 40
1.0
 40
1.0
 40
1.0
 10
4.66669
 20
11.40017
 30
0.0
 10
4.66669
 20
11.40017
 30
0.0
 10
4.66669
 20
10.60017
 30
0.0
 10
4.66669
 20
10.60017
 30
0.0
  0
SPLINE
  5
12A
330
1F
100
AcDbEntity
  8
0
370
    15
100
AcDbSpline
210
0.0
220
0.0
230
1.0
 70
    24
 71
     3
 72
     8
 73
     4
 74
     0
 42
0.0000000001
 43
0.0000000001
 40
0.0
 40
0.0
 40
0.0
 40
0.0
 40
1.0
 40
1.0
 40
1.0
 40
1.0
 10
4.66669
 20
11.55017
 30
0.0
 10
4.66669
 20
11.55017
 30
0.0
 10
4.66669
 20
11.40017
 30
0.0
 10
4.66669
 20
11.40017
 30
0.0
  0
SPLINE
  5
12B
330
1F
100
AcDbEntity
  8
0
370
    15
100
AcDbSpline
210
0.0
220
0.0
230
1.0
 70
     8
 71
     3
 72
    12
 73
     8
 74
     0
 42
0.0000000001
 43
0.0000000001
 40
0.0
 40
0.0
 40
0.0
 40
0.0
 40
0.3333333333333333
 40
0.3333333333333333
 40
0.3333333333333333
 40
0.3333333333333333
 40
1.0
 40
1.0
 40
1.0
 40
1.0
 10
4.66669
 20
11.55017
 30
0.0
 10
4.66669
 20
11.55459
 30
0.0
 10
4.66493
 20
11.55883
 30
0.0
 10
4.66181
 20
11.56196
 30
0.0
 10
4.66181
 20
11.56196
 30
0.0
 10
4.65868
 20
11.56508
 30
0.0
 10
4.65444
 20
11.56684
 30
0.0
 10
4.65002
 20
11.56684
 30
0.0
  0
SPLINE
  5
12C
330
1F
100
AcDbEntity
  8
0
 62
     8
370
    15
100
AcDbSpline
210
0.0
220
0.0
230
1.0
 70
    24
 71
     3
 72
     8
 73
     4
 74
     0
 42
0.0000000001
 43
0.0000000001
 40
0.0
 40
0.0
 40
0.0
 40
0.0
 40
1.0
 40
1.0
 40
1.0
 40
1.0
 10
5.31669
 20
11.30017
 30
0.0
 10
5.31669
 20
11.30017
 30
0.0
 10
5.31669
 20
10.70017
 30
0.0
 10
5.31669
 20
10.70017
 30
0.0
  0
ENDSEC
  0
SECTION
  2
OBJECTS
  0
DICTIONARY
  5
C
330
0
100
AcDbDictionary
281
     1
  3
ACAD_GROUP
350
D
  3
ACAD_LAYOUT
350
1A
  3
ACAD_MATERIAL
350
3B
  3
ACAD_MLEADERSTYLE
350
14E
  3
ACAD_MLINESTYLE
350
17
  3
ACAD_PLOTSETTINGS
350
19
  3
ACAD_PLOTSTYLENAME
350
E
  3
ACAD_TABLESTYLE
350
14D
  3
ACAD_VISUALSTYLE
350
2A
  0
DICTIONARY
  5
D
102
{ACAD_REACTORS
330
C
102
}
330
C
100
AcDbDictionary
281
     1
  0
DICTIONARY
  5
1A
102
{ACAD_REACTORS
330
C
102
}
330
C
100
AcDbDictionary
281
     1
  3
Layout1
350
1E
  3
Layout2
350
26
  3
Model
350
22
  0
DICTIONARY
  5
3B
102
{ACAD_REACTORS
330
C
102
}
330
C
100
AcDbDictionary
281
     1
  3
ByBlock
350
3D
  3
ByLayer
350
3C
  3
Global
350
3E
  0
DICTIONARY
  5
14E
102
{ACAD_REACTORS
330
C
102
}
330
C
100
AcDbDictionary
281
     1
  0
DICTIONARY
  5
17
102
{ACAD_REACTORS
330
C
102
}
330
C
100
AcDbDictionary
281
     1
  3
Standard
350
18
  0
DICTIONARY
  5
19
102
{ACAD_REACTORS
330
C
102
}
330
C
100
AcDbDictionary
281
     1
  0
ACDBDICTIONARYWDFLT
  5
E
102
{ACAD_REACTORS
330
C
102
}
330
C
100
AcDbDictionary
281
     1
  3
Normal
350
F
100
AcDbDictionaryWithDefault
340
F
  0
DICTIONARY
  5
14D
102
{ACAD_REACTORS
330
C
102
}
330
C
100
AcDbDictionary
281
     1
  0
DICTIONARY
  5
2A
102
{ACAD_REACTORS
330
C
102
}
330
C
100
AcDbDictionary
281
     1
  3
2dWireframe
350
2F
  3
3D Hidden
350
31
  3
3dWireframe
350
30
  3
Basic
350
32
  3
Brighten
350
36
  3
ColorChange
350
3A
  3
Conceptual
350
34
  3
Dim
350
35
  3
Facepattern
350
39
  3
Flat
350
2B
  3
FlatWithEdges
350
2C
  3
Gouraud
350
2D
  3
GouraudWithEdges
350
2E
  3
Linepattern
350
38
  3
Realistic
350
33
  3
Thicken
350
37
  0
LAYOUT
  5
1E
102
{ACAD_REACTORS
330
1A
102
}
330
1A
100
AcDbPlotSettings
  1

  2
none_device
  4

  6

 40
0.0
 41
0.0
 42
0.0
 43
0.0
 44
0.0
 45
0.0
 46
0.0
 47
0.0
 48
0.0
 49
0.0
140
0.0
141
0.0
142
1.0
143
1.0
 70
   688
 72
     0
 73
     0
 74
     5
  7

 75
    16
 76
     0
 77
     2
 78
   300
147
1.0
148
0.0
149
0.0
100
AcDbLayout
  1
Layout1
 70
     1
 71
     1
 10
0.0
 20
0.0
 11
12.0
 21
9.0
 12
0.0
 22
0.0
 32
0.0
 14
1.000000000000000E+20
 24
1.000000000000000E+20
 34
1.000000000000000E+20
 15
-1.000000000000000E+20
 25
-1.000000000000000E+20
 35
-1.000000000000000E+20
146
0.0
 13
0.0
 23
0.0
 33
0.0
 16
1.0
 26
0.0
 36
0.0
 17
0.0
 27
1.0
 37
0.0
 76
     0
330
1B
  0
LAYOUT
  5
26
102
{ACAD_REACTORS
330
1A
102
}
330
1A
100
AcDbPlotSettings
  1

  2
none_device
  4

  6

 40
0.0
 41
0.0
 42
0.0
 43
0.0
 44
0.0
 45
0.0
 46
0.0
 47
0.0
 48
0.0
 49
0.0
140
0.0
141
0.0
142
1.0
143
1.0
 70
   688
 72
     0
 73
     0
 74
     5
  7

 75
    16
 76
     0
 77
     2
 78
   300
147
1.0
148
0.0
149
0.0
100
AcDbLayout
  1
Layout2
 70
     1
 71
     2
 10
0.0
 20
0.0
 11
0.0
 21
0.0
 12
0.0
 22
0.0
 32
0.0
 14
0.0
 24
0.0
 34
0.0
 15
0.0
 25
0.0
 35
0.0
146
0.0
 13
0.0
 23
0.0
 33
0.0
 16
1.0
 26
0.0
 36
0.0
 17
0.0
 27
1.0
 37
0.0
 76
     0
330
23
  0
LAYOUT
  5
22
102
{ACAD_REACTORS
330
1A
102
}
330
1A
100
AcDbPlotSettings
  1

  2
none_device
  4

  6

 40
0.0
 41
0.0
 42
0.0
 43
0.0
 44
0.0
 45
0.0
 46
0.0
 47
0.0
 48
0.0
 49
0.0
140
0.0
141
0.0
142
1.0
143
1.0
 70
  1712
 72
     0
 73
     0
 74
     0
  7

 75
     0
 76
     0
 77
     2
 78
   300
147
1.0
148
0.0
149
0.0
100
AcDbLayout
  1
Model
 70
     1
 71
     0
 10
0.0
 20
0.0
 11
12.0
 21
9.0
 12
0.0
 22
0.0
 32
0.0
 14
-16.82256
 24
0.66077
 34
0.0
 15
6.95752
 25
13.26201
 35
0.0
146
0.0
 13
0.0
 23
0.0
 33
0.0
 16
1.0
 26
0.0
 36
0.0
 17
0.0
 27
1.0
 37
0.0
 76
     0
330
1F
331
29
  0
MATERIAL
  5
3D
102
{ACAD_REACTORS
330
3B
102
}
330
3B
100
AcDbMaterial
  1
ByBlock
 72
     1
 94
      127
  0
MATERIAL
  5
3C
102
{ACAD_REACTORS
330
3B
102
}
330
3B
100
AcDbMaterial
  1
ByLayer
 72
     1
 94
      127
  0
MATERIAL
  5
3E
102
{ACAD_REACTORS
330
3B
102
}
330
3B
100
AcDbMaterial
  1
Global
 72
     1
 94
      127
  0
MLINESTYLE
  5
18
102
{ACAD_REACTORS
330
17
102
}
330
17
100
AcDbMlineStyle
  2
Standard
 70
     0
  3

 62
   256
 51
90.0
 52
90.0
 71
     2
 49
0.5
 62
   256
  6
BYLAYER
 49
-0.5
 62
   256
  6
BYLAYER
  0
ACDBPLACEHOLDER
  5
F
102
{ACAD_REACTORS
330
E
102
}
330
E
  0
VISUALSTYLE
  5
2F
102
{ACAD_REACTORS
330
2A
102
}
102
{ACAD_XDICTIONARY
360
135
102
}
330
2A
100
AcDbVisualStyle
  2
2dWireframe
 70
     4
 71
     0
 72
     2
 73
     0
 90
        0
 40
-0.6
 41
-30.0
 62
     5
 63
     7
421
 16777215
 74
     1
 91
        4
 64
     7
 65
   257
 75
     1
175
     1
 42
1.0
 92
        0
 66
   257
 43
1.0
 76
     1
 77
     6
 78
     2
 67
     7
 79
     5
170
     0
171
     0
290
     0
174
     0
 93
        1
 44
0.0
173
     0
291
     0
 45
0.0
  0
VISUALSTYLE
  5
31
102
{ACAD_REACTORS
330
2A
102
}
102
{ACAD_XDICTIONARY
360
139
102
}
330
2A
100
AcDbVisualStyle
  2
3D Hidden
 70
     6
 71
     1
 72
     2
 73
     2
 90
        0
 40
-0.6
 41
-30.0
 62
     5
 63
     7
421
 16777215
 74
     2
 91
        2
 64
     7
 65
   257
 75
     2
175
     1
 42
40.0
 92
        0
 66
   257
 43
1.0
 76
     1
 77
     6
 78
     2
 67
     7
 79
     3
170
     0
171
     0
290
     0
174
     0
 93
        1
 44
0.0
173
     0
291
     0
 45
0.0
  0
VISUALSTYLE
  5
30
102
{ACAD_REACTORS
330
2A
102
}
102
{ACAD_XDICTIONARY
360
137
102
}
330
2A
100
AcDbVisualStyle
  2
3dWireframe
 70
     5
 71
     0
 72
     2
 73
     0
 90
        0
 40
-0.6
 41
-30.0
 62
     5
 63
     7
421
 16777215
 74
     1
 91
        4
 64
     7
 65
   257
 75
     1
175
     1
 42
1.0
 92
        0
 66
   257
 43
1.0
 76
     1
 77
     6
 78
     2
 67
     7
 79
     5
170
     0
171
     0
290
     0
174
     0
 93
        1
 44
0.0
173
     0
291
     0
 45
0.0
  0
VISUALSTYLE
  5
32
102
{ACAD_REACTORS
330
2A
102
}
102
{ACAD_XDICTIONARY
360
13B
102
}
330
2A
100
AcDbVisualStyle
  2
Basic
 70
     7
 71
     1
 72
     0
 73
     1
 90
        0
 40
-0.6
 41
-30.0
 62
     5
 63
     7
421
 16777215
 74
     0
 91
        4
 64
     7
 65
   257
 75
     1
175
     1
 42
1.0
 92
        8
 66
     7
 43
1.0
 76
     1
 77
     6
 78
     2
 67
     7
 79
     5
170
     0
171
     0
290
     0
174
     0
 93
        1
 44
0.0
173
     0
291
     1
 45
0.0
  0
VISUALSTYLE
  5
36
102
{ACAD_REACTORS
330
2A
102
}
102
{ACAD_XDICTIONARY
360
143
102
}
330
2A
100
AcDbVisualStyle
  2
Brighten
 70
    12
 71
     2
 72
     2
 73
     0
 90
        0
 40
-0.6
 41
-30.0
 62
     5
 63
     7
421
 16777215
 74
     1
 91
        4
 64
     7
 65
   257
 75
     1
175
     1
 42
1.0
 92
        8
 66
     7
 43
1.0
 76
     1
 77
     6
 78
     2
 67
     7
 79
     5
170
     0
171
     0
290
     0
174
     0
 93
        1
 44
50.0
173
     0
291
     1
 45
0.0
  0
VISUALSTYLE
  5
3A
102
{ACAD_REACTORS
330
2A
102
}
102
{ACAD_XDICTIONARY
360
14B
102
}
330
2A
100
AcDbVisualStyle
  2
ColorChange
 70
    16
 71
     2
 72
     2
 73
     3
 90
        0
 40
-0.6
 41
-30.0
 62
     5
 63
     8
421
  8421504
 74
     1
 91
        4
 64
     7
 65
   257
 75
     1
175
     1
 42
1.0
 92
        8
 66
     8
424
  8421504
 43
1.0
 76
     1
 77
     6
 78
     2
 67
     7
 79
     5
170
     0
171
     0
290
     0
174
     0
 93
        1
 44
0.0
173
     0
291
     1
 45
0.0
  0
VISUALSTYLE
  5
34
102
{ACAD_REACTORS
330
2A
102
}
102
{ACAD_XDICTIONARY
360
13F
102
}
330
2A
100
AcDbVisualStyle
  2
Conceptual
 70
     9
 71
     3
 72
     2
 73
     0
 90
        0
 40
-0.6
 41
-30.0
 62
     5
 63
     7
421
 16777215
 74
     2
 91
        2
 64
     7
 65
   257
 75
     1
175
     1
 42
40.0
 92
        8
 66
     7
 43
1.0
 76
     1
 77
     6
 78
     2
 67
     7
 79
     3
170
     0
171
     0
290
     0
174
     0
 93
        1
 44
0.0
173
     0
291
     0
 45
0.0
  0
VISUALSTYLE
  5
35
102
{ACAD_REACTORS
330
2A
102
}
102
{ACAD_XDICTIONARY
360
141
102
}
330
2A
100
AcDbVisualStyle
  2
Dim
 70
    11
 71
     2
 72
     2
 73
     0
 90
        0
 40
-0.6
 41
-30.0
 62
     5
 63
     7
421
 16777215
 74
     1
 91
        4
 64
     7
 65
   257
 75
     1
175
     1
 42
1.0
 92
        8
 66
     7
 43
1.0
 76
     1
 77
     6
 78
     2
 67
     7
 79
     5
170
     0
171
     0
290
     0
174
     0
 93
        1
 44
-50.0
173
     0
291
     1
 45
0.0
  0
VISUALSTYLE
  5
39
102
{ACAD_REACTORS
330
2A
102
}
102
{ACAD_XDICTIONARY
360
149
102
}
330
2A
100
AcDbVisualStyle
  2
Facepattern
 70
    15
 71
     2
 72
     2
 73
     0
 90
        0
 40
-0.6
 41
-30.0
 62
     5
 63
     7
421
 16777215
 74
     1
 91
        4
 64
     7
 65
   257
 75
     1
175
     1
 42
1.0
 92
        8
 66
     7
 43
1.0
 76
     1
 77
     6
 78
     2
 67
     7
 79
     5
170
     0
171
     0
290
     0
174
     0
 93
        1
 44
0.0
173
     0
291
     1
 45
0.0
  0
VISUALSTYLE
  5
2B
102
{ACAD_REACTORS
330
2A
102
}
102
{ACAD_XDICTIONARY
360
12D
102
}
330
2A
100
AcDbVisualStyle
  2
Flat
 70
     0
 71
     2
 72
     1
 73
     1
 90
        2
 40
-0.6
 41
30.0
 62
     5
 63
     7
421
 16777215
 74
     0
 91
        4
 64
     7
 65
   257
 75
     1
175
     1
 42
1.0
 92
        8
 66
     7
 43
1.0
 76
     1
 77
     6
 78
     2
 67
     7
 79
     5
170
     0
171
     0
290
     0
174
     0
 93
       13
 44
0.0
173
     0
291
     1
 45
0.0
  0
VISUALSTYLE
  5
2C
102
{ACAD_REACTORS
330
2A
102
}
102
{ACAD_XDICTIONARY
360
12F
102
}
330
2A
100
AcDbVisualStyle
  2
FlatWithEdges
 70
     1
 71
     2
 72
     1
 73
     1
 90
        2
 40
-0.6
 41
30.0
 62
     5
 63
     7
421
 16777215
 74
     1
 91
        4
 64
     7
 65
   257
 75
     1
175
     1
 42
1.0
 92
        0
 66
   257
 43
1.0
 76
     1
 77
     6
 78
     2
 67
     7
 79
     5
170
     0
171
     0
290
     0
174
     0
 93
       13
 44
0.0
173
     0
291
     1
 45
0.0
  0
VISUALSTYLE
  5
2D
102
{ACAD_REACTORS
330
2A
102
}
102
{ACAD_XDICTIONARY
360
131
102
}
330
2A
100
AcDbVisualStyle
  2
Gouraud
 70
     2
 71
     2
 72
     2
 73
     1
 90
        2
 40
-0.6
 41
30.0
 62
     5
 63
     7
421
 16777215
 74
     0
 91
        4
 64
     7
 65
   257
 75
     1
175
     1
 42
1.0
 92
        0
 66
     7
 43
1.0
 76
     1
 77
     6
 78
     2
 67
     7
 79
     5
170
     0
171
     0
290
     0
174
     0
 93
       13
 44
0.0
173
     0
291
     1
 45
0.0
  0
VISUALSTYLE
  5
2E
102
{ACAD_REACTORS
330
2A
102
}
102
{ACAD_XDICTIONARY
360
133
102
}
330
2A
100
AcDbVisualStyle
  2
GouraudWithEdges
 70
     3
 71
     2
 72
     2
 73
     1
 90
        2
 40
-0.6
 41
30.0
 62
     5
 63
     7
421
 16777215
 74
     1
 91
        4
 64
     7
 65
   257
 75
     1
175
     1
 42
1.0
 92
        0
 66
   257
 43
1.0
 76
     1
 77
     6
 78
     2
 67
     7
 79
     5
170
     0
171
     0
290
     0
174
     0
 93
       13
 44
0.0
173
     0
291
     1
 45
0.0
  0
VISUALSTYLE
  5
38
102
{ACAD_REACTORS
330
2A
102
}
102
{ACAD_XDICTIONARY
360
147
102
}
330
2A
100
AcDbVisualStyle
  2
Linepattern
 70
    14
 71
     2
 72
     2
 73
     0
 90
        0
 40
-0.6
 41
-30.0
 62
     5
 63
     7
421
 16777215
 74
     1
 91
        4
 64
     7
 65
   257
 75
     7
175
     7
 42
1.0
 92
        8
 66
     7
 43
1.0
 76
     1
 77
     6
 78
     2
 67
     7
 79
     5
170
     0
171
     0
290
     0
174
     0
 93
        1
 44
0.0
173
     0
291
     1
 45
0.0
  0
VISUALSTYLE
  5
33
102
{ACAD_REACTORS
330
2A
102
}
102
{ACAD_XDICTIONARY
360
13D
102
}
330
2A
100
AcDbVisualStyle
  2
Realistic
 70
     8
 71
     2
 72
     2
 73
     0
 90
        0
 40
-0.6
 41
-30.0
 62
     5
 63
     7
421
 16777215
 74
     1
 91
        0
 64
     7
 65
   257
 75
     1
175
     1
 42
1.0
 92
        8
 66
     8
424
  7895160
 43
1.0
 76
     1
 77
     6
 78
     2
 67
     7
 79
     5
170
     0
171
     0
290
     0
174
     0
 93
       13
 44
0.0
173
     0
291
     0
 45
0.0
  0
VISUALSTYLE
  5
37
102
{ACAD_REACTORS
330
2A
102
}
102
{ACAD_XDICTIONARY
360
145
102
}
330
2A
100
AcDbVisualStyle
  2
Thicken
 70
    13
 71
     2
 72
     2
 73
     0
 90
        0
 40
-0.6
 41
-30.0
 62
     5
 63
     7
421
 16777215
 74
     1
 91
        4
 64
     7
 65
   257
 75
     1
175
     1
 42
1.0
 92
       12
 66
     7
 43
1.0
 76
     1
 77
     6
 78
     2
 67
     7
 79
     5
170
     0
171
     0
290
     0
174
     0
 93
        1
 44
0.0
173
     0
291
     1
 45
0.0
  0
DICTIONARY
  5
135
330
2F
100
AcDbDictionary
280
     1
281
     1
  3
ACAD_XREC_ROUNDTRIP
360
136
  0
DICTIONARY
  5
139
330
31
100
AcDbDictionary
280
     1
281
     1
  3
ACAD_XREC_ROUNDTRIP
360
13A
  0
DICTIONARY
  5
137
330
30
100
AcDbDictionary
280
     1
281
     1
  3
ACAD_XREC_ROUNDTRIP
360
138
  0
DICTIONARY
  5
13B
330
32
100
AcDbDictionary
280
     1
281
     1
  3
ACAD_XREC_ROUNDTRIP
360
13C
  0
DICTIONARY
  5
143
330
36
100
AcDbDictionary
280
     1
281
     1
  3
ACAD_XREC_ROUNDTRIP
360
144
  0
DICTIONARY
  5
14B
330
3A
100
AcDbDictionary
280
     1
281
     1
  3
ACAD_XREC_ROUNDTRIP
360
14C
  0
DICTIONARY
  5
13F
330
34
100
AcDbDictionary
280
     1
281
     1
  3
ACAD_XREC_ROUNDTRIP
360
140
  0
DICTIONARY
  5
141
330
35
100
AcDbDictionary
280
     1
281
     1
  3
ACAD_XREC_ROUNDTRIP
360
142
  0
DICTIONARY
  5
149
330
39
100
AcDbDictionary
280
     1
281
     1
  3
ACAD_XREC_ROUNDTRIP
360
14A
  0
DICTIONARY
  5
12D
330
2B
100
AcDbDictionary
280
     1
281
     1
  3
ACAD_XREC_ROUNDTRIP
360
12E
  0
DICTIONARY
  5
12F
330
2C
100
AcDbDictionary
280
     1
281
     1
  3
ACAD_XREC_ROUNDTRIP
360
130
  0
DICTIONARY
  5
131
330
2D
100
AcDbDictionary
280
     1
281
     1
  3
ACAD_XREC_ROUNDTRIP
360
132
  0
DICTIONARY
  5
133
330
2E
100
AcDbDictionary
280
     1
281
     1
  3
ACAD_XREC_ROUNDTRIP
360
134
  0
DICTIONARY
  5
147
330
38
100
AcDbDictionary
280
     1
281
     1
  3
ACAD_XREC_ROUNDTRIP
360
148
  0
DICTIONARY
  5
13D
330
33
100
AcDbDictionary
280
     1
281
     1
  3
ACAD_XREC_ROUNDTRIP
360
13E
  0
DICTIONARY
  5
145
330
37
100
AcDbDictionary
280
     1
281
     1
  3
ACAD_XREC_ROUNDTRIP
360
146
  0
XRECORD
  5
136
102
{ACAD_REACTORS
330
135
102
}
330
135
100
AcDbXrecord
280
     1
102
RTVSPropertyOp0
 70
     1
102
RTVSPropertyOp1
 70
     1
102
RTVSPropertyOp2
 70
     1
102
RTVSPropertyOp3
 70
     1
102
RTVSPropertyOp4
 70
     1
102
RTVSPropertyOp5
 70
     1
102
RTVSPropertyOp6
 70
     1
102
RTVSPropertyOp7
 70
     1
102
RTVSPropertyOp8
 70
     1
102
RTVSPropertyOp9
 70
     1
102
RTVSPropertyOp10
 70
     1
102
RTVSPropertyOp11
 70
     1
102
RTVSPropertyOp12
 70
     1
102
RTVSPropertyOp13
 70
     1
102
RTVSPropertyOp14
 70
     1
102
RTVSPropertyOp15
 70
     1
102
RTVSPropertyOp16
 70
     1
102
RTVSPropertyOp17
 70
     1
102
RTVSPropertyOp18
 70
     1
102
RTVSPropertyOp19
 70
     1
102
RTVSPropertyOp20
 70
     1
102
RTVSPropertyOp21
 70
     1
102
RTVSPropertyOp22
 70
     1
102
RTVSPropertyOp23
 70
     1
102
RTVSPropertyOp24
 70
     1
102
RTVSPropertyOp25
 70
     1
102
RTVSPropertyOp26
 70
     1
102
RTVSPropertyOp27
 70
     1
  0
XRECORD
  5
13A
102
{ACAD_REACTORS
330
139
102
}
330
139
100
AcDbXrecord
280
     1
102
RTVSPropertyOp0
 70
     1
102
RTVSPropertyOp1
 70
     1
102
RTVSPropertyOp2
 70
     1
102
RTVSPropertyOp3
 70
     1
102
RTVSPropertyOp4
 70
     1
102
RTVSPropertyOp5
 70
     1
102
RTVSPropertyOp6
 70
     1
102
RTVSPropertyOp7
 70
     1
102
RTVSPropertyOp8
 70
     1
102
RTVSPropertyOp9
 70
     1
102
RTVSPropertyOp10
 70
     1
102
RTVSPropertyOp11
 70
     1
102
RTVSPropertyOp12
 70
     1
102
RTVSPropertyOp13
 70
     1
102
RTVSPropertyOp14
 70
     1
102
RTVSPropertyOp15
 70
     1
102
RTVSPropertyOp16
 70
     1
102
RTVSPropertyOp17
 70
     1
102
RTVSPropertyOp18
 70
     1
102
RTVSPropertyOp19
 70
     1
102
RTVSPropertyOp20
 70
     1
102
RTVSPropertyOp21
 70
     1
102
RTVSPropertyOp22
 70
     1
102
RTVSPropertyOp23
 70
     1
102
RTVSPropertyOp24
 70
     1
102
RTVSPropertyOp25
 70
     1
102
RTVSPropertyOp26
 70
     1
102
RTVSPropertyOp27
 70
     1
  0
XRECORD
  5
138
102
{ACAD_REACTORS
330
137
102
}
330
137
100
AcDbXrecord
280
     1
102
RTVSPropertyOp0
 70
     1
102
RTVSPropertyOp1
 70
     1
102
RTVSPropertyOp2
 70
     1
102
RTVSPropertyOp3
 70
     1
102
RTVSPropertyOp4
 70
     1
102
RTVSPropertyOp5
 70
     1
102
RTVSPropertyOp6
 70
     1
102
RTVSPropertyOp7
 70
     1
102
RTVSPropertyOp8
 70
     1
102
RTVSPropertyOp9
 70
     1
102
RTVSPropertyOp10
 70
     1
102
RTVSPropertyOp11
 70
     1
102
RTVSPropertyOp12
 70
     1
102
RTVSPropertyOp13
 70
     1
102
RTVSPropertyOp14
 70
     1
102
RTVSPropertyOp15
 70
     1
102
RTVSPropertyOp16
 70
     1
102
RTVSPropertyOp17
 70
     1
102
RTVSPropertyOp18
 70
     1
102
RTVSPropertyOp19
 70
     1
102
RTVSPropertyOp20
 70
     1
102
RTVSPropertyOp21
 70
     1
102
RTVSPropertyOp22
 70
     1
102
RTVSPropertyOp23
 70
     1
102
RTVSPropertyOp24
 70
     1
102
RTVSPropertyOp25
 70
     1
102
RTVSPropertyOp26
 70
     1
102
RTVSPropertyOp27
 70
     1
  0
XRECORD
  5
13C
102
{ACAD_REACTORS
330
13B
102
}
330
13B
100
AcDbXrecord
280
     1
102
RTVSPropertyOp0
 70
     1
102
RTVSPropertyOp1
 70
     1
102
RTVSPropertyOp2
 70
     1
102
RTVSPropertyOp3
 70
     1
102
RTVSPropertyOp4
 70
     1
102
RTVSPropertyOp5
 70
     1
102
RTVSPropertyOp6
 70
     1
102
RTVSPropertyOp7
 70
     1
102
RTVSPropertyOp8
 70
     1
102
RTVSPropertyOp9
 70
     1
102
RTVSPropertyOp10
 70
     1
102
RTVSPropertyOp11
 70
     1
102
RTVSPropertyOp12
 70
     1
102
RTVSPropertyOp13
 70
     1
102
RTVSPropertyOp14
 70
     1
102
RTVSPropertyOp15
 70
     1
102
RTVSPropertyOp16
 70
     1
102
RTVSPropertyOp17
 70
     1
102
RTVSPropertyOp18
 70
     1
102
RTVSPropertyOp19
 70
     1
102
RTVSPropertyOp20
 70
     1
102
RTVSPropertyOp21
 70
     1
102
RTVSPropertyOp22
 70
     1
102
RTVSPropertyOp23
 70
     1
102
RTVSPropertyOp24
 70
     1
102
RTVSPropertyOp25
 70
     1
102
RTVSPropertyOp26
 70
     1
102
RTVSPropertyOp27
 70
     1
  0
XRECORD
  5
144
102
{ACAD_REACTORS
330
143
102
}
330
143
100
AcDbXrecord
280
     1
102
RTVSPropertyOp0
 70
     1
102
RTVSPropertyOp1
 70
     1
102
RTVSPropertyOp2
 70
     1
102
RTVSPropertyOp3
 70
     1
102
RTVSPropertyOp4
 70
     1
102
RTVSPropertyOp5
 70
     1
102
RTVSPropertyOp6
 70
     1
102
RTVSPropertyOp7
 70
     1
102
RTVSPropertyOp8
 70
     1
102
RTVSPropertyOp9
 70
     1
102
RTVSPropertyOp10
 70
     1
102
RTVSPropertyOp11
 70
     1
102
RTVSPropertyOp12
 70
     1
102
RTVSPropertyOp13
 70
     1
102
RTVSPropertyOp14
 70
     1
102
RTVSPropertyOp15
 70
     1
102
RTVSPropertyOp16
 70
     1
102
RTVSPropertyOp17
 70
     1
102
RTVSPropertyOp18
 70
     1
102
RTVSPropertyOp19
 70
     1
102
RTVSPropertyOp20
 70
     1
102
RTVSPropertyOp21
 70
     1
102
RTVSPropertyOp22
 70
     1
102
RTVSPropertyOp23
 70
     1
102
RTVSPropertyOp24
 70
     1
102
RTVSPropertyOp25
 70
     1
102
RTVSPropertyOp26
 70
     1
102
RTVSPropertyOp27
 70
     1
  0
XRECORD
  5
14C
102
{ACAD_REACTORS
330
14B
102
}
330
14B
100
AcDbXrecord
280
     1
102
RTVSPropertyOp0
 70
     1
102
RTVSPropertyOp1
 70
     1
102
RTVSPropertyOp2
 70
     1
102
RTVSPropertyOp3
 70
     1
102
RTVSPropertyOp4
 70
     1
102
RTVSPropertyOp5
 70
     1
102
RTVSPropertyOp6
 70
     1
102
RTVSPropertyOp7
 70
     1
102
RTVSPropertyOp8
 70
     1
102
RTVSPropertyOp9
 70
     1
102
RTVSPropertyOp10
 70
     1
102
RTVSPropertyOp11
 70
     1
102
RTVSPropertyOp12
 70
     1
102
RTVSPropertyOp13
 70
     1
102
RTVSPropertyOp14
 70
     1
102
RTVSPropertyOp15
 70
     1
102
RTVSPropertyOp16
 70
     1
102
RTVSPropertyOp17
 70
     1
102
RTVSPropertyOp18
 70
     1
102
RTVSPropertyOp19
 70
     1
102
RTVSPropertyOp20
 70
     1
102
RTVSPropertyOp21
 70
     1
102
RTVSPropertyOp22
 70
     1
102
RTVSPropertyOp23
 70
     1
102
RTVSPropertyOp24
 70
     1
102
RTVSPropertyOp25
 70
     1
102
RTVSPropertyOp26
 70
     1
102
RTVSPropertyOp27
 70
     1
  0
XRECORD
  5
140
102
{ACAD_REACTORS
330
13F
102
}
330
13F
100
AcDbXrecord
280
     1
102
RTVSPropertyOp0
 70
     1
102
RTVSPropertyOp1
 70
     1
102
RTVSPropertyOp2
 70
     1
102
RTVSPropertyOp3
 70
     1
102
RTVSPropertyOp4
 70
     1
102
RTVSPropertyOp5
 70
     1
102
RTVSPropertyOp6
 70
     1
102
RTVSPropertyOp7
 70
     1
102
RTVSPropertyOp8
 70
     1
102
RTVSPropertyOp9
 70
     1
102
RTVSPropertyOp10
 70
     1
102
RTVSPropertyOp11
 70
     1
102
RTVSPropertyOp12
 70
     1
102
RTVSPropertyOp13
 70
     1
102
RTVSPropertyOp14
 70
     1
102
RTVSPropertyOp15
 70
     1
102
RTVSPropertyOp16
 70
     1
102
RTVSPropertyOp17
 70
     1
102
RTVSPropertyOp18
 70
     1
102
RTVSPropertyOp19
 70
     1
102
RTVSPropertyOp20
 70
     1
102
RTVSPropertyOp21
 70
     1
102
RTVSPropertyOp22
 70
     1
102
RTVSPropertyOp23
 70
     1
102
RTVSPropertyOp24
 70
     1
102
RTVSPropertyOp25
 70
     1
102
RTVSPropertyOp26
 70
     1
102
RTVSPropertyOp27
 70
     1
  0
XRECORD
  5
142
102
{ACAD_REACTORS
330
141
102
}
330
141
100
AcDbXrecord
280
     1
102
RTVSPropertyOp0
 70
     1
102
RTVSPropertyOp1
 70
     1
102
RTVSPropertyOp2
 70
     1
102
RTVSPropertyOp3
 70
     1
102
RTVSPropertyOp4
 70
     1
102
RTVSPropertyOp5
 70
     1
102
RTVSPropertyOp6
 70
     1
102
RTVSPropertyOp7
 70
     1
102
RTVSPropertyOp8
 70
     1
102
RTVSPropertyOp9
 70
     1
102
RTVSPropertyOp10
 70
     1
102
RTVSPropertyOp11
 70
     1
102
RTVSPropertyOp12
 70
     1
102
RTVSPropertyOp13
 70
     1
102
RTVSPropertyOp14
 70
     1
102
RTVSPropertyOp15
 70
     1
102
RTVSPropertyOp16
 70
     1
102
RTVSPropertyOp17
 70
     1
102
RTVSPropertyOp18
 70
     1
102
RTVSPropertyOp19
 70
     1
102
RTVSPropertyOp20
 70
     1
102
RTVSPropertyOp21
 70
     1
102
RTVSPropertyOp22
 70
     1
102
RTVSPropertyOp23
 70
     1
102
RTVSPropertyOp24
 70
     1
102
RTVSPropertyOp25
 70
     1
102
RTVSPropertyOp26
 70
     1
102
RTVSPropertyOp27
 70
     1
  0
XRECORD
  5
14A
102
{ACAD_REACTORS
330
149
102
}
330
149
100
AcDbXrecord
280
     1
102
RTVSPropertyOp0
 70
     1
102
RTVSPropertyOp1
 70
     1
102
RTVSPropertyOp2
 70
     1
102
RTVSPropertyOp3
 70
     1
102
RTVSPropertyOp4
 70
     1
102
RTVSPropertyOp5
 70
     1
102
RTVSPropertyOp6
 70
     1
102
RTVSPropertyOp7
 70
     1
102
RTVSPropertyOp8
 70
     1
102
RTVSPropertyOp9
 70
     1
102
RTVSPropertyOp10
 70
     1
102
RTVSPropertyOp11
 70
     1
102
RTVSPropertyOp12
 70
     1
102
RTVSPropertyOp13
 70
     1
102
RTVSPropertyOp14
 70
     1
102
RTVSPropertyOp15
 70
     1
102
RTVSPropertyOp16
 70
     1
102
RTVSPropertyOp17
 70
     1
102
RTVSPropertyOp18
 70
     1
102
RTVSPropertyOp19
 70
     1
102
RTVSPropertyOp20
 70
     1
102
RTVSPropertyOp21
 70
     1
102
RTVSPropertyOp22
 70
     1
102
RTVSPropertyOp23
 70
     1
102
RTVSPropertyOp24
 70
     1
102
RTVSPropertyOp25
 70
     1
102
RTVSPropertyOp26
 70
     1
102
RTVSPropertyOp27
 70
     1
  0
XRECORD
  5
12E
102
{ACAD_REACTORS
330
12D
102
}
330
12D
100
AcDbXrecord
280
     1
102
RTVSPropertyOp0
 70
     1
102
RTVSPropertyOp1
 70
     1
102
RTVSPropertyOp2
 70
     1
102
RTVSPropertyOp3
 70
     1
102
RTVSPropertyOp4
 70
     1
102
RTVSPropertyOp5
 70
     1
102
RTVSPropertyOp6
 70
     1
102
RTVSPropertyOp7
 70
     1
102
RTVSPropertyOp8
 70
     1
102
RTVSPropertyOp9
 70
     1
102
RTVSPropertyOp10
 70
     1
102
RTVSPropertyOp11
 70
     1
102
RTVSPropertyOp12
 70
     1
102
RTVSPropertyOp13
 70
     1
102
RTVSPropertyOp14
 70
     1
102
RTVSPropertyOp15
 70
     1
102
RTVSPropertyOp16
 70
     1
102
RTVSPropertyOp17
 70
     1
102
RTVSPropertyOp18
 70
     1
102
RTVSPropertyOp19
 70
     1
102
RTVSPropertyOp20
 70
     1
102
RTVSPropertyOp21
 70
     1
102
RTVSPropertyOp22
 70
     1
102
RTVSPropertyOp23
 70
     1
102
RTVSPropertyOp24
 70
     1
102
RTVSPropertyOp25
 70
     1
102
RTVSPropertyOp26
 70
     1
102
RTVSPropertyOp27
 70
     1
  0
XRECORD
  5
130
102
{ACAD_REACTORS
330
12F
102
}
330
12F
100
AcDbXrecord
280
     1
102
RTVSPropertyOp0
 70
     1
102
RTVSPropertyOp1
 70
     1
102
RTVSPropertyOp2
 70
     1
102
RTVSPropertyOp3
 70
     1
102
RTVSPropertyOp4
 70
     1
102
RTVSPropertyOp5
 70
     1
102
RTVSPropertyOp6
 70
     1
102
RTVSPropertyOp7
 70
     1
102
RTVSPropertyOp8
 70
     1
102
RTVSPropertyOp9
 70
     1
102
RTVSPropertyOp10
 70
     1
102
RTVSPropertyOp11
 70
     1
102
RTVSPropertyOp12
 70
     1
102
RTVSPropertyOp13
 70
     1
102
RTVSPropertyOp14
 70
     1
102
RTVSPropertyOp15
 70
     1
102
RTVSPropertyOp16
 70
     1
102
RTVSPropertyOp17
 70
     1
102
RTVSPropertyOp18
 70
     1
102
RTVSPropertyOp19
 70
     1
102
RTVSPropertyOp20
 70
     1
102
RTVSPropertyOp21
 70
     1
102
RTVSPropertyOp22
 70
     1
102
RTVSPropertyOp23
 70
     1
102
RTVSPropertyOp24
 70
     1
102
RTVSPropertyOp25
 70
     1
102
RTVSPropertyOp26
 70
     1
102
RTVSPropertyOp27
 70
     1
  0
XRECORD
  5
132
102
{ACAD_REACTORS
330
131
102
}
330
131
100
AcDbXrecord
280
     1
102
RTVSPropertyOp0
 70
     1
102
RTVSPropertyOp1
 70
     1
102
RTVSPropertyOp2
 70
     1
102
RTVSPropertyOp3
 70
     1
102
RTVSPropertyOp4
 70
     1
102
RTVSPropertyOp5
 70
     1
102
RTVSPropertyOp6
 70
     1
102
RTVSPropertyOp7
 70
     1
102
RTVSPropertyOp8
 70
     1
102
RTVSPropertyOp9
 70
     1
102
RTVSPropertyOp10
 70
     1
102
RTVSPropertyOp11
 70
     1
102
RTVSPropertyOp12
 70
     1
102
RTVSPropertyOp13
 70
     1
102
RTVSPropertyOp14
 70
     1
102
RTVSPropertyOp15
 70
     1
102
RTVSPropertyOp16
 70
     1
102
RTVSPropertyOp17
 70
     1
102
RTVSPropertyOp18
 70
     1
102
RTVSPropertyOp19
 70
     1
102
RTVSPropertyOp20
 70
     1
102
RTVSPropertyOp21
 70
     1
102
RTVSPropertyOp22
 70
     1
102
RTVSPropertyOp23
 70
     1
102
RTVSPropertyOp24
 70
     1
102
RTVSPropertyOp25
 70
     1
102
RTVSPropertyOp26
 70
     1
102
RTVSPropertyOp27
 70
     1
  0
XRECORD
  5
134
102
{ACAD_REACTORS
330
133
102
}
330
133
100
AcDbXrecord
280
     1
102
RTVSPropertyOp0
 70
     1
102
RTVSPropertyOp1
 70
     1
102
RTVSPropertyOp2
 70
     1
102
RTVSPropertyOp3
 70
     1
102
RTVSPropertyOp4
 70
     1
102
RTVSPropertyOp5
 70
     1
102
RTVSPropertyOp6
 70
     1
102
RTVSPropertyOp7
 70
     1
102
RTVSPropertyOp8
 70
     1
102
RTVSPropertyOp9
 70
     1
102
RTVSPropertyOp10
 70
     1
102
RTVSPropertyOp11
 70
     1
102
RTVSPropertyOp12
 70
     1
102
RTVSPropertyOp13
 70
     1
102
RTVSPropertyOp14
 70
     1
102
RTVSPropertyOp15
 70
     1
102
RTVSPropertyOp16
 70
     1
102
RTVSPropertyOp17
 70
     1
102
RTVSPropertyOp18
 70
     1
102
RTVSPropertyOp19
 70
     1
102
RTVSPropertyOp20
 70
     1
102
RTVSPropertyOp21
 70
     1
102
RTVSPropertyOp22
 70
     1
102
RTVSPropertyOp23
 70
     1
102
RTVSPropertyOp24
 70
     1
102
RTVSPropertyOp25
 70
     1
102
RTVSPropertyOp26
 70
     1
102
RTVSPropertyOp27
 70
     1
  0
XRECORD
  5
148
102
{ACAD_REACTORS
330
147
102
}
330
147
100
AcDbXrecord
280
     1
102
RTVSPropertyOp0
 70
     1
102
RTVSPropertyOp1
 70
     1
102
RTVSPropertyOp2
 70
     1
102
RTVSPropertyOp3
 70
     1
102
RTVSPropertyOp4
 70
     1
102
RTVSPropertyOp5
 70
     1
102
RTVSPropertyOp6
 70
     1
102
RTVSPropertyOp7
 70
     1
102
RTVSPropertyOp8
 70
     1
102
RTVSPropertyOp9
 70
     1
102
RTVSPropertyOp10
 70
     1
102
RTVSPropertyOp11
 70
     1
102
RTVSPropertyOp12
 70
     1
102
RTVSPropertyOp13
 70
     1
102
RTVSPropertyOp14
 70
     1
102
RTVSPropertyOp15
 70
     1
102
RTVSPropertyOp16
 70
     1
102
RTVSPropertyOp17
 70
     1
102
RTVSPropertyOp18
 70
     1
102
RTVSPropertyOp19
 70
     1
102
RTVSPropertyOp20
 70
     1
102
RTVSPropertyOp21
 70
     1
102
RTVSPropertyOp22
 70
     1
102
RTVSPropertyOp23
 70
     1
102
RTVSPropertyOp24
 70
     1
102
RTVSPropertyOp25
 70
     1
102
RTVSPropertyOp26
 70
     1
102
RTVSPropertyOp27
 70
     1
  0
XRECORD
  5
13E
102
{ACAD_REACTORS
330
13D
102
}
330
13D
100
AcDbXrecord
280
     1
102
RTVSPropertyOp0
 70
     1
102
RTVSPropertyOp1
 70
     1
102
RTVSPropertyOp2
 70
     1
102
RTVSPropertyOp3
 70
     1
102
RTVSPropertyOp4
 70
     1
102
RTVSPropertyOp5
 70
     1
102
RTVSPropertyOp6
 70
     1
102
RTVSPropertyOp7
 70
     1
102
RTVSPropertyOp8
 70
     1
102
RTVSPropertyOp9
 70
     1
102
RTVSPropertyOp10
 70
     1
102
RTVSPropertyOp11
 70
     1
102
RTVSPropertyOp12
 70
     1
102
RTVSPropertyOp13
 70
     1
102
RTVSPropertyOp14
 70
     1
102
RTVSPropertyOp15
 70
     1
102
RTVSPropertyOp16
 70
     1
102
RTVSPropertyOp17
 70
     1
102
RTVSPropertyOp18
 70
     1
102
RTVSPropertyOp19
 70
     1
102
RTVSPropertyOp20
 70
     1
102
RTVSPropertyOp21
 70
     1
102
RTVSPropertyOp22
 70
     1
102
RTVSPropertyOp23
 70
     1
102
RTVSPropertyOp24
 70
     1
102
RTVSPropertyOp25
 70
     1
102
RTVSPropertyOp26
 70
     1
102
RTVSPropertyOp27
 70
     1
  0
XRECORD
  5
146
102
{ACAD_REACTORS
330
145
102
}
330
145
100
AcDbXrecord
280
     1
102
RTVSPropertyOp0
 70
     1
102
RTVSPropertyOp1
 70
     1
102
RTVSPropertyOp2
 70
     1
102
RTVSPropertyOp3
 70
     1
102
RTVSPropertyOp4
 70
     1
102
RTVSPropertyOp5
 70
     1
102
RTVSPropertyOp6
 70
     1
102
RTVSPropertyOp7
 70
     1
102
RTVSPropertyOp8
 70
     1
102
RTVSPropertyOp9
 70
     1
102
RTVSPropertyOp10
 70
     1
102
RTVSPropertyOp11
 70
     1
102
RTVSPropertyOp12
 70
     1
102
RTVSPropertyOp13
 70
     1
102
RTVSPropertyOp14
 70
     1
102
RTVSPropertyOp15
 70
     1
102
RTVSPropertyOp16
 70
     1
102
RTVSPropertyOp17
 70
     1
102
RTVSPropertyOp18
 70
     1
102
RTVSPropertyOp19
 70
     1
102
RTVSPropertyOp20
 70
     1
102
RTVSPropertyOp21
 70
     1
102
RTVSPropertyOp22
 70
     1
102
RTVSPropertyOp23
 70
     1
102
RTVSPropertyOp24
 70
     1
102
RTVSPropertyOp25
 70
     1
102
RTVSPropertyOp26
 70
     1
102
RTVSPropertyOp27
 70
     1
  0
ENDSEC
  0
EOF
