  0
SECTION
  2
HEADER
  9
$ACADVER
  1
AC1024
  9
$ACADMAINTVER
 70
     6
  9
$DWGCODEPAGE
  3
ANSI_1252
  9
$LASTSAVEDBY
  1
p.perez
  9
$INSBASE
 10
0.0
 20
0.0
 30
0.0
  9
$EXTMIN
 10
0.0
 20
0.0
 30
0.0
  9
$EXTMAX
 10
210.0
 20
297.0
 30
0.0
  9
$LIMMIN
 10
0.0
 20
0.0
  9
$LIMMAX
 10
210.0
 20
297.0
  9
$ORTHOMODE
 70
     0
  9
$REGENMODE
 70
     1
  9
$FILLMODE
 70
     1
  9
$QTEXTMODE
 70
     0
  9
$MIRRTEXT
 70
     1
  9
$LTSCALE
 40
1.0
  9
$ATTMODE
 70
     1
  9
$TEXTSIZE
 40
3.5
  9
$TRACEWID
 40
1.0
  9
$TEXTSTYLE
  7
STANDARD
  9
$CLAYER
  8
0
  9
$CELTYPE
  6
ByLayer
  9
$CECOLOR
 62
   256
  9
$CELTSCALE
 40
1.0
  9
$DISPSILH
 70
     0
  9
$DIMSCALE
 40
1.0
  9
$DIMASZ
 40
3.302
  9
$DIMEXO
 40
1.0
  9
$DIMDLI
 40
3.75
  9
$DIMRND
 40
0.0
  9
$DIMDLE
 40
0.0
  9
$DIMEXE
 40
1.0
  9
$DIMTP
 40
0.0
  9
$DIMTM
 40
0.0
  9
$DIMTXT
 40
3.5
  9
$DIMCEN
 40
2.5
  9
$DIMTSZ
 40
0.0
  9
$DIMTOL
 70
     0
  9
$DIMLIM
 70
     0
  9
$DIMTIH
 70
     1
  9
$DIMTOH
 70
     1
  9
$DIMSE1
 70
     0
  9
$DIMSE2
 70
     0
  9
$DIMTAD
 70
     1
  9
$DIMZIN
 70
     0
  9
$DIMBLK
  1

  9
$DIMASO
 70
     1
  9
$DIMSHO
 70
     1
  9
$DIMPOST
  1

  9
$DIMAPOST
  1

  9
$DIMALT
 70
     0
  9
$DIMALTD
 70
     3
  9
$DIMALTF
 40
0.0393700787
  9
$DIMLFAC
 40
2.0
  9
$DIMTOFL
 70
     1
  9
$DIMTVP
 40
0.0
  9
$DIMTIX
 70
     0
  9
$DIMSOXD
 70
     0
  9
$DIMSAH
 70
     0
  9
$DIMBLK1
  1

  9
$DIMBLK2
  1

  9
$DIMSTYLE
  2
ISO-25
  9
$DIMCLRD
 70
     0
  9
$DIMCLRE
 70
     0
  9
$DIMCLRT
 70
     0
  9
$DIMTFAC
 40
1.0
  9
$DIMGAP
 40
1.524
  9
$DIMJUST
 70
     0
  9
$DIMSD1
 70
     0
  9
$DIMSD2
 70
     0
  9
$DIMTOLJ
 70
     0
  9
$DIMTZIN
 70
     0
  9
$DIMALTZ
 70
     0
  9
$DIMALTTZ
 70
     0
  9
$DIMUPT
 70
     0
  9
$DIMDEC
 70
     2
  9
$DIMTDEC
 70
     2
  9
$DIMALTU
 70
     2
  9
$DIMALTTD
 70
     3
  9
$DIMTXSTY
  7
STANDARD
  9
$DIMAUNIT
 70
     0
  9
$DIMADEC
 70
     2
  9
$DIMALTRND
 40
0.0
  9
$DIMAZIN
 70
     0
  9
$DIMDSEP
 70
    44
  9
$DIMATFIT
 70
     3
  9
$DIMFRAC
 70
     0
  9
$DIMLDRBLK
  1

  9
$DIMLUNIT
 70
     2
  9
$DIMLWD
 70
    -2
  9
$DIMLWE
 70
    -2
  9
$DIMTMOVE
 70
     0
  9
$DIMFXL
 40
1.0
  9
$DIMFXLON
 70
     0
  9
$DIMJOGANG
 40
0.7853981634
  9
$DIMTFILL
 70
     0
  9
$DIMTFILLCLR
 70
     0
  9
$DIMARCSYM
 70
     0
  9
$DIMLTYPE
  6

  9
$DIMLTEX1
  6

  9
$DIMLTEX2
  6

  9
$DIMTXTDIRECTION
 70
     0
  9
$LUNITS
 70
     2
  9
$LUPREC
 70
     2
  9
$SKETCHINC
 40
1.0
  9
$FILLETRAD
 40
10.0
  9
$AUNITS
 70
     0
  9
$AUPREC
 70
     2
  9
$MENU
  1
.
  9
$ELEVATION
 40
0.0
  9
$PELEVATION
 40
0.0
  9
$THICKNESS
 40
0.0
  9
$LIMCHECK
 70
     0
  9
$CHAMFERA
 40
0.0
  9
$CHAMFERB
 40
0.0
  9
$CHAMFERC
 40
0.0
  9
$CHAMFERD
 40
0.0
  9
$SKPOLY
 70
     0
  9
$TDCREATE
 40
2459074.649282651
  9
$TDUCREATE
 40
2459074.565949317
  9
$TDUPDATE
 40
2459074.64928309
  9
$TDUUPDATE
 40
2459074.565949757
  9
$TDINDWG
 40
0.0000000116
  9
$TDUSRTIMER
 40
0.0000000116
  9
$USRTIMER
 70
     1
  9
$ANGBASE
 50
0.0
  9
$ANGDIR
 70
     0
  9
$PDMODE
 70
     0
  9
$PDSIZE
 40
-1.0
  9
$PLINEWID
 40
0.0
  9
$SPLFRAME
 70
     0
  9
$SPLINETYPE
 70
     6
  9
$SPLINESEGS
 70
     8
  9
$HANDSEED
  5
281
  9
$SURFTAB1
 70
     6
  9
$SURFTAB2
 70
     6
  9
$SURFTYPE
 70
     6
  9
$SURFU
 70
     6
  9
$SURFV
 70
     6
  9
$UCSBASE
  2

  9
$UCSNAME
  2

  9
$UCSORG
 10
0.0
 20
0.0
 30
0.0
  9
$UCSXDIR
 10
1.0
 20
0.0
 30
0.0
  9
$UCSYDIR
 10
0.0
 20
1.0
 30
0.0
  9
$UCSORTHOREF
  2

  9
$UCSORTHOVIEW
 70
     0
  9
$UCSORGTOP
 10
0.0
 20
0.0
 30
0.0
  9
$UCSORGBOTTOM
 10
0.0
 20
0.0
 30
0.0
  9
$UCSORGLEFT
 10
0.0
 20
0.0
 30
0.0
  9
$UCSORGRIGHT
 10
0.0
 20
0.0
 30
0.0
  9
$UCSORGFRONT
 10
0.0
 20
0.0
 30
0.0
  9
$UCSORGBACK
 10
0.0
 20
0.0
 30
0.0
  9
$PUCSBASE
  2

  9
$PUCSNAME
  2

  9
$PUCSORG
 10
0.0
 20
0.0
 30
0.0
  9
$PUCSXDIR
 10
1.0
 20
0.0
 30
0.0
  9
$PUCSYDIR
 10
0.0
 20
1.0
 30
0.0
  9
$PUCSORTHOREF
  2

  9
$PUCSORTHOVIEW
 70
     0
  9
$PUCSORGTOP
 10
0.0
 20
0.0
 30
0.0
  9
$PUCSORGBOTTOM
 10
0.0
 20
0.0
 30
0.0
  9
$PUCSORGLEFT
 10
0.0
 20
0.0
 30
0.0
  9
$PUCSORGRIGHT
 10
0.0
 20
0.0
 30
0.0
  9
$PUCSORGFRONT
 10
0.0
 20
0.0
 30
0.0
  9
$PUCSORGBACK
 10
0.0
 20
0.0
 30
0.0
  9
$USERI1
 70
     0
  9
$USERI2
 70
     0
  9
$USERI3
 70
     0
  9
$USERI4
 70
     0
  9
$USERI5
 70
     0
  9
$USERR1
 40
0.0
  9
$USERR2
 40
0.0
  9
$USERR3
 40
0.0
  9
$USERR4
 40
0.0
  9
$USERR5
 40
0.0
  9
$WORLDVIEW
 70
     1
  9
$SHADEDGE
 70
     3
  9
$SHADEDIF
 70
    70
  9
$TILEMODE
 70
     1
  9
$MAXACTVP
 70
    64
  9
$PINSBASE
 10
0.0
 20
0.0
 30
0.0
  9
$PLIMCHECK
 70
     0
  9
$PEXTMIN
 10
1.0000000000E+20
 20
1.0000000000E+20
 30
1.0000000000E+20
  9
$PEXTMAX
 10
-1.0000000000E+20
 20
-1.0000000000E+20
 30
-1.0000000000E+20
  9
$PLIMMIN
 10
0.0
 20
0.0
  9
$PLIMMAX
 10
420.0
 20
297.0
  9
$UNITMODE
 70
     0
  9
$VISRETAIN
 70
     1
  9
$PLINEGEN
 70
     0
  9
$PSLTSCALE
 70
     1
  9
$TREEDEPTH
 70
  3020
  9
$CMLSTYLE
  2
Standard
  9
$CMLJUST
 70
     0
  9
$CMLSCALE
 40
20.0
  9
$PROXYGRAPHICS
 70
     1
  9
$MEASUREMENT
 70
     1
  9
$CELWEIGHT
370
    -1
  9
$ENDCAPS
280
     0
  9
$JOINSTYLE
280
     0
  9
$LWDISPLAY
290
     1
  9
$INSUNITS
 70
     4
  9
$HYPERLINKBASE
  1

  9
$STYLESHEET
  1

  9
$XEDIT
290
     1
  9
$CEPSNTYPE
380
     0
  9
$PSTYLEMODE
290
     1
  9
$FINGERPRINTGUID
  2
{5e664cfc-2d67-419d-941f-d414efa38d4f}
  9
$VERSIONGUID
  2
{FAEB1C32-E019-11D5-929B-00C0DF256EC4}
  9
$EXTNAMES
290
     1
  9
$PSVPSCALE
 40
0.0
  9
$OLESTARTUP
290
     0
  9
$SORTENTS
280
   127
  9
$INDEXCTL
280
     0
  9
$HIDETEXT
280
     1
  9
$XCLIPFRAME
280
     2
  9
$HALOGAP
280
     0
  9
$OBSCOLOR
 70
   257
  9
$OBSLTYPE
280
     0
  9
$INTERSECTIONDISPLAY
280
     0
  9
$INTERSECTIONCOLOR
 70
   257
  9
$DIMASSOC
280
     2
  9
$PROJECTNAME
  1

  9
$CAMERADISPLAY
290
     0
  9
$LENSLENGTH
 40
50.0
  9
$CAMERAHEIGHT
 40
0.0
  9
$STEPSPERSEC
 40
2.0
  9
$STEPSIZE
 40
6.0
  9
$3DDWFPREC
 40
2.0
  9
$PSOLWIDTH
 40
5.0
  9
$PSOLHEIGHT
 40
80.0
  9
$LOFTANG1
 40
1.5707963268
  9
$LOFTANG2
 40
1.5707963268
  9
$LOFTMAG1
 40
0.0
  9
$LOFTMAG2
 40
0.0
  9
$LOFTPARAM
 70
     7
  9
$LOFTNORMALS
280
     1
  9
$LATITUDE
 40
37.795
  9
$LONGITUDE
 40
-122.394
  9
$NORTHDIRECTION
 40
0.0
  9
$TIMEZONE
 70
 -8000
  9
$LIGHTGLYPHDISPLAY
280
     1
  9
$TILEMODELIGHTSYNCH
280
     1
  9
$CMATERIAL
347
44
  9
$SOLIDHIST
280
     0
  9
$SHOWHIST
280
     1
  9
$DWFFRAME
280
     2
  9
$DGNFRAME
280
     2
  9
$REALWORLDSCALE
290
     1
  9
$INTERFERECOLOR
 62
   256
  9
$CSHADOW
280
     0
  9
$SHADOWPLANELOCATION
 40
0.0
  0
ENDSEC
  0
SECTION
  2
CLASSES
  0
CLASS
  1
ACDBDICTIONARYWDFLT
  2
AcDbDictionaryWithDefault
  3
ObjectDBX Classes
 90
        0
 91
        3
280
     0
281
     0
  0
CLASS
  1
VISUALSTYLE
  2
AcDbVisualStyle
  3
ObjectDBX Classes
 90
     4095
 91
        3
280
     0
281
     0
  0
CLASS
  1
MATERIAL
  2
AcDbMaterial
  3
ObjectDBX Classes
 90
     1153
 91
        3
280
     0
281
     0
  0
CLASS
  1
SCALE
  2
AcDbScale
  3
ObjectDBX Classes
 90
     1153
 91
        3
280
     0
281
     0
  0
CLASS
  1
TABLESTYLE
  2
AcDbTableStyle
  3
ObjectDBX Classes
 90
     4095
 91
        3
280
     0
281
     0
  0
CLASS
  1
MLEADERSTYLE
  2
AcDbMLeaderStyle
  3
ACDB_MLEADERSTYLE_CLASS
 90
     4095
 91
        3
280
     0
281
     0
  0
CLASS
  1
SUN
  2
AcDbSun
  3
SCENEOE
 90
     1153
 91
        3
280
     0
281
     0
  0
CLASS
  1
DICTIONARYVAR
  2
AcDbDictionaryVar
  3
ObjectDBX Classes
 90
        0
 91
        3
280
     0
281
     0
  0
CLASS
  1
CELLSTYLEMAP
  2
AcDbCellStyleMap
  3
ObjectDBX Classes
 90
     1152
 91
        3
280
     0
281
     0
  0
ENDSEC
  0
SECTION
  2
TABLES
  0
TABLE
  2
VPORT
  5
8
330
0
100
AcDbSymbolTable
 70
     1
  0
VPORT
  5
29
330
8
100
AcDbSymbolTableRecord
100
AcDbViewportTableRecord
  2
*Active
 70
     0
 10
0.0
 20
0.0
 11
1.0
 21
1.0
 12
105.0
 22
148.5
 13
0.0
 23
0.0
 14
10.0
 24
10.0
 15
10.0
 25
10.0
 16
0.0
 26
0.0
 36
1.0
 17
0.0
 27
0.0
 37
0.0
 40
297.0
 41
0.7070707071
 42
50.0
 43
0.0
 44
0.0
 50
0.0
 51
0.0
 71
     0
 72
  2000
 73
     1
 74
     3
 75
     0
 76
     0
 77
     0
 78
     0
281
     0
 65
     1
110
0.0
120
0.0
130
0.0
111
1.0
121
0.0
131
0.0
112
0.0
122
1.0
132
0.0
 79
     0
146
0.0
348
2F
 60
     3
 61
     5
292
     1
282
     1
141
0.0
142
0.0
 63
   250
361
6D
  0
ENDTAB
  0
TABLE
  2
LTYPE
  5
5
330
0
100
AcDbSymbolTable
 70
     8
  0
LTYPE
  5
14
330
5
100
AcDbSymbolTableRecord
100
AcDbLinetypeTableRecord
  2
ByBlock
 70
     0
  3

 72
    65
 73
     0
 40
0.0
  0
LTYPE
  5
15
330
5
100
AcDbSymbolTableRecord
100
AcDbLinetypeTableRecord
  2
ByLayer
 70
     0
  3

 72
    65
 73
     0
 40
0.0
  0
LTYPE
  5
16
330
5
100
AcDbSymbolTableRecord
100
AcDbLinetypeTableRecord
  2
Continuous
 70
     0
  3
Solid line
 72
    65
 73
     0
 40
0.0
  0
LTYPE
  5
6E
330
5
100
AcDbSymbolTableRecord
100
AcDbLinetypeTableRecord
  2
SLD-Durchgehend
 70
     0
  3
SolidWorks Line Style
 72
    65
 73
     0
 40
0.0
  0
LTYPE
  5
6F
330
5
100
AcDbSymbolTableRecord
100
AcDbLinetypeTableRecord
  2
SLD-Gestrichelt
 70
     0
  3
SolidWorks Line Style
 72
    65
 73
     2
 40
1.905
 49
1.27
 74
     0
 49
-0.635
 74
     0
  0
LTYPE
  5
70
330
5
100
AcDbSymbolTableRecord
100
AcDbLinetypeTableRecord
  2
SLD-Phantom
 70
     0
  3
SolidWorks Line Style
 72
    65
 73
     6
 40
12.7
 49
6.35
 74
     0
 49
-1.27
 74
     0
 49
1.27
 74
     0
 49
-1.27
 74
     0
 49
1.27
 74
     0
 49
-1.27
 74
     0
  0
LTYPE
  5
71
330
5
100
AcDbSymbolTableRecord
100
AcDbLinetypeTableRecord
  2
SLD-Kette
 70
     0
  3
SolidWorks Line Style
 72
    65
 73
     4
 40
10.16
 49
6.35
 74
     0
 49
-1.27
 74
     0
 49
1.27
 74
     0
 49
-1.27
 74
     0
  0
LTYPE
  5
72
330
5
100
AcDbSymbolTableRecord
100
AcDbLinetypeTableRecord
  2
SLD-Punktstrich
 70
     0
  3
SolidWorks Line Style
 72
    65
 73
     4
 40
19.05
 49
15.24
 74
     0
 49
-1.27
 74
     0
 49
1.27
 74
     0
 49
-1.27
 74
     0
  0
LTYPE
  5
73
330
5
100
AcDbSymbolTableRecord
100
AcDbLinetypeTableRecord
  2
SLD-Naht
 70
     0
  3
SolidWorks Line Style
 72
    65
 73
     2
 40
0.635
 49
0.0
 74
     0
 49
-0.635
 74
     0
  0
LTYPE
  5
74
330
5
100
AcDbSymbolTableRecord
100
AcDbLinetypeTableRecord
  2
SLD-Dicke-Dünne-Kette
 70
     0
  3
SolidWorks Line Style
 72
    65
 73
     4
 40
10.16
 49
6.35
 74
     0
 49
-1.27
 74
     0
 49
1.27
 74
     0
 49
-1.27
 74
     0
  0
ENDTAB
  0
TABLE
  2
LAYER
  5
2
330
0
100
AcDbSymbolTable
 70
     4
  0
LAYER
  5
10
330
2
100
AcDbSymbolTableRecord
100
AcDbLayerTableRecord
  2
0
 70
     0
 62
     7
  6
Continuous
370
    -3
390
F
347
46
  0
LAYER
  5
75
330
2
100
AcDbSymbolTableRecord
100
AcDbLayerTableRecord
  2
RAHMEN
 70
     0
 62
   179
  6
SLD-Durchgehend
370
    -3
390
F
347
46
  0
LAYER
  5
76
330
2
100
AcDbSymbolTableRecord
100
AcDbLayerTableRecord
  2
KOPF
 70
     0
 62
     7
  6
SLD-Durchgehend
370
    -3
390
F
347
46
  0
LAYER
  5
77
330
2
100
AcDbSymbolTableRecord
100
AcDbLayerTableRecord
  2
ZEICHNUNG
 70
     0
 62
     7
  6
SLD-Durchgehend
370
    -3
390
F
347
46
  0
ENDTAB
  0
TABLE
  2
STYLE
  5
3
330
0
100
AcDbSymbolTable
 70
     1
  0
STYLE
  5
11
330
3
100
AcDbSymbolTableRecord
100
AcDbTextStyleTableRecord
  2
STANDARD
 70
     0
 40
0.0
 41
1.0
 50
0.0
 71
     0
 42
3.5
  3
GOTHIC.TTF
  4

1001
ACAD
1000
CENTURY GOTHIC
1071
       34
  0
ENDTAB
  0
TABLE
  2
VIEW
  5
6
330
0
100
AcDbSymbolTable
 70
     0
  0
ENDTAB
  0
TABLE
  2
UCS
  5
7
330
0
100
AcDbSymbolTable
 70
     0
  0
ENDTAB
  0
TABLE
  2
APPID
  5
9
330
0
100
AcDbSymbolTable
 70
     1
  0
APPID
  5
12
330
9
100
AcDbSymbolTableRecord
100
AcDbRegAppTableRecord
  2
ACAD
 70
     0
  0
ENDTAB
  0
TABLE
  2
DIMSTYLE
  5
A
330
0
100
AcDbSymbolTable
 70
     1
100
AcDbDimStyleTable
  0
DIMSTYLE
105
27
330
A
100
AcDbSymbolTableRecord
100
AcDbDimStyleTableRecord
  2
ISO-25
 70
     0
 41
2.5
 42
0.625
 43
3.75
 44
1.25
 73
     0
 74
     0
 77
     1
 78
     8
140
2.5
141
2.5
143
0.0393700787
147
0.625
171
     3
172
     1
178
     0
271
     2
272
     2
274
     3
278
    44
283
     0
284
     8
340
11
  0
ENDTAB
  0
TABLE
  2
BLOCK_RECORD
  5
1
330
0
100
AcDbSymbolTable
 70
     2
  0
BLOCK_RECORD
  5
1F
330
1
100
AcDbSymbolTableRecord
100
AcDbBlockTableRecord
  2
*Model_Space
340
22
 70
     0
280
     1
281
     0
  0
BLOCK_RECORD
  5
1B
330
1
100
AcDbSymbolTableRecord
100
AcDbBlockTableRecord
  2
*Paper_Space
340
1E
 70
     0
280
     1
281
     0
  0
BLOCK_RECORD
  5
23
330
1
100
AcDbSymbolTableRecord
100
AcDbBlockTableRecord
  2
*Paper_Space0
340
26
 70
     0
280
     1
281
     0
  0
BLOCK_RECORD
  5
78
330
1
100
AcDbSymbolTableRecord
100
AcDbBlockTableRecord
  2
Block2
340
0
 70
     0
280
     1
281
     0
  0
ENDTAB
  0
ENDSEC
  0
SECTION
  2
BLOCKS
  0
BLOCK
  5
20
330
1F
100
AcDbEntity
  8
0
100
AcDbBlockBegin
  2
*Model_Space
 70
     0
 10
0.0
 20
0.0
 30
0.0
  3
*Model_Space
  1

  0
ENDBLK
  5
21
330
1F
100
AcDbEntity
  8
0
100
AcDbBlockEnd
  0
BLOCK
  5
1C
330
1B
100
AcDbEntity
 67
     1
  8
0
100
AcDbBlockBegin
  2
*Paper_Space
 70
     0
 10
0.0
 20
0.0
 30
0.0
  3
*Paper_Space
  1

  0
ENDBLK
  5
1D
330
1B
100
AcDbEntity
 67
     1
  8
0
100
AcDbBlockEnd
  0
BLOCK
  5
24
330
23
100
AcDbEntity
  8
0
100
AcDbBlockBegin
  2
*Paper_Space0
 70
     0
 10
0.0
 20
0.0
 30
0.0
  3
*Paper_Space0
  1

  0
ENDBLK
  5
25
330
23
100
AcDbEntity
  8
0
100
AcDbBlockEnd
  0
BLOCK
  5
79
330
78
100
AcDbEntity
  8
0
100
AcDbBlockBegin
  2
Block2
 70
     0
 10
0.0
 20
0.0
 30
0.0
  3
Block2
  1

  0
LINE
  5
7B
330
78
100
AcDbEntity
  8
0
  6
SLD-Durchgehend
 62
     7
370
    18
100
AcDbLine
 10
232.946671374
 20
51.7797156982
 30
0.0
 11
232.9472759882
 21
51.7797156982
 31
0.0
  0
LINE
  5
7C
330
78
100
AcDbEntity
  8
0
  6
SLD-Durchgehend
 62
     7
370
    18
100
AcDbLine
 10
233.6727459183
 20
55.2624953613
 30
0.0
 11
232.946671374
 21
55.2624953613
 31
0.0
  0
LINE
  5
7D
330
78
100
AcDbEntity
  8
0
  6
SLD-Durchgehend
 62
     7
370
    18
100
AcDbLine
 10
253.2143962099
 20
49.5548695882
 30
0.0
 11
253.2143962099
 21
52.1631754964
 31
0.0
  0
LINE
  5
7E
330
78
100
AcDbEntity
  8
0
  6
SLD-Durchgehend
 62
     7
370
    18
100
AcDbLine
 10
264.9174441429
 20
55.2308538818
 30
0.0
 11
264.9174441429
 21
49.5548695882
 31
0.0
  0
LINE
  5
7F
330
78
100
AcDbEntity
  8
0
  6
SLD-Durchgehend
 62
     7
370
    18
100
AcDbLine
 10
252.5518733421
 20
49.5548695882
 30
0.0
 11
253.2143962099
 21
49.5548695882
 31
0.0
  0
LINE
  5
80
330
78
100
AcDbEntity
  8
0
  6
SLD-Durchgehend
 62
     7
370
    18
100
AcDbLine
 10
249.836685069
 20
49.4456359456
 30
0.0
 11
249.841521983
 21
49.4456359456
 31
0.0
  0
LINE
  5
81
330
78
100
AcDbEntity
  8
0
  6
SLD-Durchgehend
 62
     7
370
    18
100
AcDbLine
 10
259.9476493024
 20
53.0527646077
 30
0.0
 11
259.9116411643
 21
53.1341188151
 31
0.0
  0
LINE
  5
82
330
78
100
AcDbEntity
  8
0
  6
SLD-Durchgehend
 62
     7
370
    18
100
AcDbLine
 10
267.7771352236
 20
49.5548695882
 30
0.0
 11
268.4404642438
 21
49.5548695882
 31
0.0
  0
LINE
  5
83
330
78
100
AcDbEntity
  8
0
  6
SLD-Durchgehend
 62
     7
370
    18
100
AcDbLine
 10
233.6739551468
 20
51.7216727295
 30
0.0
 11
233.6727459183
 21
51.7216727295
 31
0.0
  0
LINE
  5
84
330
78
100
AcDbEntity
  8
0
  6
SLD-Durchgehend
 62
     7
370
    18
100
AcDbLine
 10
265.579832652
 20
49.5548695882
 30
0.0
 11
265.579832652
 21
52.1637129313
 31
0.0
  0
LINE
  5
85
330
78
100
AcDbEntity
  8
0
  6
SLD-Durchgehend
 62
     7
370
    18
100
AcDbLine
 10
251.7394061383
 20
50.8797809652
 30
0.0
 11
251.7625830182
 21
50.954350057
 31
0.0
  0
LINE
  5
86
330
78
100
AcDbEntity
  8
0
  6
SLD-Durchgehend
 62
     7
370
    18
100
AcDbLine
 10
259.2890228375
 20
53.0527646077
 30
0.0
 11
259.9476493024
 21
53.0527646077
 31
0.0
  0
LINE
  5
87
330
78
100
AcDbEntity
  8
0
  6
SLD-Durchgehend
 62
     7
370
    18
100
AcDbLine
 10
233.6727459183
 20
51.7216727295
 30
0.0
 11
233.6727459183
 21
55.2624953613
 31
0.0
  0
LINE
  5
88
330
78
100
AcDbEntity
  8
0
  6
SLD-Durchgehend
 62
     7
370
    18
100
AcDbLine
 10
232.946671374
 20
55.2624953613
 30
0.0
 11
232.946671374
 21
51.7797156982
 31
0.0
  0
LINE
  5
89
330
78
100
AcDbEntity
  8
0
  6
SLD-Durchgehend
 62
     7
370
    18
100
AcDbLine
 10
276.3746954633
 20
50.0044338772
 30
0.0
 11
276.3746599345
 21
49.5548695882
 31
0.0
  0
LINE
  5
8A
330
78
100
AcDbEntity
  8
0
  6
SLD-Durchgehend
 62
     7
370
    18
100
AcDbLine
 10
267.7771352236
 20
52.4097237549
 30
0.0
 11
267.7771352236
 21
49.5548695882
 31
0.0
  0
LINE
  5
8B
330
78
100
AcDbEntity
  8
0
  6
SLD-Durchgehend
 62
     7
370
    18
100
AcDbLine
 10
279.6434249755
 20
53.6669183209
 30
0.0
 11
279.6434249755
 21
54.0432571068
 31
0.0
  0
LINE
  5
8C
330
78
100
AcDbEntity
  8
0
  6
SLD-Durchgehend
 62
     7
370
    18
100
AcDbLine
 10
255.4121690371
 20
49.5548695882
 30
0.0
 11
256.0747590843
 21
49.5548695882
 31
0.0
  0
LINE
  5
8D
330
78
100
AcDbEntity
  8
0
  6
SLD-Durchgehend
 62
     7
370
    18
100
AcDbLine
 10
240.2502572939
 20
49.4456359456
 30
0.0
 11
240.252138316
 21
49.4456359456
 31
0.0
  0
LINE
  5
8E
330
78
100
AcDbEntity
  8
0
  6
SLD-Durchgehend
 62
     7
370
    18
100
AcDbLine
 10
247.024825694
 20
51.7258378499
 30
0.0
 11
247.0260349225
 21
51.7258378499
 31
0.0
  0
LINE
  5
8F
330
78
100
AcDbEntity
  8
0
  6
SLD-Durchgehend
 62
     7
370
    18
100
AcDbLine
 10
253.2143962099
 20
54.0432571208
 30
0.0
 11
252.5518733421
 21
54.0432571208
 31
0.0
  0
LINE
  5
90
330
78
100
AcDbEntity
  8
0
  6
SLD-Durchgehend
 62
     7
370
    18
100
AcDbLine
 10
258.3740399274
 20
54.1393236084
 30
0.0
 11
258.3170718284
 21
54.1387861735
 31
0.0
  0
LINE
  5
91
330
78
100
AcDbEntity
  8
0
  6
SLD-Durchgehend
 62
     7
370
    18
100
AcDbLine
 10
278.710930268
 20
53.4717792044
 30
0.0
 11
276.3746954633
 21
50.0044338772
 31
0.0
  0
LINE
  5
92
330
78
100
AcDbEntity
  8
0
  6
SLD-Durchgehend
 62
     7
370
    18
100
AcDbLine
 10
263.7180238141
 20
52.978397054
 30
0.0
 11
264.4359024762
 21
52.9736944987
 31
0.0
  0
LINE
  5
93
330
78
100
AcDbEntity
  8
0
  6
SLD-Durchgehend
 62
     7
370
    18
100
AcDbLine
 10
279.6776899522
 20
50.1267003034
 30
0.0
 11
277.2619165934
 21
50.1267003034
 31
0.0
  0
LINE
  5
94
330
78
100
AcDbEntity
  8
0
  6
SLD-Durchgehend
 62
     7
370
    18
100
AcDbLine
 10
244.9913735862
 20
49.4456359456
 30
0.0
 11
244.9984945986
 21
49.4456359456
 31
0.0
  0
LINE
  5
95
330
78
100
AcDbEntity
  8
0
  6
SLD-Durchgehend
 62
     7
370
    18
100
AcDbLine
 10
279.6434249755
 20
54.0432571068
 30
0.0
 11
276.3750146496
 21
54.0432571068
 31
0.0
  0
LINE
  5
96
330
78
100
AcDbEntity
  8
0
  6
SLD-Durchgehend
 62
     7
370
    18
100
AcDbLine
 10
279.6774157734
 20
49.5548695882
 30
0.0
 11
279.6776899522
 21
50.1267003034
 31
0.0
  0
LINE
  5
97
330
78
100
AcDbEntity
  8
0
  6
SLD-Durchgehend
 62
     7
370
    18
100
AcDbLine
 10
264.4359024762
 20
52.9736944987
 30
0.0
 11
264.4000286969
 21
53.055586141
 31
0.0
  0
LINE
  5
98
330
78
100
AcDbEntity
  8
0
  6
SLD-Durchgehend
 62
     7
370
    18
100
AcDbLine
 10
277.2619165934
 20
50.1267003034
 30
0.0
 11
279.6434249755
 21
53.6669183209
 31
0.0
  0
LINE
  5
99
330
78
100
AcDbEntity
  8
0
  6
SLD-Durchgehend
 62
     7
370
    18
100
AcDbLine
 10
276.3746599345
 20
49.5548695882
 30
0.0
 11
279.6774157734
 21
49.5548695882
 31
0.0
  0
LINE
  5
9A
330
78
100
AcDbEntity
  8
0
  6
SLD-Durchgehend
 62
     7
370
    18
100
AcDbLine
 10
253.2143962099
 20
53.5326939697
 30
0.0
 11
253.2143962099
 21
54.0432571208
 31
0.0
  0
LINE
  5
9B
330
78
100
AcDbEntity
  8
0
  6
SLD-Durchgehend
 62
     7
370
    18
100
AcDbLine
 10
276.3749694859
 20
53.4717792044
 30
0.0
 11
276.3750146496
 21
54.0432571068
 31
0.0
  0
LINE
  5
9C
330
78
100
AcDbEntity
  8
0
  6
SLD-Durchgehend
 62
     7
370
    18
100
AcDbLine
 10
264.9174441429
 20
49.5548695882
 30
0.0
 11
265.579832652
 21
49.5548695882
 31
0.0
  0
LINE
  5
9D
330
78
100
AcDbEntity
  8
0
  6
SLD-Durchgehend
 62
     7
370
    18
100
AcDbLine
 10
264.4688203636
 20
50.7029648844
 30
0.0
 11
264.4999915875
 21
50.7819678141
 31
0.0
  0
LINE
  5
9E
330
78
100
AcDbEntity
  8
0
  6
SLD-Durchgehend
 62
     7
370
    18
100
AcDbLine
 10
276.3749694859
 20
53.4717792044
 30
0.0
 11
278.710930268
 21
53.4717792044
 31
0.0
  0
LINE
  5
9F
330
78
100
AcDbEntity
  8
0
  6
SLD-Durchgehend
 62
     7
370
    18
100
AcDbLine
 10
259.272227997
 20
53.0812486572
 30
0.0
 11
259.2890228375
 21
53.0527646077
 31
0.0
  0
LINE
  5
A0
330
78
100
AcDbEntity
  8
0
  6
SLD-Durchgehend
 62
     7
370
    18
100
AcDbLine
 10
251.8036296083
 20
51.7591588135
 30
0.0
 11
251.8015470481
 21
51.8196202393
 31
0.0
  0
LINE
  5
A1
330
78
100
AcDbEntity
  8
0
  6
SLD-Durchgehend
 62
     7
370
    18
100
AcDbLine
 10
256.0747590843
 20
49.5548695882
 30
0.0
 11
256.0747590843
 21
52.5733055013
 31
0.0
  0
LINE
  5
A2
330
78
100
AcDbEntity
  8
0
  6
SLD-Durchgehend
 62
     7
370
    18
100
AcDbLine
 10
274.3795206485
 20
53.4714263916
 30
0.0
 11
274.3795206485
 21
50.2778538818
 31
0.0
  0
LINE
  5
A3
330
78
100
AcDbEntity
  8
0
  6
SLD-Durchgehend
 62
     7
370
    18
100
AcDbLine
 10
275.0414733219
 20
55.2308538818
 30
0.0
 11
274.3795206485
 21
55.2308538818
 31
0.0
  0
LINE
  5
A4
330
78
100
AcDbEntity
  8
0
  6
SLD-Durchgehend
 62
     7
370
    18
100
AcDbLine
 10
275.0421778775
 20
53.4714263997
 30
0.0
 11
275.7691929911
 21
53.4714263997
 31
0.0
  0
LINE
  5
A5
330
78
100
AcDbEntity
  8
0
  6
SLD-Durchgehend
 62
     7
370
    18
100
AcDbLine
 10
249.8141799827
 20
50.071881958
 30
0.0
 11
249.8012143658
 21
50.0721506755
 31
0.0
  0
LINE
  5
A6
330
78
100
AcDbEntity
  8
0
  6
SLD-Durchgehend
 62
     7
370
    18
100
AcDbLine
 10
256.6612349143
 20
50.8026590576
 30
0.0
 11
256.684747691
 21
50.7275525309
 31
0.0
  0
LINE
  5
A7
330
78
100
AcDbEntity
  8
0
  6
SLD-Durchgehend
 62
     7
370
    18
100
AcDbLine
 10
247.0260349225
 20
51.7258378499
 30
0.0
 11
247.0260349225
 21
55.2308538818
 31
0.0
  0
LINE
  5
A8
330
78
100
AcDbEntity
  8
0
  6
SLD-Durchgehend
 62
     7
370
    18
100
AcDbLine
 10
255.4121690371
 20
52.40918632
 30
0.0
 11
255.4121690371
 21
49.5548695882
 31
0.0
  0
LINE
  5
A9
330
78
100
AcDbEntity
  8
0
  6
SLD-Durchgehend
 62
     7
370
    18
100
AcDbLine
 10
263.7743201194
 20
50.7822365316
 30
0.0
 11
263.7591375836
 21
50.7491842855
 31
0.0
  0
LINE
  5
AA
330
78
100
AcDbEntity
  8
0
  6
SLD-Durchgehend
 62
     7
370
    18
100
AcDbLine
 10
265.579832652
 20
53.5253714193
 30
0.0
 11
265.579832652
 21
55.2308538818
 31
0.0
  0
LINE
  5
AB
330
78
100
AcDbEntity
  8
0
  6
SLD-Durchgehend
 62
     7
370
    18
100
AcDbLine
 10
275.0421778775
 20
50.6422347493
 30
0.0
 11
275.0421778775
 21
53.4714263997
 31
0.0
  0
LINE
  5
AC
330
78
100
AcDbEntity
  8
0
  6
SLD-Durchgehend
 62
     7
370
    18
100
AcDbLine
 10
251.0529674176
 20
52.3307208252
 30
0.0
 11
248.4766388857
 21
52.3307208252
 31
0.0
  0
LINE
  5
AD
330
78
100
AcDbEntity
  8
0
  6
SLD-Durchgehend
 62
     7
370
    18
100
AcDbLine
 10
265.579832652
 20
55.2308538818
 30
0.0
 11
264.9174441429
 21
55.2308538818
 31
0.0
  0
LINE
  5
AE
330
78
100
AcDbEntity
  8
0
  6
SLD-Durchgehend
 62
     7
370
    18
100
AcDbLine
 10
264.4999915875
 20
50.7819678141
 30
0.0
 11
263.7743201194
 21
50.7822365316
 31
0.0
  0
LINE
  5
AF
330
78
100
AcDbEntity
  8
0
  6
SLD-Durchgehend
 62
     7
370
    18
100
AcDbLine
 10
275.7691929394
 20
49.5336409268
 30
0.0
 11
275.7691929394
 21
50.0978132087
 31
0.0
  0
LINE
  5
B0
330
78
100
AcDbEntity
  8
0
  6
SLD-Durchgehend
 62
     7
370
    18
100
AcDbLine
 10
274.3795206485
 20
55.2308538818
 30
0.0
 11
274.3795206485
 21
54.0429884033
 31
0.0
  0
LINE
  5
B1
330
78
100
AcDbEntity
  8
0
  6
SLD-Durchgehend
 62
     7
370
    18
100
AcDbLine
 10
274.3795206485
 20
54.0429884033
 30
0.0
 11
273.7919506049
 21
54.0429884033
 31
0.0
  0
LINE
  5
B2
330
78
100
AcDbEntity
  8
0
  6
SLD-Durchgehend
 62
     7
370
    18
100
AcDbLine
 10
275.0419489884
 20
54.0430117619
 30
0.0
 11
275.0414733219
 21
55.2308538818
 31
0.0
  0
LINE
  5
B3
330
78
100
AcDbEntity
  8
0
  6
SLD-Durchgehend
 62
     7
370
    18
100
AcDbLine
 10
246.3676771751
 20
55.2308538818
 30
0.0
 11
246.3676771751
 21
53.54109139
 31
0.0
  0
LINE
  5
B4
330
78
100
AcDbEntity
  8
0
  6
SLD-Durchgehend
 62
     7
370
    18
100
AcDbLine
 10
248.4676368512
 20
51.7591588135
 30
0.0
 11
251.8036296083
 21
51.7591588135
 31
0.0
  0
LINE
  5
B5
330
78
100
AcDbEntity
  8
0
  6
SLD-Durchgehend
 62
     7
370
    18
100
AcDbLine
 10
273.7919506049
 20
53.4714263916
 30
0.0
 11
274.3795206485
 21
53.4714263916
 31
0.0
  0
LINE
  5
B6
330
78
100
AcDbEntity
  8
0
  6
SLD-Durchgehend
 62
     7
370
    18
100
AcDbLine
 10
273.7919506049
 20
54.0429884033
 30
0.0
 11
273.7919506049
 21
53.4714263916
 31
0.0
  0
LINE
  5
B7
330
78
100
AcDbEntity
  8
0
  6
SLD-Durchgehend
 62
     7
370
    18
100
AcDbLine
 10
251.0299248964
 20
50.954350057
 30
0.0
 11
251.0163546653
 21
50.9159234619
 31
0.0
  0
LINE
  5
B8
330
78
100
AcDbEntity
  8
0
  6
SLD-Durchgehend
 62
     7
370
    18
100
AcDbLine
 10
275.7691929911
 20
53.4714263997
 30
0.0
 11
275.7689641251
 21
54.0429543063
 31
0.0
  0
LINE
  5
B9
330
78
100
AcDbEntity
  8
0
  6
SLD-Durchgehend
 62
     7
370
    18
100
AcDbLine
 10
252.5518733421
 20
54.0432571208
 30
0.0
 11
252.5518733421
 21
49.5548695882
 31
0.0
  0
LINE
  5
BA
330
78
100
AcDbEntity
  8
0
  6
SLD-Durchgehend
 62
     7
370
    18
100
AcDbLine
 10
268.4404642438
 20
49.5548695882
 30
0.0
 11
268.4404642438
 21
52.5733055013
 31
0.0
  0
LINE
  5
BB
330
78
100
AcDbEntity
  8
0
  6
SLD-Durchgehend
 62
     7
370
    18
100
AcDbLine
 10
275.7689641251
 20
54.0429543063
 30
0.0
 11
275.0419489884
 21
54.0430117619
 31
0.0
  0
LINE
  5
BC
330
78
100
AcDbEntity
  8
0
  6
SLD-Durchgehend
 62
     7
370
    18
100
AcDbLine
 10
263.7028412783
 20
53.0121882731
 30
0.0
 11
263.7180238141
 21
52.978397054
 31
0.0
  0
LINE
  5
BD
330
78
100
AcDbEntity
  8
0
  6
SLD-Durchgehend
 62
     7
370
    18
100
AcDbLine
 10
258.3170718284
 20
54.1387861735
 30
0.0
 11
258.3170718284
 21
54.1375097656
 31
0.0
  0
LINE
  5
BE
330
78
100
AcDbEntity
  8
0
  6
SLD-Durchgehend
 62
     7
370
    18
100
AcDbLine
 10
257.3349095563
 20
50.8026590576
 30
0.0
 11
256.6612349143
 21
50.8026590576
 31
0.0
  0
LINE
  5
BF
330
78
100
AcDbEntity
  8
0
  6
SLD-Durchgehend
 62
     7
370
    18
100
AcDbLine
 10
257.3465987652
 20
50.7604704183
 30
0.0
 11
257.3349095563
 21
50.8026590576
 31
0.0
  0
LINE
  5
C0
330
78
100
AcDbEntity
  8
0
  6
SLD-Durchgehend
 62
     7
370
    18
100
AcDbLine
 10
271.1938845969
 20
49.4456359307
 30
0.0
 11
271.1949594667
 21
49.4456359307
 31
0.0
  0
LINE
  5
C1
330
78
100
AcDbEntity
  8
0
  6
SLD-Durchgehend
 62
     7
370
    18
100
AcDbLine
 10
262.5728844098
 20
49.4456359456
 30
0.0
 11
262.5853797711
 21
49.4456359456
 31
0.0
  0
LINE
  5
C2
330
78
100
AcDbEntity
  8
0
  6
SLD-Durchgehend
 62
     7
370
    18
100
AcDbLine
 10
247.0260349225
 20
55.2308538818
 30
0.0
 11
246.3676771751
 21
55.2308538818
 31
0.0
  0
LINE
  5
C3
330
78
100
AcDbEntity
  8
0
  6
SLD-Durchgehend
 62
     7
370
    18
100
AcDbLine
 10
258.3976870628
 20
49.4356934001
 30
0.0
 11
258.4476685081
 21
49.436230835
 31
0.0
  0
LINE
  5
C4
330
78
100
AcDbEntity
  8
0
  6
SLD-Durchgehend
 62
     7
370
    18
100
AcDbLine
 10
248.4677712099
 20
51.6989661051
 30
0.0
 11
248.4676368512
 21
51.7591588135
 31
0.0
  0
LINE
  5
C5
330
78
100
AcDbEntity
  8
0
  6
SLD-Durchgehend
 62
     7
370
    18
100
AcDbLine
 10
251.7625830182
 20
50.954350057
 30
0.0
 11
251.0299248964
 21
50.954350057
 31
0.0
  0
LINE
  5
C6
330
78
100
AcDbEntity
  8
0
  6
SLD-Durchgehend
 62
     7
370
    18
100
AcDbLine
 10
272.5521168952
 20
54.0432571195
 30
0.0
 11
272.5521168952
 21
53.6264091784
 31
0.0
  0
LINE
  5
C7
330
78
100
AcDbEntity
  8
0
  6
SLD-Durchgehend
 62
     7
370
    18
100
AcDbLine
 10
269.7885180068
 20
51.7991976678
 30
0.0
 11
269.7882492894
 21
51.7991976678
 31
0.0
  0
LINE
  5
C8
330
78
100
AcDbEntity
  8
0
  6
SLD-Durchgehend
 62
     7
370
    18
100
AcDbLine
 10
272.6762643972
 20
49.5548695882
 30
0.0
 11
273.2284787527
 21
49.5548695882
 31
0.0
  0
LINE
  5
C9
330
78
100
AcDbEntity
  8
0
  6
SLD-Durchgehend
 62
     7
370
    18
100
AcDbLine
 10
272.5890655808
 20
50.0075241284
 30
0.0
 11
272.6762643972
 21
49.5548695882
 31
0.0
  0
LINE
  5
CA
330
78
100
AcDbEntity
  8
0
  6
SLD-Durchgehend
 62
     7
370
    18
100
AcDbLine
 10
273.2284787527
 20
49.5548695882
 30
0.0
 11
273.2284787527
 21
54.0432571195
 31
0.0
  0
LINE
  5
CB
330
78
100
AcDbEntity
  8
0
  6
SLD-Durchgehend
 62
     7
370
    18
100
AcDbLine
 10
272.5521168952
 20
54.0432571195
 30
0.0
 11
273.2284787527
 21
54.0432571195
 31
0.0
  0
SPLINE
  5
CC
330
78
100
AcDbEntity
  8
0
  6
SLD-Durchgehend
 62
     8
420
  8421504
370
     0
100
AcDbSpline
210
0.0
220
0.0
230
1.0
 70
     8
 71
     3
 72
     8
 73
     4
 74
     0
 42
0.00000001
 43
0.00000001
 40
23.0
 40
23.0
 40
23.0
 40
23.0
 40
24.0
 40
24.0
 40
24.0
 40
24.0
 10
260.0939659527489
 20
50.82039440917971
 30
0.0
 10
260.0961156923323
 20
51.7381988525391
 30
0.0
 10
259.4008092958479
 20
51.98891223144533
 30
0.0
 10
258.7550812685041
 20
52.13281042480472
 30
0.0
  0
SPLINE
  5
CD
330
78
100
AcDbEntity
  8
0
  6
SLD-Durchgehend
 62
     8
420
  8421504
370
     0
100
AcDbSpline
210
0.0
220
0.0
230
1.0
 70
     8
 71
     3
 72
     8
 73
     4
 74
     0
 42
0.00000001
 43
0.00000001
 40
3.0
 40
3.0
 40
3.0
 40
3.0
 40
4.0
 40
4.0
 40
4.0
 40
4.0
 10
246.363243337189
 20
51.79919771321618
 30
0.0
 10
246.3701628114729
 20
50.59198457845055
 30
0.0
 10
245.7664218853661
 20
50.07403169759117
 30
0.0
 10
244.9913735862125
 20
50.07188195800784
 30
0.0
  0
SPLINE
  5
CE
330
78
100
AcDbEntity
  8
0
  6
SLD-Durchgehend
 62
     8
420
  8421504
370
     0
100
AcDbSpline
210
0.0
220
0.0
230
1.0
 70
     8
 71
     3
 72
     8
 73
     4
 74
     0
 42
0.00000001
 43
0.00000001
 40
1.0
 40
1.0
 40
1.0
 40
1.0
 40
2.0
 40
2.0
 40
2.0
 40
2.0
 10
249.7665498150536
 20
54.15289383951826
 30
0.0
 10
249.2061395774234
 20
54.15289383951826
 30
0.0
 10
248.694904632762
 20
53.94645166015629
 30
0.0
 10
248.3258883974104
 20
53.54626420084637
 30
0.0
  0
SPLINE
  5
CF
330
78
100
AcDbEntity
  8
0
  6
SLD-Durchgehend
 62
     8
420
  8421504
370
     0
100
AcDbSpline
210
0.0
220
0.0
230
1.0
 70
     8
 71
     3
 72
     8
 73
     4
 74
     0
 42
0.00000001
 43
0.00000001
 40
5.0
 40
5.0
 40
5.0
 40
5.0
 40
6.0
 40
6.0
 40
6.0
 40
6.0
 10
232.9472759882492
 20
51.77971569824223
 30
0.0
 10
232.9535908482752
 20
50.25501289876306
 30
0.0
 10
233.8585640334966
 20
49.43676826985681
 30
0.0
 10
234.9778393834315
 20
49.43676826985681
 30
0.0
  0
SPLINE
  5
D0
330
78
100
AcDbEntity
  8
0
  6
SLD-Durchgehend
 62
     8
420
  8421504
370
     0
100
AcDbSpline
210
0.0
220
0.0
230
1.0
 70
     8
 71
     3
 72
     8
 73
     4
 74
     0
 42
0.00000001
 43
0.00000001
 40
12.0
 40
12.0
 40
12.0
 40
12.0
 40
13.0
 40
13.0
 40
13.0
 40
13.0
 10
268.0578105979312
 20
53.71165979003909
 30
0.0
 10
267.7943331402489
 20
53.99354439290368
 30
0.0
 10
267.3903164573062
 20
54.15289383951826
 30
0.0
 10
266.842804657176
 20
54.15289383951826
 30
0.0
  0
SPLINE
  5
D1
330
78
100
AcDbEntity
  8
0
  6
SLD-Durchgehend
 62
     8
420
  8421504
370
     0
100
AcDbSpline
210
0.0
220
0.0
230
1.0
 70
     8
 71
     3
 72
     8
 73
     4
 74
     0
 42
0.00000001
 43
0.00000001
 40
9.0
 40
9.0
 40
9.0
 40
9.0
 40
10.0
 40
10.0
 40
10.0
 40
10.0
 10
260.5381558941552
 20
51.799735148112
 30
0.0
 10
260.5538758648583
 20
50.3993141682943
 30
0.0
 10
261.4438680523583
 20
49.44469543457033
 30
0.0
 10
262.5728844097802
 20
49.44563594563805
 30
0.0
  0
SPLINE
  5
D2
330
78
100
AcDbEntity
  8
0
  6
SLD-Durchgehend
 62
     8
420
  8421504
370
     0
100
AcDbSpline
210
0.0
220
0.0
230
1.0
 70
     8
 71
     3
 72
     8
 73
     4
 74
     0
 42
0.00000001
 43
0.00000001
 40
3.0
 40
3.0
 40
3.0
 40
3.0
 40
4.0
 40
4.0
 40
4.0
 40
4.0
 10
242.9563763531395
 20
51.79919771321618
 30
0.0
 10
242.9563763531395
 20
51.04101143391929
 30
0.0
 10
243.1810913189599
 20
50.45144535319012
 30
0.0
 10
243.5503762717593
 20
50.05172814941409
 30
0.0
  0
SPLINE
  5
D3
330
78
100
AcDbEntity
  8
0
  6
SLD-Durchgehend
 62
     8
420
  8421504
370
     0
100
AcDbSpline
210
0.0
220
0.0
230
1.0
 70
     8
 71
     3
 72
     8
 73
     4
 74
     0
 42
0.00000001
 43
0.00000001
 40
0.0
 40
0.0
 40
0.0
 40
0.0
 40
1.0
 40
1.0
 40
1.0
 40
1.0
 10
246.3676771750796
 20
53.54109138997399
 30
0.0
 10
246.0469629009911
 20
53.931269124349
 30
0.0
 10
245.5208141379703
 20
54.15289383951826
 30
0.0
 10
244.9913735862125
 20
54.15289383951826
 30
0.0
  0
SPLINE
  5
D4
330
78
100
AcDbEntity
  8
0
  6
SLD-Durchgehend
 62
     8
420
  8421504
370
     0
100
AcDbSpline
210
0.0
220
0.0
230
1.0
 70
     8
 71
     3
 72
    11
 73
     7
 74
     0
 42
0.00000001
 43
0.00000001
 40
1.0
 40
1.0
 40
1.0
 40
1.0
 40
2.0
 40
2.0
 40
2.0
 40
3.0
 40
3.0
 40
3.0
 40
3.0
 10
235.7273595250331
 20
53.54102421061203
 30
0.0
 10
236.3061097284836
 20
53.32248974609381
 30
0.0
 10
236.7050879592778
 20
52.70645499674485
 30
0.0
 10
236.7050879592778
 20
51.7957043863933
 30
0.0
 10
236.7050879592778
 20
50.87816866048182
 30
0.0
 10
236.3067815221034
 20
50.26656774902347
 30
0.0
 10
235.7287031122727
 20
50.04930969238286
 30
0.0
  0
SPLINE
  5
D5
330
78
100
AcDbEntity
  8
0
  6
SLD-Durchgehend
 62
     8
420
  8421504
370
     0
100
AcDbSpline
210
0.0
220
0.0
230
1.0
 70
     8
 71
     3
 72
     8
 73
     4
 74
     0
 42
0.00000001
 43
0.00000001
 40
1.0
 40
1.0
 40
1.0
 40
1.0
 40
2.0
 40
2.0
 40
2.0
 40
2.0
 10
249.7665498150536
 20
53.52637910970056
 30
0.0
 10
250.6097851666161
 20
53.52456526692713
 30
0.0
 10
250.922908172801
 20
52.93708174641929
 30
0.0
 10
251.0529674175927
 20
52.33072082519535
 30
0.0
  0
SPLINE
  5
D6
330
78
100
AcDbEntity
  8
0
  6
SLD-Durchgehend
 62
     8
420
  8421504
370
     0
100
AcDbSpline
210
0.0
220
0.0
230
1.0
 70
     8
 71
     3
 72
     8
 73
     4
 74
     0
 42
0.00000001
 43
0.00000001
 40
6.0
 40
6.0
 40
6.0
 40
6.0
 40
7.0
 40
7.0
 40
7.0
 40
7.0
 10
234.9778393834315
 20
49.43676826985681
 30
0.0
 10
235.0608058954758
 20
49.43676826985681
 30
0.0
 10
235.14377240752
 20
49.43985852050785
 30
0.0
 10
235.2267389195643
 20
49.44563594563805
 30
0.0
  0
SPLINE
  5
D7
330
78
100
AcDbEntity
  8
0
  6
SLD-Durchgehend
 62
     8
420
  8421504
370
     0
100
AcDbSpline
210
0.0
220
0.0
230
1.0
 70
     8
 71
     3
 72
     8
 73
     4
 74
     0
 42
0.00000001
 43
0.00000001
 40
6.0
 40
6.0
 40
6.0
 40
6.0
 40
7.0
 40
7.0
 40
7.0
 40
7.0
 10
241.6913217877099
 20
50.05172814941409
 30
0.0
 10
242.0604723817854
 20
50.45144535319012
 30
0.0
 10
242.2852545269677
 20
51.04101143391929
 30
0.0
 10
242.2852545269677
 20
51.79919771321618
 30
0.0
  0
SPLINE
  5
D8
330
78
100
AcDbEntity
  8
0
  6
SLD-Durchgehend
 62
     8
420
  8421504
370
     0
100
AcDbSpline
210
0.0
220
0.0
230
1.0
 70
     8
 71
     3
 72
     8
 73
     4
 74
     0
 42
0.00000001
 43
0.00000001
 40
5.0
 40
5.0
 40
5.0
 40
5.0
 40
6.0
 40
6.0
 40
6.0
 40
6.0
 10
237.4308937861008
 20
51.79570438639327
 30
0.0
 10
237.4271317418299
 20
52.92707202148441
 30
0.0
 10
236.8167400588872
 20
53.57031441243492
 30
0.0
 10
236.0195897496424
 20
53.57185953776045
 30
0.0
  0
SPLINE
  5
D9
330
78
100
AcDbEntity
  8
0
  6
SLD-Durchgehend
 62
     8
420
  8421504
370
     0
100
AcDbSpline
210
0.0
220
0.0
230
1.0
 70
     8
 71
     3
 72
     8
 73
     4
 74
     0
 42
0.00000001
 43
0.00000001
 40
3.0
 40
3.0
 40
3.0
 40
3.0
 40
4.0
 40
4.0
 40
4.0
 40
4.0
 10
235.7287031122727
 20
50.04930969238285
 30
0.0
 10
235.8220824254237
 20
50.029424601237
 30
0.0
 10
235.9193581415695
 20
50.01948205566409
 30
0.0
 10
236.0195897496424
 20
50.01907897949221
 30
0.0
  0
SPLINE
  5
DA
330
78
100
AcDbEntity
  8
0
  6
SLD-Durchgehend
 62
     8
420
  8421504
370
     0
100
AcDbSpline
210
0.0
220
0.0
230
1.0
 70
     8
 71
     3
 72
     8
 73
     4
 74
     0
 42
0.00000001
 43
0.00000001
 40
3.0
 40
3.0
 40
3.0
 40
3.0
 40
4.0
 40
4.0
 40
4.0
 40
4.0
 10
258.3858634950666
 20
53.56460416666669
 30
0.0
 10
258.8105714214989
 20
53.56124519856773
 30
0.0
 10
259.0927247418114
 20
53.38248091634117
 30
0.0
 10
259.2722279970197
 20
53.08124865722658
 30
0.0
  0
SPLINE
  5
DB
330
78
100
AcDbEntity
  8
0
  6
SLD-Durchgehend
 62
     8
420
  8421504
370
     0
100
AcDbSpline
210
0.0
220
0.0
230
1.0
 70
     8
 71
     3
 72
     8
 73
     4
 74
     0
 42
0.00000001
 43
0.00000001
 40
0.0
 40
0.0
 40
0.0
 40
0.0
 40
1.0
 40
1.0
 40
1.0
 40
1.0
 10
254.4773682151187
 20
54.1524235839844
 30
0.0
 10
254.0052316591292
 20
54.15369999186201
 30
0.0
 10
253.5150910341292
 20
53.98333312988284
 30
0.0
 10
253.2143962099104
 20
53.53269396972657
 30
0.0
  0
SPLINE
  5
DC
330
78
100
AcDbEntity
  8
0
  6
SLD-Durchgehend
 62
     8
420
  8421504
370
     0
100
AcDbSpline
210
0.0
220
0.0
230
1.0
 70
     8
 71
     3
 72
     8
 73
     4
 74
     0
 42
0.00000001
 43
0.00000001
 40
4.0
 40
4.0
 40
4.0
 40
4.0
 40
5.0
 40
5.0
 40
5.0
 40
5.0
 10
236.0195897496424
 20
50.01907897949221
 30
0.0
 10
236.8172103144211
 20
50.02109436035159
 30
0.0
 10
237.4267286656581
 20
50.65526753743492
 30
0.0
 10
237.4308937861008
 20
51.79570438639327
 30
0.0
  0
SPLINE
  5
DD
330
78
100
AcDbEntity
  8
0
  6
SLD-Durchgehend
 62
     8
420
  8421504
370
     0
100
AcDbSpline
210
0.0
220
0.0
230
1.0
 70
     8
 71
     3
 72
     8
 73
     4
 74
     0
 42
0.00000001
 43
0.00000001
 40
13.0
 40
13.0
 40
13.0
 40
13.0
 40
14.0
 40
14.0
 40
14.0
 40
14.0
 10
258.1843254091291
 20
51.63823596191408
 30
0.0
 10
258.5088017274885
 20
51.5730719807943
 30
0.0
 10
258.8295160015771
 20
51.52094079589845
 30
0.0
 10
259.0598068544416
 20
51.40996048990888
 30
0.0
  0
SPLINE
  5
DE
330
78
100
AcDbEntity
  8
0
  6
SLD-Durchgehend
 62
     8
420
  8421504
370
     0
100
AcDbSpline
210
0.0
220
0.0
230
1.0
 70
     8
 71
     3
 72
     8
 73
     4
 74
     0
 42
0.00000001
 43
0.00000001
 40
11.0
 40
11.0
 40
11.0
 40
11.0
 40
12.0
 40
12.0
 40
12.0
 40
12.0
 10
256.0747590842593
 20
52.5733055013021
 30
0.0
 10
256.0747590842593
 20
53.03361848958336
 30
0.0
 10
255.9559859722802
 20
53.43037980143232
 30
0.0
 10
255.6924413352359
 20
53.71165979003909
 30
0.0
  0
SPLINE
  5
DF
330
78
100
AcDbEntity
  8
0
  6
SLD-Durchgehend
 62
     8
420
  8421504
370
     0
100
AcDbSpline
210
0.0
220
0.0
230
1.0
 70
     8
 71
     3
 72
     8
 73
     4
 74
     0
 42
0.00000001
 43
0.00000001
 40
0.0
 40
0.0
 40
0.0
 40
0.0
 40
1.0
 40
1.0
 40
1.0
 40
1.0
 10
248.4766388856916
 20
52.33072082519535
 30
0.0
 10
248.5873504742333
 20
53.00748571777345
 30
0.0
 10
249.0482008974104
 20
53.52537141927086
 30
0.0
 10
249.7665498150536
 20
53.52637910970056
 30
0.0
  0
SPLINE
  5
E0
330
78
100
AcDbEntity
  8
0
  6
SLD-Durchgehend
 62
     8
420
  8421504
370
     0
100
AcDbSpline
210
0.0
220
0.0
230
1.0
 70
     8
 71
     3
 72
     8
 73
     4
 74
     0
 42
0.00000001
 43
0.00000001
 40
14.0
 40
14.0
 40
14.0
 40
14.0
 40
15.0
 40
15.0
 40
15.0
 40
15.0
 10
259.0598068544416
 20
51.40996048990888
 30
0.0
 10
259.2900977073062
 20
51.29615865071617
 30
0.0
 10
259.4282184755354
 20
51.14339278157556
 30
0.0
 10
259.4309056500146
 20
50.83866719563805
 30
0.0
  0
SPLINE
  5
E1
330
78
100
AcDbEntity
  8
0
  6
SLD-Durchgehend
 62
     8
420
  8421504
370
     0
100
AcDbSpline
210
0.0
220
0.0
230
1.0
 70
     8
 71
     3
 72
     8
 73
     4
 74
     0
 42
0.00000001
 43
0.00000001
 40
7.0
 40
7.0
 40
7.0
 40
7.0
 40
8.0
 40
8.0
 40
8.0
 40
8.0
 10
235.2267389195643
 20
49.44563594563805
 30
0.0
 10
234.3484359410487
 20
49.66813399251304
 30
0.0
 10
233.6945792109055
 20
50.4570884195964
 30
0.0
 10
233.6739551467778
 20
51.72167272949222
 30
0.0
  0
SPLINE
  5
E2
330
78
100
AcDbEntity
  8
0
  6
SLD-Durchgehend
 62
     8
420
  8421504
370
     0
100
AcDbSpline
210
0.0
220
0.0
230
1.0
 70
     8
 71
     3
 72
     8
 73
     4
 74
     0
 42
0.00000001
 43
0.00000001
 40
7.0
 40
7.0
 40
7.0
 40
7.0
 40
8.0
 40
8.0
 40
8.0
 40
8.0
 10
242.2852545269677
 20
51.79919771321618
 30
0.0
 10
242.2852545269677
 20
52.55704809570316
 30
0.0
 10
242.0604723817854
 20
53.14695007324222
 30
0.0
 10
241.6913217877099
 20
53.54626420084637
 30
0.0
  0
SPLINE
  5
E3
330
78
100
AcDbEntity
  8
0
  6
SLD-Durchgehend
 62
     8
420
  8421504
370
     0
100
AcDbSpline
210
0.0
220
0.0
230
1.0
 70
     8
 71
     3
 72
     8
 73
     4
 74
     0
 42
0.00000001
 43
0.00000001
 40
0.0
 40
0.0
 40
0.0
 40
0.0
 40
1.0
 40
1.0
 40
1.0
 40
1.0
 10
236.0195897496424
 20
53.57185953776045
 30
0.0
 10
235.9188207066737
 20
53.57159082031254
 30
0.0
 10
235.8212090937179
 20
53.56117801920577
 30
0.0
 10
235.7273595250331
 20
53.54102421061203
 30
0.0
  0
SPLINE
  5
E4
330
78
100
AcDbEntity
  8
0
  6
SLD-Durchgehend
 62
     8
420
  8421504
370
     0
100
AcDbSpline
210
0.0
220
0.0
230
1.0
 70
     8
 71
     3
 72
     8
 73
     4
 74
     0
 42
0.00000001
 43
0.00000001
 40
12.0
 40
12.0
 40
12.0
 40
12.0
 40
13.0
 40
13.0
 40
13.0
 40
13.0
 10
251.016354665314
 20
50.9159234619141
 30
0.0
 10
250.8335596213687
 20
50.40294185384116
 30
0.0
 10
250.4579598085432
 20
50.0826306559245
 30
0.0
 10
249.8141799826968
 20
50.07188195800784
 30
0.0
  0
SPLINE
  5
E5
330
78
100
AcDbEntity
  8
0
  6
SLD-Durchgehend
 62
     8
420
  8421504
370
     0
100
AcDbSpline
210
0.0
220
0.0
230
1.0
 70
     8
 71
     3
 72
     8
 73
     4
 74
     0
 42
0.00000001
 43
0.00000001
 40
21.0
 40
21.0
 40
21.0
 40
21.0
 40
22.0
 40
22.0
 40
22.0
 40
22.0
 10
274.6302340347482
 20
49.67283655090634
 30
0.0
 10
274.7848809273797
 20
49.56158752935308
 30
0.0
 10
274.9834631217241
 20
49.53417835208514
 30
0.0
 10
275.1847324902169
 20
49.53390963708953
 30
0.0
  0
SPLINE
  5
E6
330
78
100
AcDbEntity
  8
0
  6
SLD-Durchgehend
 62
     8
420
  8421504
370
     0
100
AcDbSpline
210
0.0
220
0.0
230
1.0
 70
     8
 71
     3
 72
     8
 73
     4
 74
     0
 42
0.00000001
 43
0.00000001
 40
6.0
 40
6.0
 40
6.0
 40
6.0
 40
7.0
 40
7.0
 40
7.0
 40
7.0
 10
244.9984945985823
 20
49.44563594563805
 30
0.0
 10
245.9458579612125
 20
49.44563594563805
 30
0.0
 10
246.7583251649885
 20
50.01303283691409
 30
0.0
 10
246.9688652854312
 20
51.13371895345053
 30
0.0
  0
SPLINE
  5
E7
330
78
100
AcDbEntity
  8
0
  6
SLD-Durchgehend
 62
     8
420
  8421504
370
     0
100
AcDbSpline
210
0.0
220
0.0
230
1.0
 70
     8
 71
     3
 72
     8
 73
     4
 74
     0
 42
0.00000001
 43
0.00000001
 40
7.0
 40
7.0
 40
7.0
 40
7.0
 40
8.0
 40
8.0
 40
8.0
 40
8.0
 10
264.4000286968895
 20
53.05558614095054
 30
0.0
 10
263.9996396994937
 20
53.97654801432294
 30
0.0
 10
263.2563672385562
 20
54.15558101399741
 30
0.0
 10
262.6999877626448
 20
54.1524235839844
 30
0.0
  0
SPLINE
  5
E8
330
78
100
AcDbEntity
  8
0
  6
SLD-Durchgehend
 62
     8
420
  8421504
370
     0
100
AcDbSpline
210
0.0
220
0.0
230
1.0
 70
     8
 71
     3
 72
     8
 73
     4
 74
     0
 42
0.00000001
 43
0.00000001
 40
3.0
 40
3.0
 40
3.0
 40
3.0
 40
4.0
 40
4.0
 40
4.0
 40
4.0
 10
262.6275684104312
 20
53.52637910970056
 30
0.0
 10
263.1397438661604
 20
53.52456526692713
 30
0.0
 10
263.5299216005354
 20
53.37381477864585
 30
0.0
 10
263.7028412782698
 20
53.01218827311202
 30
0.0
  0
SPLINE
  5
E9
330
78
100
AcDbEntity
  8
0
  6
SLD-Durchgehend
 62
     8
420
  8421504
370
     0
100
AcDbSpline
210
0.0
220
0.0
230
1.0
 70
     8
 71
     3
 72
     8
 73
     4
 74
     0
 42
0.00000001
 43
0.00000001
 40
20.0
 40
20.0
 40
20.0
 40
20.0
 40
21.0
 40
21.0
 40
21.0
 40
21.0
 10
256.6847476910302
 20
50.7275525309245
 30
0.0
 10
256.9378795269677
 20
49.9117263590495
 30
0.0
 10
257.6850483909
 20
49.45960925292972
 30
0.0
 10
258.397687062775
 20
49.43569340006511
 30
0.0
  0
SPLINE
  5
EA
330
78
100
AcDbEntity
  8
0
  6
SLD-Durchgehend
 62
     8
420
  8421504
370
     0
100
AcDbSpline
210
0.0
220
0.0
230
1.0
 70
     8
 71
     3
 72
     8
 73
     4
 74
     0
 42
0.00000001
 43
0.00000001
 40
0.0
 40
0.0
 40
0.0
 40
0.0
 40
1.0
 40
1.0
 40
1.0
 40
1.0
 10
251.8015470481265
 20
51.81962023925784
 30
0.0
 10
251.7605004579573
 20
53.12733369954429
 30
0.0
 10
251.0964324647933
 20
54.1553122965495
 30
0.0
 10
249.7665498150536
 20
54.15289383951826
 30
0.0
  0
SPLINE
  5
EB
330
78
100
AcDbEntity
  8
0
  6
SLD-Durchgehend
 62
     8
420
  8421504
370
     0
100
AcDbSpline
210
0.0
220
0.0
230
1.0
 70
     8
 71
     3
 72
     8
 73
     4
 74
     0
 42
0.00000001
 43
0.00000001
 40
12.0
 40
12.0
 40
12.0
 40
12.0
 40
13.0
 40
13.0
 40
13.0
 40
13.0
 10
256.8442314963687
 20
52.87897159830732
 30
0.0
 10
256.8418130393375
 20
51.96848970540368
 30
0.0
 10
257.5411501975406
 20
51.76144291178387
 30
0.0
 10
258.1843254091291
 20
51.63823596191408
 30
0.0
  0
SPLINE
  5
EC
330
78
100
AcDbEntity
  8
0
  6
SLD-Durchgehend
 62
     8
420
  8421504
370
     0
100
AcDbSpline
210
0.0
220
0.0
230
1.0
 70
     8
 71
     3
 72
     8
 73
     4
 74
     0
 42
0.00000001
 43
0.00000001
 40
15.0
 40
15.0
 40
15.0
 40
15.0
 40
16.0
 40
16.0
 40
16.0
 40
16.0
 10
259.4309056500146
 20
50.83866719563805
 30
0.0
 10
259.4306369325666
 20
50.17480074055992
 30
0.0
 10
258.8938738303531
 20
50.022975382487
 30
0.0
 10
258.4449813336083
 20
50.00443387858074
 30
0.0
  0
SPLINE
  5
ED
330
78
100
AcDbEntity
  8
0
  6
SLD-Durchgehend
 62
     8
420
  8421504
370
     0
100
AcDbSpline
210
0.0
220
0.0
230
1.0
 70
     8
 71
     3
 72
     8
 73
     4
 74
     0
 42
0.00000001
 43
0.00000001
 40
6.0
 40
6.0
 40
6.0
 40
6.0
 40
7.0
 40
7.0
 40
7.0
 40
7.0
 10
249.8010128277489
 20
49.44644209798179
 30
0.0
 10
249.8100148622541
 20
49.44644209798179
 30
0.0
 10
249.8223086854963
 20
49.44563594563805
 30
0.0
 10
249.8366850689599
 20
49.44563594563805
 30
0.0
  0
SPLINE
  5
EE
330
78
100
AcDbEntity
  8
0
  6
SLD-Durchgehend
 62
     8
420
  8421504
370
     0
100
AcDbSpline
210
0.0
220
0.0
230
1.0
 70
     8
 71
     3
 72
     8
 73
     4
 74
     0
 42
0.00000001
 43
0.00000001
 40
2.0
 40
2.0
 40
2.0
 40
2.0
 40
3.0
 40
3.0
 40
3.0
 40
3.0
 10
261.2008131207177
 20
51.79919771321618
 30
0.0
 10
261.2039033713687
 20
52.97658321126303
 30
0.0
 10
261.9115707704573
 20
53.52355757649742
 30
0.0
 10
262.6275684104312
 20
53.52637910970056
 30
0.0
  0
SPLINE
  5
EF
330
78
100
AcDbEntity
  8
0
  6
SLD-Durchgehend
 62
     8
420
  8421504
370
     0
100
AcDbSpline
210
0.0
220
0.0
230
1.0
 70
     8
 71
     3
 72
     8
 73
     4
 74
     0
 42
0.00000001
 43
0.00000001
 40
1.0
 40
1.0
 40
1.0
 40
1.0
 40
2.0
 40
2.0
 40
2.0
 40
2.0
 10
257.8763752138166
 20
52.36605716959637
 30
0.0
 10
257.6433971864729
 20
52.47173030598961
 30
0.0
 10
257.5089041037905
 20
52.6036705729167
 30
0.0
 10
257.5067543642073
 20
52.86090034993494
 30
0.0
  0
SPLINE
  5
F0
330
78
100
AcDbEntity
  8
0
  6
SLD-Durchgehend
 62
     8
420
  8421504
370
     0
100
AcDbSpline
210
0.0
220
0.0
230
1.0
 70
     8
 71
     3
 72
     8
 73
     4
 74
     0
 42
0.00000001
 43
0.00000001
 40
7.0
 40
7.0
 40
7.0
 40
7.0
 40
8.0
 40
8.0
 40
8.0
 40
8.0
 10
254.4043442486473
 20
53.52637910970056
 30
0.0
 10
255.0787578635562
 20
53.51542887369794
 30
0.0
 10
255.4008829042463
 20
53.27620316569013
 30
0.0
 10
255.4121690370588
 20
52.409186319987
 30
0.0
  0
SPLINE
  5
F1
330
78
100
AcDbEntity
  8
0
  6
SLD-Durchgehend
 62
     8
420
  8421504
370
     0
100
AcDbSpline
210
0.0
220
0.0
230
1.0
 70
     8
 71
     3
 72
     8
 73
     4
 74
     0
 42
0.00000001
 43
0.00000001
 40
1.0
 40
1.0
 40
1.0
 40
1.0
 40
2.0
 40
2.0
 40
2.0
 40
2.0
 10
238.8781860048323
 20
51.79919771321618
 30
0.0
 10
238.8819480491031
 20
52.89966284179692
 30
0.0
 10
239.475746429637
 20
53.52456526692712
 30
0.0
 10
240.2502572938948
 20
53.52637910970054
 30
0.0
  0
SPLINE
  5
F2
330
78
100
AcDbEntity
  8
0
  6
SLD-Durchgehend
 62
     8
420
  8421504
370
     0
100
AcDbSpline
210
0.0
220
0.0
230
1.0
 70
     8
 71
     3
 72
     8
 73
     4
 74
     0
 42
0.00000001
 43
0.00000001
 40
8.0
 40
8.0
 40
8.0
 40
8.0
 40
9.0
 40
9.0
 40
9.0
 40
9.0
 10
249.8415219830224
 20
49.44563594563805
 30
0.0
 10
250.7082029319156
 20
49.44563594563805
 30
0.0
 10
251.4525502626448
 20
49.94867500813804
 30
0.0
 10
251.7394061382958
 20
50.87978096516928
 30
0.0
  0
SPLINE
  5
F3
330
78
100
AcDbEntity
  8
0
  6
SLD-Durchgehend
 62
     8
420
  8421504
370
     0
100
AcDbSpline
210
0.0
220
0.0
230
1.0
 70
     8
 71
     3
 72
     8
 73
     4
 74
     0
 42
0.00000001
 43
0.00000001
 40
8.0
 40
8.0
 40
8.0
 40
8.0
 40
9.0
 40
9.0
 40
9.0
 40
9.0
 10
258.4156911317854
 20
54.14039847819013
 30
0.0
 10
258.3994337261864
 20
54.14039847819013
 30
0.0
 10
258.3858634950666
 20
54.13932360839846
 30
0.0
 10
258.3740399273583
 20
54.13932360839846
 30
0.0
  0
SPLINE
  5
F4
330
78
100
AcDbEntity
  8
0
  6
SLD-Durchgehend
 62
     8
420
  8421504
370
     0
100
AcDbSpline
210
0.0
220
0.0
230
1.0
 70
     8
 71
     3
 72
     8
 73
     4
 74
     0
 42
0.00000001
 43
0.00000001
 40
20.0
 40
20.0
 40
20.0
 40
20.0
 40
21.0
 40
21.0
 40
21.0
 40
21.0
 10
274.3795206484703
 20
50.27785388183599
 30
0.0
 10
274.3784457823096
 20
49.9798462320833
 30
0.0
 10
274.474780989773
 20
49.78408557244977
 30
0.0
 10
274.6302340347482
 20
49.67283655090634
 30
0.0
  0
SPLINE
  5
F5
330
78
100
AcDbEntity
  8
0
  6
SLD-Durchgehend
 62
     8
420
  8421504
370
     0
100
AcDbSpline
210
0.0
220
0.0
230
1.0
 70
     8
 71
     3
 72
     8
 73
     4
 74
     0
 42
0.00000001
 43
0.00000001
 40
2.0
 40
2.0
 40
2.0
 40
2.0
 40
3.0
 40
3.0
 40
3.0
 40
3.0
 10
238.2156631369937
 20
51.79919771321618
 30
0.0
 10
238.2155287782698
 20
51.04101143391929
 30
0.0
 10
238.440310923452
 20
50.45144535319012
 30
0.0
 10
238.8093271588036
 20
50.05172814941409
 30
0.0
  0
SPLINE
  5
F6
330
78
100
AcDbEntity
  8
0
  6
SLD-Durchgehend
 62
     8
420
  8421504
370
     0
100
AcDbSpline
210
0.0
220
0.0
230
1.0
 70
     8
 71
     3
 72
     8
 73
     4
 74
     0
 42
0.00000001
 43
0.00000001
 40
8.0
 40
8.0
 40
8.0
 40
8.0
 40
9.0
 40
9.0
 40
9.0
 40
9.0
 10
262.6999877626448
 20
54.1524235839844
 30
0.0
 10
261.4113532411604
 20
54.15558101399741
 30
0.0
 10
260.5522635601708
 20
53.19773767089846
 30
0.0
 10
260.5381558941552
 20
51.799735148112
 30
0.0
  0
SPLINE
  5
F7
330
78
100
AcDbEntity
  8
0
  6
SLD-Durchgehend
 62
     8
420
  8421504
370
     0
100
AcDbSpline
210
0.0
220
0.0
230
1.0
 70
     8
 71
     3
 72
     8
 73
     4
 74
     0
 42
0.00000001
 43
0.00000001
 40
14.0
 40
14.0
 40
14.0
 40
14.0
 40
15.0
 40
15.0
 40
15.0
 40
15.0
 10
249.8012143658349
 20
50.07215067545575
 30
0.0
 10
248.8709145611474
 20
50.08155578613283
 30
0.0
 10
248.4738845318505
 20
50.74166019694015
 30
0.0
 10
248.4677712099104
 20
51.69896610514325
 30
0.0
  0
SPLINE
  5
F8
330
78
100
AcDbEntity
  8
0
  6
SLD-Durchgehend
 62
     8
420
  8421504
370
     0
100
AcDbSpline
210
0.0
220
0.0
230
1.0
 70
     8
 71
     3
 72
     8
 73
     4
 74
     0
 42
0.00000001
 43
0.00000001
 40
2.0
 40
2.0
 40
2.0
 40
2.0
 40
3.0
 40
3.0
 40
3.0
 40
3.0
 10
248.3258883974104
 20
53.54626420084637
 30
0.0
 10
247.9568721620588
 20
53.14695007324222
 30
0.0
 10
247.7316869407047
 20
52.55704809570316
 30
0.0
 10
247.7320900168766
 20
51.79866027832033
 30
0.0
  0
SPLINE
  5
F9
330
78
100
AcDbEntity
  8
0
  6
SLD-Durchgehend
 62
     8
420
  8421504
370
     0
100
AcDbSpline
210
0.0
220
0.0
230
1.0
 70
    24
 71
     2
 72
     6
 73
     3
 74
     0
 42
0.00000001
 43
0.00000001
 40
24.0
 40
24.0
 40
24.0
 40
25.0
 40
25.0
 40
25.0
 10
275.769192939439
 20
50.09781320866384
 30
0.0
 10
275.5543533398296
 20
50.09781320604619
 30
0.0
 10
275.3033712434755
 20
50.09781320298818
 30
0.0
  0
SPLINE
  5
FA
330
78
100
AcDbEntity
  8
0
  6
SLD-Durchgehend
 62
     8
420
  8421504
370
     0
100
AcDbSpline
210
0.0
220
0.0
230
1.0
 70
     8
 71
     3
 72
     8
 73
     4
 74
     0
 42
0.00000001
 43
0.00000001
 40
2.0
 40
2.0
 40
2.0
 40
2.0
 40
3.0
 40
3.0
 40
3.0
 40
3.0
 10
257.5067543642073
 20
52.86090034993494
 30
0.0
 10
257.5157563987125
 20
53.25866935221357
 30
0.0
 10
257.6615356142073
 20
53.52980525716148
 30
0.0
 10
258.3858634950666
 20
53.56460416666669
 30
0.0
  0
SPLINE
  5
FB
330
78
100
AcDbEntity
  8
0
  6
SLD-Durchgehend
 62
     8
420
  8421504
370
     0
100
AcDbSpline
210
0.0
220
0.0
230
1.0
 70
     8
 71
     3
 72
     8
 73
     4
 74
     0
 42
0.00000001
 43
0.00000001
 40
3.0
 40
3.0
 40
3.0
 40
3.0
 40
4.0
 40
4.0
 40
4.0
 40
4.0
 10
241.6222614035953
 20
51.79919771321618
 30
0.0
 10
241.6187008974104
 20
50.68979772949221
 30
0.0
 10
241.0255743104963
 20
50.07403169759117
 30
0.0
 10
240.2502572938948
 20
50.07161324055993
 30
0.0
  0
SPLINE
  5
FC
330
78
100
AcDbEntity
  8
0
  6
SLD-Durchgehend
 62
     8
420
  8421504
370
     0
100
AcDbSpline
210
0.0
220
0.0
230
1.0
 70
     8
 71
     3
 72
     8
 73
     4
 74
     0
 42
0.00000001
 43
0.00000001
 40
0.0
 40
0.0
 40
0.0
 40
0.0
 40
1.0
 40
1.0
 40
1.0
 40
1.0
 10
263.7591375836083
 20
50.74918428548179
 30
0.0
 10
263.573050750926
 20
50.36532141113282
 30
0.0
 10
263.234735483999
 20
50.0743004150391
 30
0.0
 10
262.5728844097802
 20
50.07161324055993
 30
0.0
  0
SPLINE
  5
FD
330
78
100
AcDbEntity
  8
0
  6
SLD-Durchgehend
 62
     8
420
  8421504
370
     0
100
AcDbSpline
210
0.0
220
0.0
230
1.0
 70
     8
 71
     3
 72
     8
 73
     4
 74
     0
 42
0.00000001
 43
0.00000001
 40
0.0
 40
0.0
 40
0.0
 40
0.0
 40
1.0
 40
1.0
 40
1.0
 40
1.0
 10
240.2502572938948
 20
50.07161324055993
 30
0.0
 10
239.4752761741031
 20
50.07403169759117
 30
0.0
 10
238.882216766551
 20
50.68979772949221
 30
0.0
 10
238.8781860048323
 20
51.79919771321618
 30
0.0
  0
SPLINE
  5
FE
330
78
100
AcDbEntity
  8
0
  6
SLD-Durchgehend
 62
     8
420
  8421504
370
     0
100
AcDbSpline
210
0.0
220
0.0
230
1.0
 70
     8
 71
     3
 72
     8
 73
     4
 74
     0
 42
0.00000001
 43
0.00000001
 40
7.0
 40
7.0
 40
7.0
 40
7.0
 40
8.0
 40
8.0
 40
8.0
 40
8.0
 10
246.9688652854312
 20
51.13371895345053
 30
0.0
 10
247.0101805930484
 20
51.35352982584638
 30
0.0
 10
247.0248256939599
 20
51.60007808430993
 30
0.0
 10
247.0248256939599
 20
51.7258378499349
 30
0.0
  0
SPLINE
  5
FF
330
78
100
AcDbEntity
  8
0
  6
SLD-Durchgehend
 62
     8
420
  8421504
370
     0
100
AcDbSpline
210
0.0
220
0.0
230
1.0
 70
     8
 71
     3
 72
     8
 73
     4
 74
     0
 42
0.00000001
 43
0.00000001
 40
7.0
 40
7.0
 40
7.0
 40
7.0
 40
8.0
 40
8.0
 40
8.0
 40
8.0
 10
259.9116411643375
 20
53.13411881510418
 30
0.0
 10
259.6226355491031
 20
53.78965502929691
 30
0.0
 10
259.0584632672021
 20
54.14140616861981
 30
0.0
 10
258.4156911317854
 20
54.14039847819013
 30
0.0
  0
SPLINE
  5
100
330
78
100
AcDbEntity
  8
0
  6
SLD-Durchgehend
 62
     8
420
  8421504
370
     0
100
AcDbSpline
210
0.0
220
0.0
230
1.0
 70
     8
 71
     3
 72
     8
 73
     4
 74
     0
 42
0.00000001
 43
0.00000001
 40
1.0
 40
1.0
 40
1.0
 40
1.0
 40
2.0
 40
2.0
 40
2.0
 40
2.0
 10
238.8093271588036
 20
53.54626420084637
 30
0.0
 10
238.440310923452
 20
53.14695007324222
 30
0.0
 10
238.2155287782698
 20
52.55704809570316
 30
0.0
 10
238.2156631369937
 20
51.79919771321618
 30
0.0
  0
SPLINE
  5
101
330
78
100
AcDbEntity
  8
0
  6
SLD-Durchgehend
 62
     8
420
  8421504
370
     0
100
AcDbSpline
210
0.0
220
0.0
230
1.0
 70
     8
 71
     3
 72
     8
 73
     4
 74
     0
 42
0.00000001
 43
0.00000001
 40
0.0
 40
0.0
 40
0.0
 40
0.0
 40
1.0
 40
1.0
 40
1.0
 40
1.0
 10
258.7550812685041
 20
52.13281042480472
 30
0.0
 10
258.4303362326968
 20
52.20764823404951
 30
0.0
 10
258.1084127300927
 20
52.26286966959638
 30
0.0
 10
257.8763752138166
 20
52.36605716959637
 30
0.0
  0
SPLINE
  5
102
330
78
100
AcDbEntity
  8
0
  6
SLD-Durchgehend
 62
     8
420
  8421504
370
     0
100
AcDbSpline
210
0.0
220
0.0
230
1.0
 70
     8
 71
     3
 72
     8
 73
     4
 74
     0
 42
0.00000001
 43
0.00000001
 40
7.0
 40
7.0
 40
7.0
 40
7.0
 40
8.0
 40
8.0
 40
8.0
 40
8.0
 10
266.7699822287906
 20
53.52637910970056
 30
0.0
 10
267.4439255881656
 20
53.51516015625004
 30
0.0
 10
267.7661178082177
 20
53.27620316569013
 30
0.0
 10
267.7771352235823
 20
52.40972375488285
 30
0.0
  0
SPLINE
  5
103
330
78
100
AcDbEntity
  8
0
  6
SLD-Durchgehend
 62
     8
420
  8421504
370
     0
100
AcDbSpline
210
0.0
220
0.0
230
1.0
 70
     8
 71
     3
 72
     8
 73
     4
 74
     0
 42
0.00000001
 43
0.00000001
 40
25.0
 40
25.0
 40
25.0
 40
25.0
 40
26.0
 40
26.0
 40
26.0
 40
26.0
 10
275.3033712434755
 20
50.09781320298818
 30
0.0
 10
275.1656535513739
 20
50.1014408868571
 30
0.0
 10
275.1203746608532
 20
50.1463167001075
 30
0.0
 10
275.0822167821244
 20
50.23862114300191
 30
0.0
  0
SPLINE
  5
104
330
78
100
AcDbEntity
  8
0
  6
SLD-Durchgehend
 62
     8
420
  8421504
370
     0
100
AcDbSpline
210
0.0
220
0.0
230
1.0
 70
     8
 71
     3
 72
     8
 73
     4
 74
     0
 42
0.00000001
 43
0.00000001
 40
4.0
 40
4.0
 40
4.0
 40
4.0
 40
5.0
 40
5.0
 40
5.0
 40
5.0
 10
248.3258883974104
 20
50.05172814941409
 30
0.0
 10
248.6946359153141
 20
49.65241402180991
 30
0.0
 10
249.2061395774234
 20
49.44536722819013
 30
0.0
 10
249.7665498150536
 20
49.44563594563805
 30
0.0
  0
SPLINE
  5
105
330
78
100
AcDbEntity
  8
0
  6
SLD-Durchgehend
 62
     8
420
  8421504
370
     0
100
AcDbSpline
210
0.0
220
0.0
230
1.0
 70
     8
 71
     3
 72
     8
 73
     4
 74
     0
 42
0.00000001
 43
0.00000001
 40
1.0
 40
1.0
 40
1.0
 40
1.0
 40
2.0
 40
2.0
 40
2.0
 40
2.0
 10
244.9913735862125
 20
54.15289383951826
 30
0.0
 10
244.4305602724104
 20
54.15289383951826
 30
0.0
 10
243.919190969025
 20
53.94645166015629
 30
0.0
 10
243.5503762717593
 20
53.54626420084637
 30
0.0
  0
SPLINE
  5
106
330
78
100
AcDbEntity
  8
0
  6
SLD-Durchgehend
 62
     8
420
  8421504
370
     0
100
AcDbSpline
210
0.0
220
0.0
230
1.0
 70
     8
 71
     3
 72
     8
 73
     4
 74
     0
 42
0.00000001
 43
0.00000001
 40
1.0
 40
1.0
 40
1.0
 40
1.0
 40
2.0
 40
2.0
 40
2.0
 40
2.0
 10
262.5728844097802
 20
50.07161324055993
 30
0.0
 10
261.9138548687646
 20
50.07376298014326
 30
0.0
 10
261.203097219025
 20
50.62154349772136
 30
0.0
 10
261.2008131207177
 20
51.79919771321618
 30
0.0
  0
SPLINE
  5
107
330
78
100
AcDbEntity
  8
0
  6
SLD-Durchgehend
 62
     8
420
  8421504
370
     0
100
AcDbSpline
210
0.0
220
0.0
230
1.0
 70
     8
 71
     2
 72
     6
 73
     3
 74
     0
 42
0.00000001
 43
0.00000001
 40
22.0
 40
22.0
 40
22.0
 40
23.0
 40
23.0
 40
23.0
 10
275.1847324902169
 20
49.53390963708953
 30
0.0
 10
275.2214124218576
 20
49.53390963753644
 30
0.0
 10
275.769192939439
 20
49.53364092676277
 30
0.0
  0
SPLINE
  5
108
330
78
100
AcDbEntity
  8
0
  6
SLD-Durchgehend
 62
     8
420
  8421504
370
     0
100
AcDbSpline
210
0.0
220
0.0
230
1.0
 70
     8
 71
     3
 72
     8
 73
     4
 74
     0
 42
0.00000001
 43
0.00000001
 40
26.0
 40
26.0
 40
26.0
 40
26.0
 40
27.0
 40
27.0
 40
27.0
 40
27.0
 10
275.0822167821244
 20
50.23862114300191
 30
0.0
 10
275.0460742842386
 20
50.33226917316051
 30
0.0
 10
275.0419091620066
 20
50.47912325839622
 30
0.0
 10
275.0421778774671
 20
50.64223474928492
 30
0.0
  0
SPLINE
  5
109
330
78
100
AcDbEntity
  8
0
  6
SLD-Durchgehend
 62
     8
420
  8421504
370
     0
100
AcDbSpline
210
0.0
220
0.0
230
1.0
 70
     8
 71
     3
 72
     8
 73
     4
 74
     0
 42
0.00000001
 43
0.00000001
 40
12.0
 40
12.0
 40
12.0
 40
12.0
 40
13.0
 40
13.0
 40
13.0
 40
13.0
 10
255.6924413352359
 20
53.71165979003909
 30
0.0
 10
255.4291654156395
 20
53.99381311035158
 30
0.0
 10
255.0250815533349
 20
54.15316255696617
 30
0.0
 10
254.4773682151187
 20
54.1524235839844
 30
0.0
  0
SPLINE
  5
10A
330
78
100
AcDbEntity
  8
0
  6
SLD-Durchgehend
 62
     8
420
  8421504
370
     0
100
AcDbSpline
210
0.0
220
0.0
230
1.0
 70
     8
 71
     3
 72
     8
 73
     4
 74
     0
 42
0.00000001
 43
0.00000001
 40
3.0
 40
3.0
 40
3.0
 40
3.0
 40
4.0
 40
4.0
 40
4.0
 40
4.0
 10
247.7320900168766
 20
51.79866027832033
 30
0.0
 10
247.7316869407047
 20
51.04101143391929
 30
0.0
 10
247.9568721620588
 20
50.45144535319012
 30
0.0
 10
248.3258883974104
 20
50.05172814941409
 30
0.0
  0
SPLINE
  5
10B
330
78
100
AcDbEntity
  8
0
  6
SLD-Durchgehend
 62
     8
420
  8421504
370
     0
100
AcDbSpline
210
0.0
220
0.0
230
1.0
 70
     8
 71
     3
 72
     8
 73
     4
 74
     0
 42
0.00000001
 43
0.00000001
 40
0.0
 40
0.0
 40
0.0
 40
0.0
 40
1.0
 40
1.0
 40
1.0
 40
1.0
 10
244.9913735862125
 20
50.07188195800785
 30
0.0
 10
244.215855031525
 20
50.07403169759117
 30
0.0
 10
243.6230643414208
 20
50.68979772949222
 30
0.0
 10
243.6193022971499
 20
51.79919771321618
 30
0.0
  0
SPLINE
  5
10C
330
78
100
AcDbEntity
  8
0
  6
SLD-Durchgehend
 62
     8
420
  8421504
370
     0
100
AcDbSpline
210
0.0
220
0.0
230
1.0
 70
     8
 71
     3
 72
     8
 73
     4
 74
     0
 42
0.00000001
 43
0.00000001
 40
1.0
 40
1.0
 40
1.0
 40
1.0
 40
2.0
 40
2.0
 40
2.0
 40
2.0
 10
243.61930229715
 20
51.79919771321617
 30
0.0
 10
243.6228628033349
 20
52.89966284179692
 30
0.0
 10
244.2162581076968
 20
53.52456526692713
 30
0.0
 10
244.9913735862125
 20
53.52637910970056
 30
0.0
  0
SPLINE
  5
10D
330
78
100
AcDbEntity
  8
0
  6
SLD-Durchgehend
 62
     8
420
  8421504
370
     0
100
AcDbSpline
210
0.0
220
0.0
230
1.0
 70
     8
 71
     3
 72
     8
 73
     4
 74
     0
 42
0.00000001
 43
0.00000001
 40
0.0
 40
0.0
 40
0.0
 40
0.0
 40
1.0
 40
1.0
 40
1.0
 40
1.0
 10
240.2502572938948
 20
54.1524235839844
 30
0.0
 10
239.6897126975406
 20
54.15289383951826
 30
0.0
 10
239.1780746767073
 20
53.94645166015629
 30
0.0
 10
238.8093271588036
 20
53.54626420084637
 30
0.0
  0
SPLINE
  5
10E
330
78
100
AcDbEntity
  8
0
  6
SLD-Durchgehend
 62
     8
420
  8421504
370
     0
100
AcDbSpline
210
0.0
220
0.0
230
1.0
 70
     8
 71
     3
 72
     8
 73
     4
 74
     0
 42
0.00000001
 43
0.00000001
 40
12.0
 40
12.0
 40
12.0
 40
12.0
 40
13.0
 40
13.0
 40
13.0
 40
13.0
 10
269.7527529176072
 20
50.05172811989913
 30
0.0
 10
270.1217019776297
 20
49.65241399602138
 30
0.0
 10
270.6333400005543
 20
49.4453672075692
 30
0.0
 10
271.1938845969058
 20
49.44563593067868
 30
0.0
  0
SPLINE
  5
10F
330
78
100
AcDbEntity
  8
0
  6
SLD-Durchgehend
 62
     8
420
  8421504
370
     0
100
AcDbSpline
210
0.0
220
0.0
230
1.0
 70
     8
 71
     3
 72
     8
 73
     4
 74
     0
 42
0.00000001
 43
0.00000001
 40
2.0
 40
2.0
 40
2.0
 40
2.0
 40
3.0
 40
3.0
 40
3.0
 40
3.0
 10
269.7882492893593
 20
51.79919766776327
 30
0.0
 10
269.7921456922359
 20
52.89966279634443
 30
0.0
 10
270.3860112520646
 20
53.52456522153849
 30
0.0
 10
271.1605892956841
 20
53.52637906439517
 30
0.0
  0
SPLINE
  5
110
330
78
100
AcDbEntity
  8
0
  6
SLD-Durchgehend
 62
     8
420
  8421504
370
     0
100
AcDbSpline
210
0.0
220
0.0
230
1.0
 70
     8
 71
     3
 72
     8
 73
     4
 74
     0
 42
0.00000001
 43
0.00000001
 40
0.0
 40
0.0
 40
0.0
 40
0.0
 40
1.0
 40
1.0
 40
1.0
 40
1.0
 10
271.1605892960555
 20
50.07188191270246
 30
0.0
 10
270.3854738175397
 20
50.07403165220246
 30
0.0
 10
269.7921456924734
 20
50.68979768403972
 30
0.0
 10
269.7885180068072
 20
51.79919766776329
 30
0.0
  0
SPLINE
  5
111
330
78
100
AcDbEntity
  8
0
  6
SLD-Durchgehend
 62
     8
420
  8421504
370
     0
100
AcDbSpline
210
0.0
220
0.0
230
1.0
 70
     8
 71
     3
 72
     8
 73
     4
 74
     0
 42
0.00000001
 43
0.00000001
 40
8.0
 40
8.0
 40
8.0
 40
8.0
 40
9.0
 40
9.0
 40
9.0
 40
9.0
 10
241.6913217877099
 20
53.54626420084637
 30
0.0
 10
241.3222383729963
 20
53.94645166015629
 30
0.0
 10
240.8108690696109
 20
54.15289383951826
 30
0.0
 10
240.2502572938948
 20
54.1524235839844
 30
0.0
  0
SPLINE
  5
112
330
78
100
AcDbEntity
  8
0
  6
SLD-Durchgehend
 62
     8
420
  8421504
370
     0
100
AcDbSpline
210
0.0
220
0.0
230
1.0
 70
     8
 71
     3
 72
     8
 73
     4
 74
     0
 42
0.00000001
 43
0.00000001
 40
10.0
 40
10.0
 40
10.0
 40
10.0
 40
11.0
 40
11.0
 40
11.0
 40
11.0
 10
269.7527528823119
 20
53.54626417133141
 30
0.0
 10
269.3842069065273
 20
53.14695004000491
 30
0.0
 10
269.1588873324072
 20
52.55704806019009
 30
0.0
 10
269.1588873400616
 20
51.79919767770311
 30
0.0
  0
SPLINE
  5
113
330
78
100
AcDbEntity
  8
0
  6
SLD-Durchgehend
 62
     8
420
  8421504
370
     0
100
AcDbSpline
210
0.0
220
0.0
230
1.0
 70
     8
 71
     3
 72
     8
 73
     4
 74
     0
 42
0.00000001
 43
0.00000001
 40
2.0
 40
2.0
 40
2.0
 40
2.0
 40
3.0
 40
3.0
 40
3.0
 40
3.0
 10
243.5503762717593
 20
53.54626420084637
 30
0.0
 10
243.1810913189599
 20
53.14695007324222
 30
0.0
 10
242.9563763531395
 20
52.55704809570316
 30
0.0
 10
242.9563763531395
 20
51.79919771321618
 30
0.0
  0
SPLINE
  5
114
330
78
100
AcDbEntity
  8
0
  6
SLD-Durchgehend
 62
     8
420
  8421504
370
     0
100
AcDbSpline
210
0.0
220
0.0
230
1.0
 70
     8
 71
     3
 72
     8
 73
     4
 74
     0
 42
0.00000001
 43
0.00000001
 40
8.0
 40
8.0
 40
8.0
 40
8.0
 40
9.0
 40
9.0
 40
9.0
 40
9.0
 10
272.5521168951743
 20
53.62640917844642
 30
0.0
 10
272.1912293591284
 20
53.97231570963218
 30
0.0
 10
271.7145246047004
 20
54.1528938298174
 30
0.0
 10
271.1938845493668
 20
54.15242356902503
 30
0.0
  0
SPLINE
  5
115
330
78
100
AcDbEntity
  8
0
  6
SLD-Durchgehend
 62
     8
420
  8421504
370
     0
100
AcDbSpline
210
0.0
220
0.0
230
1.0
 70
     8
 71
     3
 72
     8
 73
     4
 74
     0
 42
0.00000001
 43
0.00000001
 40
5.0
 40
5.0
 40
5.0
 40
5.0
 40
6.0
 40
6.0
 40
6.0
 40
6.0
 10
240.2521383160301
 20
49.44563594563805
 30
0.0
 10
240.8120111187646
 20
49.44563594563805
 30
0.0
 10
241.3224399110823
 20
49.65241402180991
 30
0.0
 10
241.6913217877099
 20
50.05172814941409
 30
0.0
  0
SPLINE
  5
116
330
78
100
AcDbEntity
  8
0
  6
SLD-Durchgehend
 62
     8
420
  8421504
370
     0
100
AcDbSpline
210
0.0
220
0.0
230
1.0
 70
     8
 71
     3
 72
     8
 73
     4
 74
     0
 42
0.00000001
 43
0.00000001
 40
0.0
 40
0.0
 40
0.0
 40
0.0
 40
1.0
 40
1.0
 40
1.0
 40
1.0
 10
266.842804657176
 20
54.15289383951826
 30
0.0
 10
266.3709368186343
 20
54.15369999186201
 30
0.0
 10
265.8797213238427
 20
53.98306441243492
 30
0.0
 10
265.5798326519676
 20
53.52537141927086
 30
0.0
  0
SPLINE
  5
117
330
78
100
AcDbEntity
  8
0
  6
SLD-Durchgehend
 62
     8
420
  8421504
370
     0
100
AcDbSpline
210
0.0
220
0.0
230
1.0
 70
     8
 71
     3
 72
     8
 73
     4
 74
     0
 42
0.00000001
 43
0.00000001
 40
5.0
 40
5.0
 40
5.0
 40
5.0
 40
6.0
 40
6.0
 40
6.0
 40
6.0
 10
249.7665498150536
 20
49.44563594563805
 30
0.0
 10
249.7813292746891
 20
49.44563594563805
 30
0.0
 10
249.7922123313296
 20
49.44644209798179
 30
0.0
 10
249.8010128277489
 20
49.44644209798179
 30
0.0
  0
SPLINE
  5
118
330
78
100
AcDbEntity
  8
0
  6
SLD-Durchgehend
 62
     8
420
  8421504
370
     0
100
AcDbSpline
210
0.0
220
0.0
230
1.0
 70
     8
 71
     3
 72
     8
 73
     4
 74
     0
 42
0.00000001
 43
0.00000001
 40
3.0
 40
3.0
 40
3.0
 40
3.0
 40
4.0
 40
4.0
 40
4.0
 40
4.0
 10
238.8093271588036
 20
50.05172814941409
 30
0.0
 10
239.1780746767073
 20
49.65241402180991
 30
0.0
 10
239.6897126975406
 20
49.44536722819013
 30
0.0
 10
240.2502572938948
 20
49.44563594563805
 30
0.0
  0
SPLINE
  5
119
330
78
100
AcDbEntity
  8
0
  6
SLD-Durchgehend
 62
     8
420
  8421504
370
     0
100
AcDbSpline
210
0.0
220
0.0
230
1.0
 70
     8
 71
     3
 72
     8
 73
     4
 74
     0
 42
0.00000001
 43
0.00000001
 40
16.0
 40
16.0
 40
16.0
 40
16.0
 40
17.0
 40
17.0
 40
17.0
 40
17.0
 10
258.4449813336083
 20
50.00443387858074
 30
0.0
 10
258.0674333192854
 20
50.01249540201825
 30
0.0
 10
257.526908172801
 20
50.1397331136068
 30
0.0
 10
257.3465987652489
 20
50.7604704182943
 30
0.0
  0
SPLINE
  5
11A
330
78
100
AcDbEntity
  8
0
  6
SLD-Durchgehend
 62
     8
420
  8421504
370
     0
100
AcDbSpline
210
0.0
220
0.0
230
1.0
 70
     8
 71
     3
 72
     8
 73
     4
 74
     0
 42
0.00000001
 43
0.00000001
 40
2.0
 40
2.0
 40
2.0
 40
2.0
 40
3.0
 40
3.0
 40
3.0
 40
3.0
 10
244.9913735862125
 20
53.52637910970056
 30
0.0
 10
245.7659516298322
 20
53.52456526692713
 30
0.0
 10
246.363243337189
 20
52.96791707356772
 30
0.0
 10
246.363243337189
 20
51.79919771321618
 30
0.0
  0
SPLINE
  5
11B
330
78
100
AcDbEntity
  8
0
  6
SLD-Durchgehend
 62
     8
420
  8421504
370
     0
100
AcDbSpline
210
0.0
220
0.0
230
1.0
 70
     8
 71
     3
 72
     8
 73
     4
 74
     0
 42
0.00000001
 43
0.00000001
 40
6.0
 40
6.0
 40
6.0
 40
6.0
 40
7.0
 40
7.0
 40
7.0
 40
7.0
 10
253.2143962099104
 20
52.16317549641928
 30
0.0
 10
253.219098765249
 20
53.12182499186201
 30
0.0
 10
253.7753438824364
 20
53.52167655436201
 30
0.0
 10
254.4043442486473
 20
53.52637910970056
 30
0.0
  0
SPLINE
  5
11C
330
78
100
AcDbEntity
  8
0
  6
SLD-Durchgehend
 62
     8
420
  8421504
370
     0
100
AcDbSpline
210
0.0
220
0.0
230
1.0
 70
     8
 71
     3
 72
     8
 73
     4
 74
     0
 42
0.00000001
 43
0.00000001
 40
9.0
 40
9.0
 40
9.0
 40
9.0
 40
10.0
 40
10.0
 40
10.0
 40
10.0
 10
271.1938845493668
 20
54.15242356902503
 30
0.0
 10
270.6333399530077
 20
54.15289381889733
 30
0.0
 10
270.1217019342595
 20
53.94645163436776
 30
0.0
 10
269.7527528823119
 20
53.54626417133141
 30
0.0
  0
SPLINE
  5
11D
330
78
100
AcDbEntity
  8
0
  6
SLD-Durchgehend
 62
     8
420
  8421504
370
     0
100
AcDbSpline
210
0.0
220
0.0
230
1.0
 70
     8
 71
     3
 72
     8
 73
     4
 74
     0
 42
0.00000001
 43
0.00000001
 40
3.0
 40
3.0
 40
3.0
 40
3.0
 40
4.0
 40
4.0
 40
4.0
 40
4.0
 10
271.1605892956841
 20
53.52637906439517
 30
0.0
 10
271.9350329805802
 20
53.524565221705
 30
0.0
 10
272.5287641818192
 20
52.89966279663861
 30
0.0
 10
272.5327949436563
 20
51.7991976680583
 30
0.0
  0
SPLINE
  5
11E
330
78
100
AcDbEntity
  8
0
  6
SLD-Durchgehend
 62
     8
420
  8421504
370
     0
100
AcDbSpline
210
0.0
220
0.0
230
1.0
 70
     8
 71
     3
 72
     8
 73
     4
 74
     0
 42
0.00000001
 43
0.00000001
 40
4.0
 40
4.0
 40
4.0
 40
4.0
 40
5.0
 40
5.0
 40
5.0
 40
5.0
 10
272.5327949436563
 20
51.7991976680583
 30
0.0
 10
272.5287641820568
 20
50.6897976843339
 30
0.0
 10
271.9355704158469
 20
50.07403165236909
 30
0.0
 10
271.1605892960555
 20
50.07188191270246
 30
0.0
  0
SPLINE
  5
11F
330
78
100
AcDbEntity
  8
0
  6
SLD-Durchgehend
 62
     8
420
  8421504
370
     0
100
AcDbSpline
210
0.0
220
0.0
230
1.0
 70
     8
 71
     3
 72
     8
 73
     4
 74
     0
 42
0.00000001
 43
0.00000001
 40
11.0
 40
11.0
 40
11.0
 40
11.0
 40
12.0
 40
12.0
 40
12.0
 40
12.0
 10
262.5853797711083
 20
49.44563594563805
 30
0.0
 10
263.5398641461083
 20
49.44563594563805
 30
0.0
 10
264.1459563498844
 20
49.87115002441409
 30
0.0
 10
264.4688203635562
 20
50.70296488444013
 30
0.0
  0
SPLINE
  5
120
330
78
100
AcDbEntity
  8
0
  6
SLD-Durchgehend
 62
     8
420
  8421504
370
     0
100
AcDbSpline
210
0.0
220
0.0
230
1.0
 70
     8
 71
     3
 72
     8
 73
     4
 74
     0
 42
0.00000001
 43
0.00000001
 40
14.0
 40
14.0
 40
14.0
 40
14.0
 40
15.0
 40
15.0
 40
15.0
 40
15.0
 10
271.1949594666974
 20
49.44563593067868
 30
0.0
 10
271.7330661561506
 20
49.44563593611291
 30
0.0
 10
272.2242816489937
 20
49.63857506867777
 30
0.0
 10
272.5890655808147
 20
50.00752412835124
 30
0.0
  0
SPLINE
  5
121
330
78
100
AcDbEntity
  8
0
  6
SLD-Durchgehend
 62
     8
420
  8421504
370
     0
100
AcDbSpline
210
0.0
220
0.0
230
1.0
 70
     8
 71
     3
 72
     8
 73
     4
 74
     0
 42
0.00000001
 43
0.00000001
 40
22.0
 40
22.0
 40
22.0
 40
22.0
 40
23.0
 40
23.0
 40
23.0
 40
23.0
 10
258.4476685080875
 20
49.43623083496097
 30
0.0
 10
259.4949947613427
 20
49.47237333170574
 30
0.0
 10
260.0955782574364
 20
50.09028910319014
 30
0.0
 10
260.0939659527489
 20
50.82039440917971
 30
0.0
  0
SPLINE
  5
122
330
78
100
AcDbEntity
  8
0
  6
SLD-Durchgehend
 62
     8
420
  8421504
370
     0
100
AcDbSpline
210
0.0
220
0.0
230
1.0
 70
     8
 71
     3
 72
     8
 73
     4
 74
     0
 42
0.00000001
 43
0.00000001
 40
2.0
 40
2.0
 40
2.0
 40
2.0
 40
3.0
 40
3.0
 40
3.0
 40
3.0
 10
240.2502572938948
 20
53.52637910970054
 30
0.0
 10
241.0251712343245
 20
53.52456526692713
 30
0.0
 10
241.6187008974104
 20
52.89966284179692
 30
0.0
 10
241.6222614035953
 20
51.79919771321618
 30
0.0
  0
SPLINE
  5
123
330
78
100
AcDbEntity
  8
0
  6
SLD-Durchgehend
 62
     8
420
  8421504
370
     0
100
AcDbSpline
210
0.0
220
0.0
230
1.0
 70
     8
 71
     3
 72
     8
 73
     4
 74
     0
 42
0.00000001
 43
0.00000001
 40
6.0
 40
6.0
 40
6.0
 40
6.0
 40
7.0
 40
7.0
 40
7.0
 40
7.0
 10
265.5798326519676
 20
52.16371293131513
 30
0.0
 10
265.5845352073062
 20
53.12182499186201
 30
0.0
 10
266.1406459657697
 20
53.52167655436201
 30
0.0
 10
266.7699822287906
 20
53.52637910970056
 30
0.0
  0
SPLINE
  5
124
330
78
100
AcDbEntity
  8
0
  6
SLD-Durchgehend
 62
     8
420
  8421504
370
     0
100
AcDbSpline
210
0.0
220
0.0
230
1.0
 70
     8
 71
     3
 72
     8
 73
     4
 74
     0
 42
0.00000001
 43
0.00000001
 40
11.0
 40
11.0
 40
11.0
 40
11.0
 40
12.0
 40
12.0
 40
12.0
 40
12.0
 10
258.3170718283999
 20
54.13750976562503
 30
0.0
 10
257.3694397483218
 20
54.10976468912763
 30
0.0
 10
256.8420817567854
 20
53.52429654947919
 30
0.0
 10
256.8442314963687
 20
52.87897159830732
 30
0.0
  0
SPLINE
  5
125
330
78
100
AcDbEntity
  8
0
  6
SLD-Durchgehend
 62
     8
420
  8421504
370
     0
100
AcDbSpline
210
0.0
220
0.0
230
1.0
 70
     8
 71
     3
 72
     8
 73
     4
 74
     0
 42
0.00000001
 43
0.00000001
 40
4.0
 40
4.0
 40
4.0
 40
4.0
 40
5.0
 40
5.0
 40
5.0
 40
5.0
 10
243.5503762717593
 20
50.05172814941409
 30
0.0
 10
243.919190969025
 20
49.65241402180991
 30
0.0
 10
244.4305602724104
 20
49.44536722819013
 30
0.0
 10
244.9913735862125
 20
49.44563594563805
 30
0.0
  0
SPLINE
  5
126
330
78
100
AcDbEntity
  8
0
  6
SLD-Durchgehend
 62
     8
420
  8421504
370
     0
100
AcDbSpline
210
0.0
220
0.0
230
1.0
 70
     8
 71
     3
 72
     8
 73
     4
 74
     0
 42
0.00000001
 43
0.00000001
 40
11.0
 40
11.0
 40
11.0
 40
11.0
 40
12.0
 40
12.0
 40
12.0
 40
12.0
 10
269.1588873400616
 20
51.79919767770311
 30
0.0
 10
269.1588873477193
 20
51.04101139840623
 30
0.0
 10
269.3842069337522
 20
50.4514453199528
 30
0.0
 10
269.7527529176072
 20
50.05172811989913
 30
0.0
  0
SPLINE
  5
127
330
78
100
AcDbEntity
  8
0
  6
SLD-Durchgehend
 62
     8
420
  8421504
370
     0
100
AcDbSpline
210
0.0
220
0.0
230
1.0
 70
     8
 71
     3
 72
     8
 73
     4
 74
     0
 42
0.00000001
 43
0.00000001
 40
11.0
 40
11.0
 40
11.0
 40
11.0
 40
12.0
 40
12.0
 40
12.0
 40
12.0
 10
268.4404642437646
 20
52.5733055013021
 30
0.0
 10
268.4404642437646
 20
53.03361848958336
 30
0.0
 10
268.3216911317854
 20
53.43037980143232
 30
0.0
 10
268.0578105979312
 20
53.71165979003909
 30
0.0
  0
HATCH
  5
128
330
78
100
AcDbEntity
  8
0
  6
Continuous
 62
     7
100
AcDbHatch
 10
0.0
 20
0.0
 30
0.0
210
0.0
220
0.0
230
1.0
  2
SOLID
 70
     1
 71
     0
 91
        2
 92
        0
 93
       12
 72
     4
 94
        3
 73
     1
 74
     0
 95
        8
 96
        4
 40
4.0
 40
4.0
 40
4.0
 40
4.0
 40
5.0
 40
5.0
 40
5.0
 40
5.0
 10
243.5503762717593
 20
50.05172814941409
 42
1.0
 10
243.919190969025
 20
49.65241402180991
 42
1.0
 10
244.4305602724104
 20
49.44536722819013
 42
1.0
 10
244.9913735862125
 20
49.44563594563805
 42
1.0
 97
        0
 72
     1
 10
244.9913735862125
 20
49.44563594563805
 11
244.9984945985823
 21
49.44563594563805
 72
     4
 94
        3
 73
     1
 74
     0
 95
        8
 96
        4
 40
6.0
 40
6.0
 40
6.0
 40
6.0
 40
7.0
 40
7.0
 40
7.0
 40
7.0
 10
244.9984945985823
 20
49.44563594563805
 42
1.0
 10
245.9458579612125
 20
49.44563594563805
 42
1.0
 10
246.7583251649885
 20
50.01303283691409
 42
1.0
 10
246.9688652854312
 20
51.13371895345053
 42
1.0
 97
        0
 72
     4
 94
        3
 73
     1
 74
     0
 95
        8
 96
        4
 40
7.0
 40
7.0
 40
7.0
 40
7.0
 40
8.0
 40
8.0
 40
8.0
 40
8.0
 10
246.9688652854312
 20
51.13371895345053
 42
1.0
 10
247.0101805930484
 20
51.35352982584638
 42
1.0
 10
247.0248256939599
 20
51.60007808430993
 42
1.0
 10
247.0248256939599
 20
51.7258378499349
 42
1.0
 97
        0
 72
     1
 10
247.0248256939599
 20
51.7258378499349
 11
247.0260349224755
 21
51.7258378499349
 72
     1
 10
247.0260349224755
 20
51.7258378499349
 11
247.0260349224755
 21
55.23085388183598
 72
     1
 10
247.0260349224755
 20
55.23085388183598
 11
246.3676771750796
 21
55.23085388183598
 72
     1
 10
246.3676771750796
 20
55.23085388183598
 11
246.3676771750796
 21
53.54109138997399
 72
     4
 94
        3
 73
     1
 74
     0
 95
        8
 96
        4
 40
0.0
 40
0.0
 40
0.0
 40
0.0
 40
1.0
 40
1.0
 40
1.0
 40
1.0
 10
246.3676771750796
 20
53.54109138997399
 42
1.0
 10
246.0469629009911
 20
53.931269124349
 42
1.0
 10
245.5208141379703
 20
54.15289383951826
 42
1.0
 10
244.9913735862125
 20
54.15289383951826
 42
1.0
 97
        0
 72
     4
 94
        3
 73
     1
 74
     0
 95
        8
 96
        4
 40
1.0
 40
1.0
 40
1.0
 40
1.0
 40
2.0
 40
2.0
 40
2.0
 40
2.0
 10
244.9913735862125
 20
54.15289383951826
 42
1.0
 10
244.4305602724104
 20
54.15289383951826
 42
1.0
 10
243.919190969025
 20
53.94645166015629
 42
1.0
 10
243.5503762717593
 20
53.54626420084637
 42
1.0
 97
        0
 72
     4
 94
        3
 73
     1
 74
     0
 95
        8
 96
        4
 40
2.0
 40
2.0
 40
2.0
 40
2.0
 40
3.0
 40
3.0
 40
3.0
 40
3.0
 10
243.5503762717593
 20
53.54626420084637
 42
1.0
 10
243.1810913189599
 20
53.14695007324222
 42
1.0
 10
242.9563763531395
 20
52.55704809570316
 42
1.0
 10
242.9563763531395
 20
51.79919771321618
 42
1.0
 97
        0
 72
     4
 94
        3
 73
     1
 74
     0
 95
        8
 96
        4
 40
3.0
 40
3.0
 40
3.0
 40
3.0
 40
4.0
 40
4.0
 40
4.0
 40
4.0
 10
242.9563763531395
 20
51.79919771321618
 42
1.0
 10
242.9563763531395
 20
51.04101143391929
 42
1.0
 10
243.1810913189599
 20
50.45144535319012
 42
1.0
 10
243.5503762717593
 20
50.05172814941409
 42
1.0
 97
        0
 97
        0
 92
        0
 93
        4
 72
     4
 94
        3
 73
     1
 74
     0
 95
        8
 96
        4
 40
1.0
 40
1.0
 40
1.0
 40
1.0
 40
2.0
 40
2.0
 40
2.0
 40
2.0
 10
243.61930229715
 20
51.79919771321617
 42
1.0
 10
243.6228628033349
 20
52.89966284179692
 42
1.0
 10
244.2162581076968
 20
53.52456526692713
 42
1.0
 10
244.9913735862125
 20
53.52637910970056
 42
1.0
 97
        0
 72
     4
 94
        3
 73
     1
 74
     0
 95
        8
 96
        4
 40
2.0
 40
2.0
 40
2.0
 40
2.0
 40
3.0
 40
3.0
 40
3.0
 40
3.0
 10
244.9913735862125
 20
53.52637910970056
 42
1.0
 10
245.7659516298322
 20
53.52456526692713
 42
1.0
 10
246.363243337189
 20
52.96791707356772
 42
1.0
 10
246.363243337189
 20
51.79919771321618
 42
1.0
 97
        0
 72
     4
 94
        3
 73
     1
 74
     0
 95
        8
 96
        4
 40
3.0
 40
3.0
 40
3.0
 40
3.0
 40
4.0
 40
4.0
 40
4.0
 40
4.0
 10
246.363243337189
 20
51.79919771321618
 42
1.0
 10
246.3701628114729
 20
50.59198457845055
 42
1.0
 10
245.7664218853661
 20
50.07403169759117
 42
1.0
 10
244.9913735862125
 20
50.07188195800784
 42
1.0
 97
        0
 72
     4
 94
        3
 73
     1
 74
     0
 95
        8
 96
        4
 40
0.0
 40
0.0
 40
0.0
 40
0.0
 40
1.0
 40
1.0
 40
1.0
 40
1.0
 10
244.9913735862125
 20
50.07188195800785
 42
1.0
 10
244.215855031525
 20
50.07403169759117
 42
1.0
 10
243.6230643414208
 20
50.68979772949222
 42
1.0
 10
243.6193022971499
 20
51.79919771321618
 42
1.0
 97
        0
 97
        0
 75
     0
 76
     1
 98
        1
 10
0.0
 20
0.0
  0
HATCH
  5
129
330
78
100
AcDbEntity
  8
0
  6
Continuous
 62
     7
100
AcDbHatch
 10
0.0
 20
0.0
 30
0.0
210
0.0
220
0.0
230
1.0
  2
SOLID
 70
     1
 71
     0
 91
        1
 92
        0
 93
        8
 72
     4
 94
        3
 73
     1
 74
     0
 95
        8
 96
        4
 40
7.0
 40
7.0
 40
7.0
 40
7.0
 40
8.0
 40
8.0
 40
8.0
 40
8.0
 10
235.2267389195643
 20
49.44563594563805
 42
1.0
 10
234.3484359410487
 20
49.66813399251304
 42
1.0
 10
233.6945792109055
 20
50.4570884195964
 42
1.0
 10
233.6739551467778
 20
51.72167272949222
 42
1.0
 97
        0
 72
     1
 10
233.6739551467778
 20
51.72167272949222
 11
233.6727459182622
 21
51.72167272949222
 72
     1
 10
233.6727459182622
 20
51.72167272949222
 11
233.6727459182622
 21
55.26249536132816
 72
     1
 10
233.6727459182622
 20
55.26249536132816
 11
232.9466713739914
 21
55.26249536132816
 72
     1
 10
232.9466713739914
 20
55.26249536132816
 11
232.9466713739914
 21
51.77971569824223
 72
     1
 10
232.9466713739914
 20
51.77971569824223
 11
232.9472759882492
 21
51.77971569824223
 72
     4
 94
        3
 73
     1
 74
     0
 95
        8
 96
        4
 40
5.0
 40
5.0
 40
5.0
 40
5.0
 40
6.0
 40
6.0
 40
6.0
 40
6.0
 10
232.9472759882492
 20
51.77971569824223
 42
1.0
 10
232.9535908482752
 20
50.25501289876306
 42
1.0
 10
233.8585640334966
 20
49.43676826985681
 42
1.0
 10
234.9778393834315
 20
49.43676826985681
 42
1.0
 97
        0
 72
     4
 94
        3
 73
     1
 74
     0
 95
        8
 96
        4
 40
6.0
 40
6.0
 40
6.0
 40
6.0
 40
7.0
 40
7.0
 40
7.0
 40
7.0
 10
234.9778393834315
 20
49.43676826985681
 42
1.0
 10
235.0608058954758
 20
49.43676826985681
 42
1.0
 10
235.14377240752
 20
49.43985852050785
 42
1.0
 10
235.2267389195643
 20
49.44563594563805
 42
1.0
 97
        0
 97
        0
 75
     0
 76
     1
 98
        1
 10
0.0
 20
0.0
  0
HATCH
  5
12A
330
78
100
AcDbEntity
  8
0
  6
Continuous
 62
     7
100
AcDbHatch
 10
0.0
 20
0.0
 30
0.0
210
0.0
220
0.0
230
1.0
  2
SOLID
 70
     1
 71
     0
 91
        2
 92
        0
 93
        9
 72
     4
 94
        3
 73
     1
 74
     0
 95
        8
 96
        4
 40
3.0
 40
3.0
 40
3.0
 40
3.0
 40
4.0
 40
4.0
 40
4.0
 40
4.0
 10
238.8093271588036
 20
50.05172814941409
 42
1.0
 10
239.1780746767073
 20
49.65241402180991
 42
1.0
 10
239.6897126975406
 20
49.44536722819013
 42
1.0
 10
240.2502572938948
 20
49.44563594563805
 42
1.0
 97
        0
 72
     1
 10
240.2502572938948
 20
49.44563594563805
 11
240.2521383160301
 21
49.44563594563805
 72
     4
 94
        3
 73
     1
 74
     0
 95
        8
 96
        4
 40
5.0
 40
5.0
 40
5.0
 40
5.0
 40
6.0
 40
6.0
 40
6.0
 40
6.0
 10
240.2521383160301
 20
49.44563594563805
 42
1.0
 10
240.8120111187646
 20
49.44563594563805
 42
1.0
 10
241.3224399110823
 20
49.65241402180991
 42
1.0
 10
241.6913217877099
 20
50.05172814941409
 42
1.0
 97
        0
 72
     4
 94
        3
 73
     1
 74
     0
 95
        8
 96
        4
 40
6.0
 40
6.0
 40
6.0
 40
6.0
 40
7.0
 40
7.0
 40
7.0
 40
7.0
 10
241.6913217877099
 20
50.05172814941409
 42
1.0
 10
242.0604723817854
 20
50.45144535319012
 42
1.0
 10
242.2852545269677
 20
51.04101143391929
 42
1.0
 10
242.2852545269677
 20
51.79919771321618
 42
1.0
 97
        0
 72
     4
 94
        3
 73
     1
 74
     0
 95
        8
 96
        4
 40
7.0
 40
7.0
 40
7.0
 40
7.0
 40
8.0
 40
8.0
 40
8.0
 40
8.0
 10
242.2852545269677
 20
51.79919771321618
 42
1.0
 10
242.2852545269677
 20
52.55704809570316
 42
1.0
 10
242.0604723817854
 20
53.14695007324222
 42
1.0
 10
241.6913217877099
 20
53.54626420084637
 42
1.0
 97
        0
 72
     4
 94
        3
 73
     1
 74
     0
 95
        8
 96
        4
 40
8.0
 40
8.0
 40
8.0
 40
8.0
 40
9.0
 40
9.0
 40
9.0
 40
9.0
 10
241.6913217877099
 20
53.54626420084637
 42
1.0
 10
241.3222383729963
 20
53.94645166015629
 42
1.0
 10
240.8108690696109
 20
54.15289383951826
 42
1.0
 10
240.2502572938948
 20
54.1524235839844
 42
1.0
 97
        0
 72
     4
 94
        3
 73
     1
 74
     0
 95
        8
 96
        4
 40
0.0
 40
0.0
 40
0.0
 40
0.0
 40
1.0
 40
1.0
 40
1.0
 40
1.0
 10
240.2502572938948
 20
54.1524235839844
 42
1.0
 10
239.6897126975406
 20
54.15289383951826
 42
1.0
 10
239.1780746767073
 20
53.94645166015629
 42
1.0
 10
238.8093271588036
 20
53.54626420084637
 42
1.0
 97
        0
 72
     4
 94
        3
 73
     1
 74
     0
 95
        8
 96
        4
 40
1.0
 40
1.0
 40
1.0
 40
1.0
 40
2.0
 40
2.0
 40
2.0
 40
2.0
 10
238.8093271588036
 20
53.54626420084637
 42
1.0
 10
238.440310923452
 20
53.14695007324222
 42
1.0
 10
238.2155287782698
 20
52.55704809570316
 42
1.0
 10
238.2156631369937
 20
51.79919771321618
 42
1.0
 97
        0
 72
     4
 94
        3
 73
     1
 74
     0
 95
        8
 96
        4
 40
2.0
 40
2.0
 40
2.0
 40
2.0
 40
3.0
 40
3.0
 40
3.0
 40
3.0
 10
238.2156631369937
 20
51.79919771321618
 42
1.0
 10
238.2155287782698
 20
51.04101143391929
 42
1.0
 10
238.440310923452
 20
50.45144535319012
 42
1.0
 10
238.8093271588036
 20
50.05172814941409
 42
1.0
 97
        0
 97
        0
 92
        0
 93
        4
 72
     4
 94
        3
 73
     1
 74
     0
 95
        8
 96
        4
 40
1.0
 40
1.0
 40
1.0
 40
1.0
 40
2.0
 40
2.0
 40
2.0
 40
2.0
 10
238.8781860048323
 20
51.79919771321618
 42
1.0
 10
238.8819480491031
 20
52.89966284179692
 42
1.0
 10
239.475746429637
 20
53.52456526692712
 42
1.0
 10
240.2502572938948
 20
53.52637910970054
 42
1.0
 97
        0
 72
     4
 94
        3
 73
     1
 74
     0
 95
        8
 96
        4
 40
2.0
 40
2.0
 40
2.0
 40
2.0
 40
3.0
 40
3.0
 40
3.0
 40
3.0
 10
240.2502572938948
 20
53.52637910970054
 42
1.0
 10
241.0251712343245
 20
53.52456526692713
 42
1.0
 10
241.6187008974104
 20
52.89966284179692
 42
1.0
 10
241.6222614035953
 20
51.79919771321618
 42
1.0
 97
        0
 72
     4
 94
        3
 73
     1
 74
     0
 95
        8
 96
        4
 40
3.0
 40
3.0
 40
3.0
 40
3.0
 40
4.0
 40
4.0
 40
4.0
 40
4.0
 10
241.6222614035953
 20
51.79919771321618
 42
1.0
 10
241.6187008974104
 20
50.68979772949221
 42
1.0
 10
241.0255743104963
 20
50.07403169759117
 42
1.0
 10
240.2502572938948
 20
50.07161324055993
 42
1.0
 97
        0
 72
     4
 94
        3
 73
     1
 74
     0
 95
        8
 96
        4
 40
0.0
 40
0.0
 40
0.0
 40
0.0
 40
1.0
 40
1.0
 40
1.0
 40
1.0
 10
240.2502572938948
 20
50.07161324055993
 42
1.0
 10
239.4752761741031
 20
50.07403169759117
 42
1.0
 10
238.882216766551
 20
50.68979772949221
 42
1.0
 10
238.8781860048323
 20
51.79919771321618
 42
1.0
 97
        0
 97
        0
 75
     0
 76
     1
 98
        1
 10
0.0
 20
0.0
  0
HATCH
  5
12B
330
78
100
AcDbEntity
  8
0
  6
Continuous
 62
     7
100
AcDbHatch
 10
0.0
 20
0.0
 30
0.0
210
0.0
220
0.0
230
1.0
  2
SOLID
 70
     1
 71
     0
 91
        1
 92
        0
 93
        5
 72
     4
 94
        3
 73
     1
 74
     0
 95
        8
 96
        4
 40
0.0
 40
0.0
 40
0.0
 40
0.0
 40
1.0
 40
1.0
 40
1.0
 40
1.0
 10
236.0195897496424
 20
53.57185953776045
 42
1.0
 10
235.9188207066737
 20
53.57159082031254
 42
1.0
 10
235.8212090937179
 20
53.56117801920577
 42
1.0
 10
235.7273595250331
 20
53.54102421061203
 42
1.0
 97
        0
 72
     4
 94
        3
 73
     1
 74
     0
 95
       11
 96
        7
 40
1.0
 40
1.0
 40
1.0
 40
1.0
 40
2.0
 40
2.0
 40
2.0
 40
3.0
 40
3.0
 40
3.0
 40
3.0
 10
235.7273595250331
 20
53.54102421061203
 42
1.0
 10
236.3061097284836
 20
53.32248974609381
 42
1.0
 10
236.7050879592778
 20
52.70645499674485
 42
1.0
 10
236.7050879592778
 20
51.7957043863933
 42
1.0
 10
236.7050879592778
 20
50.87816866048182
 42
1.0
 10
236.3067815221034
 20
50.26656774902347
 42
1.0
 10
235.7287031122727
 20
50.04930969238286
 42
1.0
 97
        0
 72
     4
 94
        3
 73
     1
 74
     0
 95
        8
 96
        4
 40
3.0
 40
3.0
 40
3.0
 40
3.0
 40
4.0
 40
4.0
 40
4.0
 40
4.0
 10
235.7287031122727
 20
50.04930969238285
 42
1.0
 10
235.8220824254237
 20
50.029424601237
 42
1.0
 10
235.9193581415695
 20
50.01948205566409
 42
1.0
 10
236.0195897496424
 20
50.01907897949221
 42
1.0
 97
        0
 72
     4
 94
        3
 73
     1
 74
     0
 95
        8
 96
        4
 40
4.0
 40
4.0
 40
4.0
 40
4.0
 40
5.0
 40
5.0
 40
5.0
 40
5.0
 10
236.0195897496424
 20
50.01907897949221
 42
1.0
 10
236.8172103144211
 20
50.02109436035159
 42
1.0
 10
237.4267286656581
 20
50.65526753743492
 42
1.0
 10
237.4308937861008
 20
51.79570438639327
 42
1.0
 97
        0
 72
     4
 94
        3
 73
     1
 74
     0
 95
        8
 96
        4
 40
5.0
 40
5.0
 40
5.0
 40
5.0
 40
6.0
 40
6.0
 40
6.0
 40
6.0
 10
237.4308937861008
 20
51.79570438639327
 42
1.0
 10
237.4271317418299
 20
52.92707202148441
 42
1.0
 10
236.8167400588872
 20
53.57031441243492
 42
1.0
 10
236.0195897496424
 20
53.57185953776045
 42
1.0
 97
        0
 97
        0
 75
     0
 76
     1
 98
        1
 10
0.0
 20
0.0
  0
HATCH
  5
12C
330
78
100
AcDbEntity
  8
0
  6
Continuous
 62
     7
100
AcDbHatch
 10
0.0
 20
0.0
 30
0.0
210
0.0
220
0.0
230
1.0
  2
SOLID
 70
     1
 71
     0
 91
        2
 92
        0
 93
       18
 72
     4
 94
        3
 73
     1
 74
     0
 95
        8
 96
        4
 40
5.0
 40
5.0
 40
5.0
 40
5.0
 40
6.0
 40
6.0
 40
6.0
 40
6.0
 10
249.7665498150536
 20
49.44563594563805
 42
1.0
 10
249.7813292746891
 20
49.44563594563805
 42
1.0
 10
249.7922123313296
 20
49.44644209798179
 42
1.0
 10
249.8010128277489
 20
49.44644209798179
 42
1.0
 97
        0
 72
     4
 94
        3
 73
     1
 74
     0
 95
        8
 96
        4
 40
6.0
 40
6.0
 40
6.0
 40
6.0
 40
7.0
 40
7.0
 40
7.0
 40
7.0
 10
249.8010128277489
 20
49.44644209798179
 42
1.0
 10
249.8100148622541
 20
49.44644209798179
 42
1.0
 10
249.8223086854963
 20
49.44563594563805
 42
1.0
 10
249.8366850689599
 20
49.44563594563805
 42
1.0
 97
        0
 72
     1
 10
249.8366850689599
 20
49.44563594563805
 11
249.8415219830224
 21
49.44563594563805
 72
     4
 94
        3
 73
     1
 74
     0
 95
        8
 96
        4
 40
8.0
 40
8.0
 40
8.0
 40
8.0
 40
9.0
 40
9.0
 40
9.0
 40
9.0
 10
249.8415219830224
 20
49.44563594563805
 42
1.0
 10
250.7082029319156
 20
49.44563594563805
 42
1.0
 10
251.4525502626448
 20
49.94867500813804
 42
1.0
 10
251.7394061382958
 20
50.87978096516928
 42
1.0
 97
        0
 72
     1
 10
251.7394061382958
 20
50.87978096516928
 11
251.7625830181786
 21
50.95435005696617
 72
     1
 10
251.7625830181786
 20
50.95435005696617
 11
251.0299248964338
 21
50.95435005696617
 72
     1
 10
251.0299248964338
 20
50.95435005696617
 11
251.016354665314
 21
50.9159234619141
 72
     4
 94
        3
 73
     1
 74
     0
 95
        8
 96
        4
 40
12.0
 40
12.0
 40
12.0
 40
12.0
 40
13.0
 40
13.0
 40
13.0
 40
13.0
 10
251.016354665314
 20
50.9159234619141
 42
1.0
 10
250.8335596213687
 20
50.40294185384116
 42
1.0
 10
250.4579598085432
 20
50.0826306559245
 42
1.0
 10
249.8141799826968
 20
50.07188195800784
 42
1.0
 97
        0
 72
     1
 10
249.8141799826968
 20
50.07188195800784
 11
249.8012143658349
 21
50.07215067545575
 72
     4
 94
        3
 73
     1
 74
     0
 95
        8
 96
        4
 40
14.0
 40
14.0
 40
14.0
 40
14.0
 40
15.0
 40
15.0
 40
15.0
 40
15.0
 10
249.8012143658349
 20
50.07215067545575
 42
1.0
 10
248.8709145611474
 20
50.08155578613283
 42
1.0
 10
248.4738845318505
 20
50.74166019694015
 42
1.0
 10
248.4677712099104
 20
51.69896610514325
 42
1.0
 97
        0
 72
     1
 10
248.4677712099104
 20
51.69896610514325
 11
248.4676368511865
 21
51.75915881347657
 72
     1
 10
248.4676368511865
 20
51.75915881347657
 11
251.8036296083479
 21
51.75915881347657
 72
     1
 10
251.8036296083479
 20
51.75915881347657
 11
251.8015470481265
 21
51.81962023925784
 72
     4
 94
        3
 73
     1
 74
     0
 95
        8
 96
        4
 40
0.0
 40
0.0
 40
0.0
 40
0.0
 40
1.0
 40
1.0
 40
1.0
 40
1.0
 10
251.8015470481265
 20
51.81962023925784
 42
1.0
 10
251.7605004579573
 20
53.12733369954429
 42
1.0
 10
251.0964324647933
 20
54.1553122965495
 42
1.0
 10
249.7665498150536
 20
54.15289383951826
 42
1.0
 97
        0
 72
     4
 94
        3
 73
     1
 74
     0
 95
        8
 96
        4
 40
1.0
 40
1.0
 40
1.0
 40
1.0
 40
2.0
 40
2.0
 40
2.0
 40
2.0
 10
249.7665498150536
 20
54.15289383951826
 42
1.0
 10
249.2061395774234
 20
54.15289383951826
 42
1.0
 10
248.694904632762
 20
53.94645166015629
 42
1.0
 10
248.3258883974104
 20
53.54626420084637
 42
1.0
 97
        0
 72
     4
 94
        3
 73
     1
 74
     0
 95
        8
 96
        4
 40
2.0
 40
2.0
 40
2.0
 40
2.0
 40
3.0
 40
3.0
 40
3.0
 40
3.0
 10
248.3258883974104
 20
53.54626420084637
 42
1.0
 10
247.9568721620588
 20
53.14695007324222
 42
1.0
 10
247.7316869407047
 20
52.55704809570316
 42
1.0
 10
247.7320900168766
 20
51.79866027832033
 42
1.0
 97
        0
 72
     4
 94
        3
 73
     1
 74
     0
 95
        8
 96
        4
 40
3.0
 40
3.0
 40
3.0
 40
3.0
 40
4.0
 40
4.0
 40
4.0
 40
4.0
 10
247.7320900168766
 20
51.79866027832033
 42
1.0
 10
247.7316869407047
 20
51.04101143391929
 42
1.0
 10
247.9568721620588
 20
50.45144535319012
 42
1.0
 10
248.3258883974104
 20
50.05172814941409
 42
1.0
 97
        0
 72
     4
 94
        3
 73
     1
 74
     0
 95
        8
 96
        4
 40
4.0
 40
4.0
 40
4.0
 40
4.0
 40
5.0
 40
5.0
 40
5.0
 40
5.0
 10
248.3258883974104
 20
50.05172814941409
 42
1.0
 10
248.6946359153141
 20
49.65241402180991
 42
1.0
 10
249.2061395774234
 20
49.44536722819013
 42
1.0
 10
249.7665498150536
 20
49.44563594563805
 42
1.0
 97
        0
 97
        0
 92
        0
 93
        3
 72
     1
 10
251.0529674175927
 20
52.33072082519535
 11
248.4766388856916
 21
52.33072082519535
 72
     4
 94
        3
 73
     1
 74
     0
 95
        8
 96
        4
 40
0.0
 40
0.0
 40
0.0
 40
0.0
 40
1.0
 40
1.0
 40
1.0
 40
1.0
 10
248.4766388856916
 20
52.33072082519535
 42
1.0
 10
248.5873504742333
 20
53.00748571777345
 42
1.0
 10
249.0482008974104
 20
53.52537141927086
 42
1.0
 10
249.7665498150536
 20
53.52637910970056
 42
1.0
 97
        0
 72
     4
 94
        3
 73
     1
 74
     0
 95
        8
 96
        4
 40
1.0
 40
1.0
 40
1.0
 40
1.0
 40
2.0
 40
2.0
 40
2.0
 40
2.0
 10
249.7665498150536
 20
53.52637910970056
 42
1.0
 10
250.6097851666161
 20
53.52456526692713
 42
1.0
 10
250.922908172801
 20
52.93708174641929
 42
1.0
 10
251.0529674175927
 20
52.33072082519535
 42
1.0
 97
        0
 97
        0
 75
     0
 76
     1
 98
        1
 10
0.0
 20
0.0
  0
HATCH
  5
12D
330
78
100
AcDbEntity
  8
0
  6
Continuous
 62
     7
100
AcDbHatch
 10
0.0
 20
0.0
 30
0.0
210
0.0
220
0.0
230
1.0
  2
SOLID
 70
     1
 71
     0
 91
        1
 92
        0
 93
       13
 72
     4
 94
        3
 73
     1
 74
     0
 95
        8
 96
        4
 40
6.0
 40
6.0
 40
6.0
 40
6.0
 40
7.0
 40
7.0
 40
7.0
 40
7.0
 10
253.2143962099104
 20
52.16317549641928
 42
1.0
 10
253.219098765249
 20
53.12182499186201
 42
1.0
 10
253.7753438824364
 20
53.52167655436201
 42
1.0
 10
254.4043442486473
 20
53.52637910970056
 42
1.0
 97
        0
 72
     4
 94
        3
 73
     1
 74
     0
 95
        8
 96
        4
 40
7.0
 40
7.0
 40
7.0
 40
7.0
 40
8.0
 40
8.0
 40
8.0
 40
8.0
 10
254.4043442486473
 20
53.52637910970056
 42
1.0
 10
255.0787578635562
 20
53.51542887369794
 42
1.0
 10
255.4008829042463
 20
53.27620316569013
 42
1.0
 10
255.4121690370588
 20
52.409186319987
 42
1.0
 97
        0
 72
     1
 10
255.4121690370588
 20
52.409186319987
 11
255.4121690370588
 21
49.55486958821616
 72
     1
 10
255.4121690370588
 20
49.55486958821616
 11
256.0747590842593
 21
49.55486958821616
 72
     1
 10
256.0747590842593
 20
49.55486958821616
 11
256.0747590842593
 21
52.5733055013021
 72
     4
 94
        3
 73
     1
 74
     0
 95
        8
 96
        4
 40
11.0
 40
11.0
 40
11.0
 40
11.0
 40
12.0
 40
12.0
 40
12.0
 40
12.0
 10
256.0747590842593
 20
52.5733055013021
 42
1.0
 10
256.0747590842593
 20
53.03361848958336
 42
1.0
 10
255.9559859722802
 20
53.43037980143232
 42
1.0
 10
255.6924413352359
 20
53.71165979003909
 42
1.0
 97
        0
 72
     4
 94
        3
 73
     1
 74
     0
 95
        8
 96
        4
 40
12.0
 40
12.0
 40
12.0
 40
12.0
 40
13.0
 40
13.0
 40
13.0
 40
13.0
 10
255.6924413352359
 20
53.71165979003909
 42
1.0
 10
255.4291654156395
 20
53.99381311035158
 42
1.0
 10
255.0250815533349
 20
54.15316255696617
 42
1.0
 10
254.4773682151187
 20
54.1524235839844
 42
1.0
 97
        0
 72
     4
 94
        3
 73
     1
 74
     0
 95
        8
 96
        4
 40
0.0
 40
0.0
 40
0.0
 40
0.0
 40
1.0
 40
1.0
 40
1.0
 40
1.0
 10
254.4773682151187
 20
54.1524235839844
 42
1.0
 10
254.0052316591292
 20
54.15369999186201
 42
1.0
 10
253.5150910341292
 20
53.98333312988284
 42
1.0
 10
253.2143962099104
 20
53.53269396972657
 42
1.0
 97
        0
 72
     1
 10
253.2143962099104
 20
53.53269396972657
 11
253.2143962099104
 21
54.04325712076826
 72
     1
 10
253.2143962099104
 20
54.04325712076826
 11
252.5518733420718
 21
54.04325712076826
 72
     1
 10
252.5518733420718
 20
54.04325712076826
 11
252.5518733420718
 21
49.55486958821616
 72
     1
 10
252.5518733420718
 20
49.55486958821616
 11
253.2143962099104
 21
49.55486958821616
 72
     1
 10
253.2143962099104
 20
49.55486958821616
 11
253.2143962099104
 21
52.16317549641928
 97
        0
 75
     0
 76
     1
 98
        1
 10
0.0
 20
0.0
  0
HATCH
  5
12E
330
78
100
AcDbEntity
  8
0
  6
Continuous
 62
     7
100
AcDbHatch
 10
0.0
 20
0.0
 30
0.0
210
0.0
220
0.0
230
1.0
  2
SOLID
 70
     1
 71
     0
 91
        1
 92
        0
 93
       24
 72
     4
 94
        3
 73
     1
 74
     0
 95
        8
 96
        4
 40
11.0
 40
11.0
 40
11.0
 40
11.0
 40
12.0
 40
12.0
 40
12.0
 40
12.0
 10
258.3170718283999
 20
54.13750976562503
 42
1.0
 10
257.3694397483218
 20
54.10976468912763
 42
1.0
 10
256.8420817567854
 20
53.52429654947919
 42
1.0
 10
256.8442314963687
 20
52.87897159830732
 42
1.0
 97
        0
 72
     4
 94
        3
 73
     1
 74
     0
 95
        8
 96
        4
 40
12.0
 40
12.0
 40
12.0
 40
12.0
 40
13.0
 40
13.0
 40
13.0
 40
13.0
 10
256.8442314963687
 20
52.87897159830732
 42
1.0
 10
256.8418130393375
 20
51.96848970540368
 42
1.0
 10
257.5411501975406
 20
51.76144291178387
 42
1.0
 10
258.1843254091291
 20
51.63823596191408
 42
1.0
 97
        0
 72
     4
 94
        3
 73
     1
 74
     0
 95
        8
 96
        4
 40
13.0
 40
13.0
 40
13.0
 40
13.0
 40
14.0
 40
14.0
 40
14.0
 40
14.0
 10
258.1843254091291
 20
51.63823596191408
 42
1.0
 10
258.5088017274885
 20
51.5730719807943
 42
1.0
 10
258.8295160015771
 20
51.52094079589845
 42
1.0
 10
259.0598068544416
 20
51.40996048990888
 42
1.0
 97
        0
 72
     4
 94
        3
 73
     1
 74
     0
 95
        8
 96
        4
 40
14.0
 40
14.0
 40
14.0
 40
14.0
 40
15.0
 40
15.0
 40
15.0
 40
15.0
 10
259.0598068544416
 20
51.40996048990888
 42
1.0
 10
259.2900977073062
 20
51.29615865071617
 42
1.0
 10
259.4282184755354
 20
51.14339278157556
 42
1.0
 10
259.4309056500146
 20
50.83866719563805
 42
1.0
 97
        0
 72
     4
 94
        3
 73
     1
 74
     0
 95
        8
 96
        4
 40
15.0
 40
15.0
 40
15.0
 40
15.0
 40
16.0
 40
16.0
 40
16.0
 40
16.0
 10
259.4309056500146
 20
50.83866719563805
 42
1.0
 10
259.4306369325666
 20
50.17480074055992
 42
1.0
 10
258.8938738303531
 20
50.022975382487
 42
1.0
 10
258.4449813336083
 20
50.00443387858074
 42
1.0
 97
        0
 72
     4
 94
        3
 73
     1
 74
     0
 95
        8
 96
        4
 40
16.0
 40
16.0
 40
16.0
 40
16.0
 40
17.0
 40
17.0
 40
17.0
 40
17.0
 10
258.4449813336083
 20
50.00443387858074
 42
1.0
 10
258.0674333192854
 20
50.01249540201825
 42
1.0
 10
257.526908172801
 20
50.1397331136068
 42
1.0
 10
257.3465987652489
 20
50.7604704182943
 42
1.0
 97
        0
 72
     1
 10
257.3465987652489
 20
50.7604704182943
 11
257.3349095562646
 21
50.80265905761723
 72
     1
 10
257.3349095562646
 20
50.80265905761723
 11
256.6612349143375
 21
50.80265905761723
 72
     1
 10
256.6612349143375
 20
50.80265905761723
 11
256.6847476910302
 21
50.7275525309245
 72
     4
 94
        3
 73
     1
 74
     0
 95
        8
 96
        4
 40
20.0
 40
20.0
 40
20.0
 40
20.0
 40
21.0
 40
21.0
 40
21.0
 40
21.0
 10
256.6847476910302
 20
50.7275525309245
 42
1.0
 10
256.9378795269677
 20
49.9117263590495
 42
1.0
 10
257.6850483909
 20
49.45960925292972
 42
1.0
 10
258.397687062775
 20
49.43569340006511
 42
1.0
 97
        0
 72
     1
 10
258.397687062775
 20
49.43569340006511
 11
258.4476685080875
 21
49.43623083496097
 72
     4
 94
        3
 73
     1
 74
     0
 95
        8
 96
        4
 40
22.0
 40
22.0
 40
22.0
 40
22.0
 40
23.0
 40
23.0
 40
23.0
 40
23.0
 10
258.4476685080875
 20
49.43623083496097
 42
1.0
 10
259.4949947613427
 20
49.47237333170574
 42
1.0
 10
260.0955782574364
 20
50.09028910319014
 42
1.0
 10
260.0939659527489
 20
50.82039440917971
 42
1.0
 97
        0
 72
     4
 94
        3
 73
     1
 74
     0
 95
        8
 96
        4
 40
23.0
 40
23.0
 40
23.0
 40
23.0
 40
24.0
 40
24.0
 40
24.0
 40
24.0
 10
260.0939659527489
 20
50.82039440917971
 42
1.0
 10
260.0961156923323
 20
51.7381988525391
 42
1.0
 10
259.4008092958479
 20
51.98891223144533
 42
1.0
 10
258.7550812685041
 20
52.13281042480472
 42
1.0
 97
        0
 72
     4
 94
        3
 73
     1
 74
     0
 95
        8
 96
        4
 40
0.0
 40
0.0
 40
0.0
 40
0.0
 40
1.0
 40
1.0
 40
1.0
 40
1.0
 10
258.7550812685041
 20
52.13281042480472
 42
1.0
 10
258.4303362326968
 20
52.20764823404951
 42
1.0
 10
258.1084127300927
 20
52.26286966959638
 42
1.0
 10
257.8763752138166
 20
52.36605716959637
 42
1.0
 97
        0
 72
     4
 94
        3
 73
     1
 74
     0
 95
        8
 96
        4
 40
1.0
 40
1.0
 40
1.0
 40
1.0
 40
2.0
 40
2.0
 40
2.0
 40
2.0
 10
257.8763752138166
 20
52.36605716959637
 42
1.0
 10
257.6433971864729
 20
52.47173030598961
 42
1.0
 10
257.5089041037905
 20
52.6036705729167
 42
1.0
 10
257.5067543642073
 20
52.86090034993494
 42
1.0
 97
        0
 72
     4
 94
        3
 73
     1
 74
     0
 95
        8
 96
        4
 40
2.0
 40
2.0
 40
2.0
 40
2.0
 40
3.0
 40
3.0
 40
3.0
 40
3.0
 10
257.5067543642073
 20
52.86090034993494
 42
1.0
 10
257.5157563987125
 20
53.25866935221357
 42
1.0
 10
257.6615356142073
 20
53.52980525716148
 42
1.0
 10
258.3858634950666
 20
53.56460416666669
 42
1.0
 97
        0
 72
     4
 94
        3
 73
     1
 74
     0
 95
        8
 96
        4
 40
3.0
 40
3.0
 40
3.0
 40
3.0
 40
4.0
 40
4.0
 40
4.0
 40
4.0
 10
258.3858634950666
 20
53.56460416666669
 42
1.0
 10
258.8105714214989
 20
53.56124519856773
 42
1.0
 10
259.0927247418114
 20
53.38248091634117
 42
1.0
 10
259.2722279970197
 20
53.08124865722658
 42
1.0
 97
        0
 72
     1
 10
259.2722279970197
 20
53.08124865722658
 11
259.2890228375146
 21
53.05276460774744
 72
     1
 10
259.2890228375146
 20
53.05276460774744
 11
259.9476493023583
 21
53.05276460774744
 72
     1
 10
259.9476493023583
 20
53.05276460774744
 11
259.9116411643375
 21
53.13411881510418
 72
     4
 94
        3
 73
     1
 74
     0
 95
        8
 96
        4
 40
7.0
 40
7.0
 40
7.0
 40
7.0
 40
8.0
 40
8.0
 40
8.0
 40
8.0
 10
259.9116411643375
 20
53.13411881510418
 42
1.0
 10
259.6226355491031
 20
53.78965502929691
 42
1.0
 10
259.0584632672021
 20
54.14140616861981
 42
1.0
 10
258.4156911317854
 20
54.14039847819013
 42
1.0
 97
        0
 72
     4
 94
        3
 73
     1
 74
     0
 95
        8
 96
        4
 40
8.0
 40
8.0
 40
8.0
 40
8.0
 40
9.0
 40
9.0
 40
9.0
 40
9.0
 10
258.4156911317854
 20
54.14039847819013
 42
1.0
 10
258.3994337261864
 20
54.14039847819013
 42
1.0
 10
258.3858634950666
 20
54.13932360839846
 42
1.0
 10
258.3740399273583
 20
54.13932360839846
 42
1.0
 97
        0
 72
     1
 10
258.3740399273583
 20
54.13932360839846
 11
258.3170718283999
 21
54.13878617350262
 72
     1
 10
258.3170718283999
 20
54.13878617350262
 11
258.3170718283999
 21
54.13750976562503
 97
        0
 75
     0
 76
     1
 98
        1
 10
0.0
 20
0.0
  0
HATCH
  5
12F
330
78
100
AcDbEntity
  8
0
  6
Continuous
 62
     7
100
AcDbHatch
 10
0.0
 20
0.0
 30
0.0
210
0.0
220
0.0
230
1.0
  2
SOLID
 70
     1
 71
     0
 91
        1
 92
        0
 93
       15
 72
     4
 94
        3
 73
     1
 74
     0
 95
        8
 96
        4
 40
11.0
 40
11.0
 40
11.0
 40
11.0
 40
12.0
 40
12.0
 40
12.0
 40
12.0
 10
262.5853797711083
 20
49.44563594563805
 42
1.0
 10
263.5398641461083
 20
49.44563594563805
 42
1.0
 10
264.1459563498844
 20
49.87115002441409
 42
1.0
 10
264.4688203635562
 20
50.70296488444013
 42
1.0
 97
        0
 72
     1
 10
264.4688203635562
 20
50.70296488444013
 11
264.4999915875146
 21
50.78196781412763
 72
     1
 10
264.4999915875146
 20
50.78196781412763
 11
263.7743201194156
 21
50.78223653157553
 72
     1
 10
263.7743201194156
 20
50.78223653157553
 11
263.7591375836083
 21
50.74918428548179
 72
     4
 94
        3
 73
     1
 74
     0
 95
        8
 96
        4
 40
0.0
 40
0.0
 40
0.0
 40
0.0
 40
1.0
 40
1.0
 40
1.0
 40
1.0
 10
263.7591375836083
 20
50.74918428548179
 42
1.0
 10
263.573050750926
 20
50.36532141113282
 42
1.0
 10
263.234735483999
 20
50.0743004150391
 42
1.0
 10
262.5728844097802
 20
50.07161324055993
 42
1.0
 97
        0
 72
     4
 94
        3
 73
     1
 74
     0
 95
        8
 96
        4
 40
1.0
 40
1.0
 40
1.0
 40
1.0
 40
2.0
 40
2.0
 40
2.0
 40
2.0
 10
262.5728844097802
 20
50.07161324055993
 42
1.0
 10
261.9138548687646
 20
50.07376298014326
 42
1.0
 10
261.203097219025
 20
50.62154349772136
 42
1.0
 10
261.2008131207177
 20
51.79919771321618
 42
1.0
 97
        0
 72
     4
 94
        3
 73
     1
 74
     0
 95
        8
 96
        4
 40
2.0
 40
2.0
 40
2.0
 40
2.0
 40
3.0
 40
3.0
 40
3.0
 40
3.0
 10
261.2008131207177
 20
51.79919771321618
 42
1.0
 10
261.2039033713687
 20
52.97658321126303
 42
1.0
 10
261.9115707704573
 20
53.52355757649742
 42
1.0
 10
262.6275684104312
 20
53.52637910970056
 42
1.0
 97
        0
 72
     4
 94
        3
 73
     1
 74
     0
 95
        8
 96
        4
 40
3.0
 40
3.0
 40
3.0
 40
3.0
 40
4.0
 40
4.0
 40
4.0
 40
4.0
 10
262.6275684104312
 20
53.52637910970056
 42
1.0
 10
263.1397438661604
 20
53.52456526692713
 42
1.0
 10
263.5299216005354
 20
53.37381477864585
 42
1.0
 10
263.7028412782698
 20
53.01218827311202
 42
1.0
 97
        0
 72
     1
 10
263.7028412782698
 20
53.01218827311202
 11
263.7180238140771
 21
52.97839705403647
 72
     1
 10
263.7180238140771
 20
52.97839705403647
 11
264.4359024761864
 21
52.97369449869794
 72
     1
 10
264.4359024761864
 20
52.97369449869794
 11
264.4000286968895
 21
53.05558614095054
 72
     4
 94
        3
 73
     1
 74
     0
 95
        8
 96
        4
 40
7.0
 40
7.0
 40
7.0
 40
7.0
 40
8.0
 40
8.0
 40
8.0
 40
8.0
 10
264.4000286968895
 20
53.05558614095054
 42
1.0
 10
263.9996396994937
 20
53.97654801432294
 42
1.0
 10
263.2563672385562
 20
54.15558101399741
 42
1.0
 10
262.6999877626448
 20
54.1524235839844
 42
1.0
 97
        0
 72
     4
 94
        3
 73
     1
 74
     0
 95
        8
 96
        4
 40
8.0
 40
8.0
 40
8.0
 40
8.0
 40
9.0
 40
9.0
 40
9.0
 40
9.0
 10
262.6999877626448
 20
54.1524235839844
 42
1.0
 10
261.4113532411604
 20
54.15558101399741
 42
1.0
 10
260.5522635601708
 20
53.19773767089846
 42
1.0
 10
260.5381558941552
 20
51.799735148112
 42
1.0
 97
        0
 72
     4
 94
        3
 73
     1
 74
     0
 95
        8
 96
        4
 40
9.0
 40
9.0
 40
9.0
 40
9.0
 40
10.0
 40
10.0
 40
10.0
 40
10.0
 10
260.5381558941552
 20
51.799735148112
 42
1.0
 10
260.5538758648583
 20
50.3993141682943
 42
1.0
 10
261.4438680523583
 20
49.44469543457033
 42
1.0
 10
262.5728844097802
 20
49.44563594563805
 42
1.0
 97
        0
 72
     1
 10
262.5728844097802
 20
49.44563594563805
 11
262.5853797711083
 21
49.44563594563805
 97
        0
 75
     0
 76
     1
 98
        1
 10
0.0
 20
0.0
  0
HATCH
  5
130
330
78
100
AcDbEntity
  8
0
  6
Continuous
 62
     7
100
AcDbHatch
 10
0.0
 20
0.0
 30
0.0
210
0.0
220
0.0
230
1.0
  2
SOLID
 70
     1
 71
     0
 91
        1
 92
        0
 93
       13
 72
     4
 94
        3
 73
     1
 74
     0
 95
        8
 96
        4
 40
11.0
 40
11.0
 40
11.0
 40
11.0
 40
12.0
 40
12.0
 40
12.0
 40
12.0
 10
268.4404642437646
 20
52.5733055013021
 42
1.0
 10
268.4404642437646
 20
53.03361848958336
 42
1.0
 10
268.3216911317854
 20
53.43037980143232
 42
1.0
 10
268.0578105979312
 20
53.71165979003909
 42
1.0
 97
        0
 72
     4
 94
        3
 73
     1
 74
     0
 95
        8
 96
        4
 40
12.0
 40
12.0
 40
12.0
 40
12.0
 40
13.0
 40
13.0
 40
13.0
 40
13.0
 10
268.0578105979312
 20
53.71165979003909
 42
1.0
 10
267.7943331402489
 20
53.99354439290368
 42
1.0
 10
267.3903164573062
 20
54.15289383951826
 42
1.0
 10
266.842804657176
 20
54.15289383951826
 42
1.0
 97
        0
 72
     4
 94
        3
 73
     1
 74
     0
 95
        8
 96
        4
 40
0.0
 40
0.0
 40
0.0
 40
0.0
 40
1.0
 40
1.0
 40
1.0
 40
1.0
 10
266.842804657176
 20
54.15289383951826
 42
1.0
 10
266.3709368186343
 20
54.15369999186201
 42
1.0
 10
265.8797213238427
 20
53.98306441243492
 42
1.0
 10
265.5798326519676
 20
53.52537141927086
 42
1.0
 97
        0
 72
     1
 10
265.5798326519676
 20
53.52537141927086
 11
265.5798326519676
 21
55.23085388183598
 72
     1
 10
265.5798326519676
 20
55.23085388183598
 11
264.9174441428531
 21
55.23085388183598
 72
     1
 10
264.9174441428531
 20
55.23085388183598
 11
264.9174441428531
 21
49.55486958821616
 72
     1
 10
264.9174441428531
 20
49.55486958821616
 11
265.5798326519676
 21
49.55486958821616
 72
     1
 10
265.5798326519676
 20
49.55486958821616
 11
265.5798326519676
 21
52.16371293131513
 72
     4
 94
        3
 73
     1
 74
     0
 95
        8
 96
        4
 40
6.0
 40
6.0
 40
6.0
 40
6.0
 40
7.0
 40
7.0
 40
7.0
 40
7.0
 10
265.5798326519676
 20
52.16371293131513
 42
1.0
 10
265.5845352073062
 20
53.12182499186201
 42
1.0
 10
266.1406459657697
 20
53.52167655436201
 42
1.0
 10
266.7699822287906
 20
53.52637910970056
 42
1.0
 97
        0
 72
     4
 94
        3
 73
     1
 74
     0
 95
        8
 96
        4
 40
7.0
 40
7.0
 40
7.0
 40
7.0
 40
8.0
 40
8.0
 40
8.0
 40
8.0
 10
266.7699822287906
 20
53.52637910970056
 42
1.0
 10
267.4439255881656
 20
53.51516015625004
 42
1.0
 10
267.7661178082177
 20
53.27620316569013
 42
1.0
 10
267.7771352235823
 20
52.40972375488285
 42
1.0
 97
        0
 72
     1
 10
267.7771352235823
 20
52.40972375488285
 11
267.7771352235823
 21
49.55486958821616
 72
     1
 10
267.7771352235823
 20
49.55486958821616
 11
268.4404642437646
 21
49.55486958821616
 72
     1
 10
268.4404642437646
 20
49.55486958821616
 11
268.4404642437646
 21
52.5733055013021
 97
        0
 75
     0
 76
     1
 98
        1
 10
0.0
 20
0.0
  0
HATCH
  5
131
330
78
100
AcDbEntity
  8
0
  6
Continuous
 62
     7
100
AcDbHatch
 10
0.0
 20
0.0
 30
0.0
210
0.0
220
0.0
230
1.0
  2
SOLID
 70
     1
 71
     0
 91
        1
 92
        0
 93
       10
 72
     1
 10
277.2619165933788
 20
50.12670030336879
 11
279.6434249755404
 21
53.66691832094693
 72
     1
 10
279.6434249755404
 20
53.66691832094693
 11
279.6434249755404
 21
54.04325710675423
 72
     1
 10
279.6434249755404
 20
54.04325710675423
 11
276.3750146495663
 21
54.04325710675421
 72
     1
 10
276.3750146495663
 20
54.04325710675421
 11
276.3749694859434
 21
53.47177920441256
 72
     1
 10
276.3749694859434
 20
53.47177920441256
 11
278.7109302679779
 21
53.47177920441256
 72
     1
 10
278.7109302679779
 20
53.47177920441256
 11
276.374695463315
 21
50.00443387717682
 72
     1
 10
276.374695463315
 20
50.00443387717682
 11
276.3746599344662
 21
49.55486958821617
 72
     1
 10
276.3746599344662
 20
49.55486958821617
 11
279.6774157734232
 21
49.55486958821617
 72
     1
 10
279.6774157734232
 20
49.55486958821617
 11
279.6776899522288
 21
50.12670030336879
 72
     1
 10
279.6776899522288
 20
50.12670030336879
 11
277.2619165933788
 21
50.12670030336879
 97
        0
 75
     0
 76
     1
 98
        1
 10
0.0
 20
0.0
  0
HATCH
  5
132
330
78
100
AcDbEntity
  8
0
  6
Continuous
 62
     7
100
AcDbHatch
 10
0.0
 20
0.0
 30
0.0
210
0.0
220
0.0
230
1.0
  2
SOLID
 70
     1
 71
     0
 91
        1
 92
        0
 93
       18
 72
     4
 94
        3
 73
     1
 74
     0
 95
        8
 96
        4
 40
25.0
 40
25.0
 40
25.0
 40
25.0
 40
26.0
 40
26.0
 40
26.0
 40
26.0
 10
275.3033712434755
 20
50.09781320298818
 42
1.0
 10
275.1656535513739
 20
50.1014408868571
 42
1.0
 10
275.1203746608532
 20
50.1463167001075
 42
1.0
 10
275.0822167821244
 20
50.23862114300191
 42
1.0
 97
        0
 72
     4
 94
        3
 73
     1
 74
     0
 95
        8
 96
        4
 40
26.0
 40
26.0
 40
26.0
 40
26.0
 40
27.0
 40
27.0
 40
27.0
 40
27.0
 10
275.0822167821244
 20
50.23862114300191
 42
1.0
 10
275.0460742842386
 20
50.33226917316051
 42
1.0
 10
275.0419091620066
 20
50.47912325839622
 42
1.0
 10
275.0421778774671
 20
50.64223474928492
 42
1.0
 97
        0
 72
     1
 10
275.0421778774671
 20
50.64223474928492
 11
275.0421778774671
 21
53.47142639967554
 72
     1
 10
275.0421778774671
 20
53.47142639967554
 11
275.7691929911002
 21
53.47142639967554
 72
     1
 10
275.7691929911002
 20
53.47142639967554
 11
275.7689641250673
 21
54.0429543062504
 72
     1
 10
275.7689641250673
 20
54.0429543062504
 11
275.0419489884256
 21
54.04301176190589
 72
     1
 10
275.0419489884256
 20
54.04301176190589
 11
275.041473321865
 21
55.23085388183598
 72
     1
 10
275.041473321865
 20
55.23085388183598
 11
274.3795206484703
 21
55.23085388183598
 72
     1
 10
274.3795206484703
 20
55.23085388183598
 11
274.3795206484703
 21
54.04298840332037
 72
     1
 10
274.3795206484703
 20
54.04298840332037
 11
273.7919506048935
 21
54.04298840332037
 72
     1
 10
273.7919506048935
 20
54.04298840332037
 11
273.7919506048935
 21
53.47142639160163
 72
     1
 10
273.7919506048935
 20
53.47142639160163
 11
274.3795206484703
 21
53.47142639160163
 72
     1
 10
274.3795206484703
 20
53.47142639160163
 11
274.3795206484703
 21
50.27785388183599
 72
     4
 94
        3
 73
     1
 74
     0
 95
        8
 96
        4
 40
20.0
 40
20.0
 40
20.0
 40
20.0
 40
21.0
 40
21.0
 40
21.0
 40
21.0
 10
274.3795206484703
 20
50.27785388183599
 42
1.0
 10
274.3784457823096
 20
49.9798462320833
 42
1.0
 10
274.474780989773
 20
49.78408557244977
 42
1.0
 10
274.6302340347482
 20
49.67283655090634
 42
1.0
 97
        0
 72
     4
 94
        3
 73
     1
 74
     0
 95
        8
 96
        4
 40
21.0
 40
21.0
 40
21.0
 40
21.0
 40
22.0
 40
22.0
 40
22.0
 40
22.0
 10
274.6302340347482
 20
49.67283655090634
 42
1.0
 10
274.7848809273797
 20
49.56158752935308
 42
1.0
 10
274.9834631217241
 20
49.53417835208514
 42
1.0
 10
275.1847324902169
 20
49.53390963708953
 42
1.0
 97
        0
 72
     4
 94
        2
 73
     1
 74
     0
 95
        6
 96
        3
 40
22.0
 40
22.0
 40
22.0
 40
23.0
 40
23.0
 40
23.0
 10
275.1847324902169
 20
49.53390963708953
 42
1.0
 10
275.2214124218576
 20
49.53390963753644
 42
1.0
 10
275.769192939439
 20
49.53364092676277
 42
1.0
 97
        0
 72
     1
 10
275.769192939439
 20
49.53364092676277
 11
275.769192939439
 21
50.09781320866384
 72
     1
 10
275.769192939439
 20
50.09781320866384
 11
275.3033712434755
 21
50.09781320298818
 97
        0
 75
     0
 76
     1
 98
        1
 10
0.0
 20
0.0
  0
HATCH
  5
133
330
78
100
AcDbEntity
  8
0
  6
Continuous
 62
     7
100
AcDbHatch
 10
0.0
 20
0.0
 30
0.0
210
0.0
220
0.0
230
1.0
  2
SOLID
 70
     1
 71
     0
 91
        2
 92
        0
 93
       12
 72
     4
 94
        3
 73
     1
 74
     0
 95
        8
 96
        4
 40
10.0
 40
10.0
 40
10.0
 40
10.0
 40
11.0
 40
11.0
 40
11.0
 40
11.0
 10
269.7527528823119
 20
53.54626417133141
 42
1.0
 10
269.3842069065273
 20
53.14695004000491
 42
1.0
 10
269.1588873324072
 20
52.55704806019009
 42
1.0
 10
269.1588873400616
 20
51.79919767770311
 42
1.0
 97
        0
 72
     4
 94
        3
 73
     1
 74
     0
 95
        8
 96
        4
 40
11.0
 40
11.0
 40
11.0
 40
11.0
 40
12.0
 40
12.0
 40
12.0
 40
12.0
 10
269.1588873400616
 20
51.79919767770311
 42
1.0
 10
269.1588873477193
 20
51.04101139840623
 42
1.0
 10
269.3842069337522
 20
50.4514453199528
 42
1.0
 10
269.7527529176072
 20
50.05172811989913
 42
1.0
 97
        0
 72
     4
 94
        3
 73
     1
 74
     0
 95
        8
 96
        4
 40
12.0
 40
12.0
 40
12.0
 40
12.0
 40
13.0
 40
13.0
 40
13.0
 40
13.0
 10
269.7527529176072
 20
50.05172811989913
 42
1.0
 10
270.1217019776297
 20
49.65241399602138
 42
1.0
 10
270.6333400005543
 20
49.4453672075692
 42
1.0
 10
271.1938845969058
 20
49.44563593067868
 42
1.0
 97
        0
 72
     1
 10
271.1938845969058
 20
49.44563593067868
 11
271.1949594666974
 21
49.44563593067868
 72
     4
 94
        3
 73
     1
 74
     0
 95
        8
 96
        4
 40
14.0
 40
14.0
 40
14.0
 40
14.0
 40
15.0
 40
15.0
 40
15.0
 40
15.0
 10
271.1949594666974
 20
49.44563593067868
 42
1.0
 10
271.7330661561506
 20
49.44563593611291
 42
1.0
 10
272.2242816489937
 20
49.63857506867777
 42
1.0
 10
272.5890655808147
 20
50.00752412835124
 42
1.0
 97
        0
 72
     1
 10
272.5890655808147
 20
50.00752412835124
 11
272.6762643972355
 21
49.55486958821616
 72
     1
 10
272.6762643972355
 20
49.55486958821616
 11
273.2284787527034
 21
49.55486958821616
 72
     1
 10
273.2284787527034
 20
49.55486958821616
 11
273.2284787527034
 21
54.04325711952716
 72
     1
 10
273.2284787527034
 20
54.04325711952716
 11
272.5521168951743
 21
54.04325711952716
 72
     1
 10
272.5521168951743
 20
54.04325711952716
 11
272.5521168951743
 21
53.62640917844642
 72
     4
 94
        3
 73
     1
 74
     0
 95
        8
 96
        4
 40
8.0
 40
8.0
 40
8.0
 40
8.0
 40
9.0
 40
9.0
 40
9.0
 40
9.0
 10
272.5521168951743
 20
53.62640917844642
 42
1.0
 10
272.1912293591284
 20
53.97231570963218
 42
1.0
 10
271.7145246047004
 20
54.1528938298174
 42
1.0
 10
271.1938845493668
 20
54.15242356902503
 42
1.0
 97
        0
 72
     4
 94
        3
 73
     1
 74
     0
 95
        8
 96
        4
 40
9.0
 40
9.0
 40
9.0
 40
9.0
 40
10.0
 40
10.0
 40
10.0
 40
10.0
 10
271.1938845493668
 20
54.15242356902503
 42
1.0
 10
270.6333399530077
 20
54.15289381889733
 42
1.0
 10
270.1217019342595
 20
53.94645163436776
 42
1.0
 10
269.7527528823119
 20
53.54626417133141
 42
1.0
 97
        0
 97
        0
 92
        0
 93
        5
 72
     4
 94
        3
 73
     1
 74
     0
 95
        8
 96
        4
 40
3.0
 40
3.0
 40
3.0
 40
3.0
 40
4.0
 40
4.0
 40
4.0
 40
4.0
 10
271.1605892956841
 20
53.52637906439517
 42
1.0
 10
271.9350329805802
 20
53.524565221705
 42
1.0
 10
272.5287641818192
 20
52.89966279663861
 42
1.0
 10
272.5327949436563
 20
51.7991976680583
 42
1.0
 97
        0
 72
     4
 94
        3
 73
     1
 74
     0
 95
        8
 96
        4
 40
4.0
 40
4.0
 40
4.0
 40
4.0
 40
5.0
 40
5.0
 40
5.0
 40
5.0
 10
272.5327949436563
 20
51.7991976680583
 42
1.0
 10
272.5287641820568
 20
50.6897976843339
 42
1.0
 10
271.9355704158469
 20
50.07403165236909
 42
1.0
 10
271.1605892960555
 20
50.07188191270246
 42
1.0
 97
        0
 72
     4
 94
        3
 73
     1
 74
     0
 95
        8
 96
        4
 40
0.0
 40
0.0
 40
0.0
 40
0.0
 40
1.0
 40
1.0
 40
1.0
 40
1.0
 10
271.1605892960555
 20
50.07188191270246
 42
1.0
 10
270.3854738175397
 20
50.07403165220246
 42
1.0
 10
269.7921456924734
 20
50.68979768403972
 42
1.0
 10
269.7885180068072
 20
51.79919766776329
 42
1.0
 97
        0
 72
     1
 10
269.7885180068072
 20
51.79919766776329
 11
269.7882492893593
 21
51.79919766776327
 72
     4
 94
        3
 73
     1
 74
     0
 95
        8
 96
        4
 40
2.0
 40
2.0
 40
2.0
 40
2.0
 40
3.0
 40
3.0
 40
3.0
 40
3.0
 10
269.7882492893593
 20
51.79919766776327
 42
1.0
 10
269.7921456922359
 20
52.89966279634443
 42
1.0
 10
270.3860112520646
 20
53.52456522153849
 42
1.0
 10
271.1605892956841
 20
53.52637906439517
 42
1.0
 97
        0
 97
        0
 75
     0
 76
     1
 98
        1
 10
0.0
 20
0.0
  0
ENDBLK
  5
7A
330
78
100
AcDbEntity
  8
0
100
AcDbBlockEnd
  0
ENDSEC
  0
SECTION
  2
ENTITIES
  0
SPLINE
  5
134
330
1F
100
AcDbEntity
  8
0
  6
SLD-Durchgehend
 62
     7
370
    25
100
AcDbSpline
210
0.0
220
0.0
230
1.0
 70
     8
 71
     3
 72
    12
 73
     8
 74
     0
 42
0.00000001
 43
0.00000001
 40
0.0
 40
0.0
 40
0.0
 40
0.0
 40
0.1692404786412902
 40
0.4431922527197553
 40
0.6990521151017093
 40
0.9453086298033956
 40
1.0
 40
1.0
 40
1.0
 40
1.0
 10
125.0762778577414
 20
162.7156174845408
 30
0.0
 10
125.1107338603491
 20
162.6974165541247
 30
0.0
 10
125.2009642445811
 20
162.6497535398302
 30
0.0
 10
125.3512784687315
 20
162.6080070628464
 30
0.0
 10
125.5179490225991
 20
162.6097938190772
 30
0.0
 10
125.6392113258925
 20
162.6369064212588
 30
0.0
 10
125.6905840314001
 20
162.6760145635793
 30
0.0
 10
125.6999200121327
 20
162.6831217007172
 30
0.0
  0
LINE
  5
135
330
1F
100
AcDbEntity
  8
0
  6
SLD-Durchgehend
 62
     7
370
    25
100
AcDbLine
 10
125.7012270656
 20
162.6784864467
 30
0.0
 11
128.2644891474
 21
164.1582261493
 31
0.0
  0
LINE
  5
136
330
1F
100
AcDbEntity
  8
0
  6
SLD-Durchgehend
 62
     7
370
    25
100
AcDbLine
 10
120.8336371706
 20
165.16484182
 30
0.0
 11
125.0762778577
 21
162.7156174845
 31
0.0
  0
SPLINE
  5
137
330
1F
100
AcDbEntity
  8
0
  6
SLD-Durchgehend
 62
     7
370
    25
100
AcDbSpline
210
0.0
220
0.0
230
1.0
 70
     8
 71
     3
 72
    11
 73
     7
 74
     0
 42
0.00000001
 43
0.00000001
 40
0.0
 40
0.0
 40
0.0
 40
0.0
 40
0.2082595790238582
 40
0.4619803642889658
 40
0.7200097723803058
 40
1.0
 40
1.0
 40
1.0
 40
1.0
 10
120.4599746993898
 20
169.9988553786115
 30
0.0
 10
120.4221332351407
 20
169.9750341111135
 30
0.0
 10
120.3381898529398
 20
169.9221916061581
 30
0.0
 10
120.2503068983308
 20
169.7916389289335
 30
0.0
 10
120.1891843461118
 20
169.6305141623885
 30
0.0
 10
120.1820234964726
 20
169.5075739813498
 30
0.0
 10
120.1782969263117
 20
169.443594812212
 30
0.0
  0
LINE
  5
138
330
1F
100
AcDbEntity
  8
0
  6
SLD-Durchgehend
 62
     7
370
    25
100
AcDbLine
 10
123.0219297277
 20
171.4832303353
 30
0.0
 11
120.4586676459
 21
170.0034906327
 31
0.0
  0
LINE
  5
139
330
1F
100
AcDbEntity
  8
0
  6
SLD-Durchgehend
 62
     7
370
    25
100
AcDbLine
 10
120.1782969263
 20
169.4435948122
 30
0.0
 11
120.1782969263
 21
166.2999126865
 31
0.0
  0
SPLINE
  5
13A
330
1F
100
AcDbEntity
  8
0
  6
SLD-Durchgehend
 62
     7
370
    25
100
AcDbSpline
210
0.0
220
0.0
230
1.0
 70
     8
 71
     3
 72
    14
 73
    10
 74
     0
 42
0.00000001
 43
0.00000001
 40
0.0
 40
0.0
 40
0.0
 40
0.0
 40
0.0919752250307085
 40
0.2575887227248196
 40
0.4226315715063778
 40
0.5873812384948042
 40
0.7530842104473536
 40
0.9210337975567371
 40
1.0
 40
1.0
 40
1.0
 40
1.0
 10
120.1782969263117
 20
166.2999126864519
 30
0.0
 10
120.1797025097339
 20
166.2608702450488
 30
0.0
 10
120.1836390310993
 20
166.1515267494528
 30
0.0
 10
120.2246999935866
 20
165.964595962321
 30
0.0
 10
120.3096708616952
 20
165.7475924129459
 30
0.0
 10
120.4292512735111
 20
165.5426693792137
 30
0.0
 10
120.5770716192241
 20
165.3612488061115
 30
0.0
 10
120.7161789959413
 20
165.2376378788927
 30
0.0
 10
120.8051752542589
 20
165.1824814210426
 30
0.0
 10
120.8336371706221
 20
165.1648418200089
 30
0.0
  0
SPLINE
  5
13B
330
1F
100
AcDbEntity
  8
0
  6
SLD-Durchgehend
 62
     7
370
    25
100
AcDbSpline
210
0.0
220
0.0
230
1.0
 70
     8
 71
     3
 72
    11
 73
     7
 74
     0
 42
0.00000001
 43
0.00000001
 40
0.0
 40
0.0
 40
0.0
 40
0.0
 40
0.1926667671373941
 40
0.5584893208098314
 40
0.9244791675049551
 40
1.0
 40
1.0
 40
1.0
 40
1.0
 10
129.2930251180021
 20
152.8313310005774
 30
0.0
 10
129.34461468743
 20
152.8027760792395
 30
0.0
 10
129.4941590225469
 20
152.72000301536
 30
0.0
 10
129.7410366481961
 20
152.6225329301141
 30
0.0
 10
129.9555547420858
 20
152.5597398568069
 30
0.0
 10
130.0669901710863
 20
152.5538785306383
 30
0.0
 10
130.0860513099539
 20
152.5528759450777
 30
0.0
  0
LINE
  5
13C
330
1F
100
AcDbEntity
  8
0
  6
SLD-Durchgehend
 62
     7
370
    25
100
AcDbLine
 10
130.8553981377
 20
152.6889953554
 30
0.0
 11
131.8276699619
 21
153.2502759323
 31
0.0
  0
LINE
  5
13D
330
1F
100
AcDbEntity
  8
0
  6
SLD-Durchgehend
 62
     7
370
    25
100
AcDbLine
 10
84.7452979032
 20
178.548186523
 30
0.0
 11
129.293025118
 21
152.8313310006
 31
0.0
  0
SPLINE
  5
13E
330
1F
100
AcDbEntity
  8
0
  6
SLD-Durchgehend
 62
     7
370
    25
100
AcDbSpline
210
0.0
220
0.0
230
1.0
 70
     8
 71
     3
 72
    12
 73
     8
 74
     0
 42
0.00000001
 43
0.00000001
 40
0.0
 40
0.0
 40
0.0
 40
0.0
 40
0.1793824078108681
 40
0.4652571392271322
 40
0.7318063267778538
 40
0.9893578879737385
 40
1.0
 40
1.0
 40
1.0
 40
1.0
 10
111.641249015197
 20
170.5249735407027
 30
0.0
 10
111.6750353062485
 20
170.507205993272
 30
0.0
 10
111.7626654886701
 20
170.4611230000201
 30
0.0
 10
111.9092914508397
 20
170.421836266649
 30
0.0
 10
112.0705112573146
 20
170.427952121239
 30
0.0
 10
112.1804161488376
 20
170.4526499469797
 30
0.0
 10
112.2225392496192
 20
170.4857594532246
 30
0.0
 10
112.2242107236403
 20
170.4870732615272
 30
0.0
  0
LINE
  5
13F
330
1F
100
AcDbEntity
  8
0
  6
SLD-Durchgehend
 62
     7
370
    25
100
AcDbLine
 10
112.2245459748
 20
170.4860689202
 30
0.0
 11
114.8237340034
 21
171.9133606528
 31
0.0
  0
LINE
  5
140
330
1F
100
AcDbEntity
  8
0
  6
SLD-Durchgehend
 62
     7
370
    25
100
AcDbLine
 10
106.1190678479
 20
173.7128608725
 30
0.0
 11
111.6412490152
 21
170.5249735407
 31
0.0
  0
SPLINE
  5
141
330
1F
100
AcDbEntity
  8
0
  6
SLD-Durchgehend
 62
     7
370
    25
100
AcDbSpline
210
0.0
220
0.0
230
1.0
 70
     8
 71
     3
 72
    11
 73
     7
 74
     0
 42
0.00000001
 43
0.00000001
 40
0.0
 40
0.0
 40
0.0
 40
0.0
 40
0.2558524106985878
 40
0.5823831102297186
 40
0.9071343379984594
 40
1.0
 40
1.0
 40
1.0
 40
1.0
 10
105.985548742707
 20
178.4073961649129
 30
0.0
 10
105.9580864830559
 20
178.3896075609891
 30
0.0
 10
105.8955756153807
 20
178.3491163166364
 30
0.0
 10
105.8397182400707
 20
178.2448940375912
 30
0.0
 10
105.8187356727175
 20
178.1534901481803
 30
0.0
 10
105.817567651515
 20
178.1006008260798
 30
0.0
 10
105.817307918097
 20
178.0888398029268
 30
0.0
  0
LINE
  5
142
330
1F
100
AcDbEntity
  8
0
  6
SLD-Durchgehend
 62
     7
370
    25
100
AcDbLine
 10
108.5103942713
 20
179.9758429343
 30
0.0
 11
105.9854456293
 21
178.41463317
 31
0.0
  0
LINE
  5
143
330
1F
100
AcDbEntity
  8
0
  6
SLD-Durchgehend
 62
     7
370
    25
100
AcDbLine
 10
105.8173079181
 20
178.0888398029
 30
0.0
 11
105.8173079181
 21
177.8846113276
 31
0.0
  0
SPLINE
  5
144
330
1F
100
AcDbEntity
  8
0
  6
SLD-Durchgehend
 62
     7
370
    25
100
AcDbSpline
210
0.0
220
0.0
230
1.0
 70
     8
 71
     3
 72
     9
 73
     5
 74
     0
 42
0.00000001
 43
0.00000001
 40
0.0
 40
0.0
 40
0.0
 40
0.0
 40
0.4419754498699816
 40
1.0
 40
1.0
 40
1.0
 40
1.0
 10
105.817307918097
 20
177.8846113276149
 30
0.0
 10
105.8166782644974
 20
177.8745172604897
 30
0.0
 10
105.8152536297132
 20
177.8516787360239
 30
0.0
 10
105.8138181741623
 20
177.849605850422
 30
0.0
 10
105.8130171547243
 20
177.8484491293665
 30
0.0
  0
SPLINE
  5
145
330
1F
100
AcDbEntity
  8
0
  6
SLD-Durchgehend
 62
     7
370
    25
100
AcDbSpline
210
0.0
220
0.0
230
1.0
 70
     8
 71
     3
 72
    14
 73
    10
 74
     0
 42
0.00000001
 43
0.00000001
 40
0.0
 40
0.0
 40
0.0
 40
0.0
 40
0.1083278245865196
 40
0.2667278228881275
 40
0.4409388740067662
 40
0.6266639793517498
 40
0.8139772196765307
 40
0.969787588802723
 40
1.0
 40
1.0
 40
1.0
 40
1.0
 10
105.5888185338181
 20
174.8355080977405
 30
0.0
 10
105.5991660737881
 20
174.8289583872783
 30
0.0
 10
105.6246440783452
 20
174.8128315055764
 30
0.0
 10
105.6763068581128
 20
174.7649614559618
 30
0.0
 10
105.7332522527343
 20
174.6912695374126
 30
0.0
 10
105.7817582151853
 20
174.601084470352
 30
0.0
 10
105.8102686576284
 20
174.5141910654186
 30
0.0
 10
105.8170272601457
 20
174.4623672057567
 30
0.0
 10
105.8172687045288
 20
174.4429024628568
 30
0.0
 10
105.817307918097
 20
174.4397411467249
 30
0.0
  0
LINE
  5
146
330
1F
100
AcDbEntity
  8
0
  6
SLD-Durchgehend
 62
     7
370
    25
100
AcDbLine
 10
105.8173079181
 20
174.4397411467
 30
0.0
 11
105.8173079181
 21
174.2355126714
 31
0.0
  0
LINE
  5
147
330
1F
100
AcDbEntity
  8
0
  6
SLD-Durchgehend
 62
     7
370
    25
100
AcDbLine
 10
102.8444370917
 20
176.4198057816
 30
0.0
 11
105.5888185338
 21
174.8355080977
 31
0.0
  0
SPLINE
  5
148
330
1F
100
AcDbEntity
  8
0
  6
SLD-Durchgehend
 62
     7
370
    25
100
AcDbSpline
210
0.0
220
0.0
230
1.0
 70
     8
 71
     3
 72
    12
 73
     8
 74
     0
 42
0.00000001
 43
0.00000001
 40
0.0
 40
0.0
 40
0.0
 40
0.0
 40
0.1598358100320428
 40
0.4101162653044176
 40
0.6681679913505861
 40
0.9173487625770882
 40
1.0
 40
1.0
 40
1.0
 40
1.0
 10
105.817307918097
 20
174.2355126714129
 30
0.0
 10
105.8192277817504
 20
174.202992549069
 30
0.0
 10
105.824153882549
 20
174.1195504773564
 30
0.0
 10
105.8707567966023
 20
173.9835818688242
 30
0.0
 10
105.9578549456361
 20
173.8444014296305
 30
0.0
 10
106.0476236286305
 20
173.7572022562777
 30
0.0
 10
106.1048213054977
 20
173.7217028951321
 30
0.0
 10
106.1190678478672
 20
173.7128608725124
 30
0.0
  0
SPLINE
  5
149
330
1F
100
AcDbEntity
  8
0
  6
SLD-Durchgehend
 62
     7
370
    25
100
AcDbSpline
210
0.0
220
0.0
230
1.0
 70
     8
 71
     3
 72
    10
 73
     6
 74
     0
 42
0.00000001
 43
0.00000001
 40
0.0
 40
0.0
 40
0.0
 40
0.0
 40
0.2068675856935315
 40
0.8061316066943716
 40
1.0
 40
1.0
 40
1.0
 40
1.0
 10
102.8132855971795
 20
176.4345798051792
 30
0.0
 10
102.8120959142846
 20
176.4345445698509
 30
0.0
 10
102.8074599004778
 20
176.4344072631204
 30
0.0
 10
102.8242100606152
 20
176.4311127839245
 30
0.0
 10
102.8404640634912
 20
176.4220267223904
 30
0.0
 10
102.8444370916584
 20
176.4198057815748
 30
0.0
  0
SPLINE
  5
14A
330
1F
100
AcDbEntity
  8
0
  6
SLD-Durchgehend
 62
     7
370
    25
100
AcDbSpline
210
0.0
220
0.0
230
1.0
 70
     8
 71
     3
 72
    11
 73
     7
 74
     0
 42
0.00000001
 43
0.00000001
 40
0.0
 40
0.0
 40
0.0
 40
0.0
 40
0.2705103111656252
 40
0.608492003667617
 40
0.9396259454780459
 40
1.0
 40
1.0
 40
1.0
 40
1.0
 10
102.3141877776093
 20
175.9093713830314
 30
0.0
 10
102.3457291240015
 20
175.8936414057318
 30
0.0
 10
102.4166789409671
 20
175.8582580395177
 30
0.0
 10
102.5372793528077
 20
175.8472237378317
 30
0.0
 10
102.6368031530453
 20
175.8612560916726
 30
0.0
 10
102.6764543733102
 20
175.8930504748879
 30
0.0
 10
102.6825689481249
 20
175.8979534547599
 30
0.0
  0
LINE
  5
14B
330
1F
100
AcDbEntity
  8
0
  6
SLD-Durchgehend
 62
     7
370
    25
100
AcDbLine
 10
102.6803411694
 20
175.8920860612
 30
0.0
 11
103.2386139174
 21
176.1922523437
 31
0.0
  0
LINE
  5
14C
330
1F
100
AcDbEntity
  8
0
  6
SLD-Durchgehend
 62
     7
370
    25
100
AcDbLine
 10
96.7920066103
 20
179.0972587148
 30
0.0
 11
102.3141877776
 21
175.909371383
 31
0.0
  0
SPLINE
  5
14D
330
1F
100
AcDbEntity
  8
0
  6
SLD-Durchgehend
 62
     7
370
    25
100
AcDbSpline
210
0.0
220
0.0
230
1.0
 70
     8
 71
     3
 72
    11
 73
     7
 74
     0
 42
0.00000001
 43
0.00000001
 40
0.0
 40
0.0
 40
0.0
 40
0.0
 40
0.2286444480645629
 40
0.4920964262344983
 40
0.7616608136796909
 40
0.9999999999999999
 40
0.9999999999999999
 40
0.9999999999999999
 40
0.9999999999999999
 10
96.44299084972643
 20
183.8172711177615
 30
0.0
 10
96.4048832250654
 20
183.7914581989831
 30
0.0
 10
96.32286668774418
 20
183.7359027495107
 30
0.0
 10
96.24063410697438
 20
183.603503721547
 30
0.0
 10
96.1908629154378
 20
183.4543627229318
 30
0.0
 10
96.18549634501908
 20
183.3464409898179
 30
0.0
 10
96.1829780244303
 20
183.2957975618421
 30
0.0
  0
LINE
  5
14E
330
1F
100
AcDbEntity
  8
0
  6
SLD-Durchgehend
 62
     7
370
    25
100
AcDbLine
 10
98.9767925112
 20
185.3575807222
 30
0.0
 11
96.44098335
 21
183.8205016756
 31
0.0
  0
LINE
  5
14F
330
1F
100
AcDbEntity
  8
0
  6
SLD-Durchgehend
 62
     7
370
    25
100
AcDbLine
 10
96.1829780244
 20
183.2957975618
 30
0.0
 11
96.1829780244
 21
180.1521154361
 31
0.0
  0
SPLINE
  5
150
330
1F
100
AcDbEntity
  8
0
  6
SLD-Durchgehend
 62
     7
370
    25
100
AcDbSpline
210
0.0
220
0.0
230
1.0
 70
     8
 71
     3
 72
    14
 73
    10
 74
     0
 42
0.00000001
 43
0.00000001
 40
0.0
 40
0.0
 40
0.0
 40
0.0
 40
0.0963480817663848
 40
0.2687006851377755
 40
0.4405294996809215
 40
0.6122281630361811
 40
0.7852945571026614
 40
0.9509808613426253
 40
1.0
 40
1.0
 40
1.0
 40
1.0
 10
96.1829780244303
 20
180.152115436082
 30
0.0
 10
96.18441152794756
 20
180.1139757248837
 30
0.0
 10
96.18840935925022
 20
180.0076096577854
 30
0.0
 10
96.22985444288386
 20
179.8262546576746
 30
0.0
 10
96.31509452235609
 20
179.6169742710948
 30
0.0
 10
96.43468898164745
 20
179.4210276675874
 30
0.0
 10
96.5791761734786
 20
179.2532708587335
 30
0.0
 10
96.70308791630775
 20
179.1509843609772
 30
0.0
 10
96.77547907324319
 20
179.1072448332449
 30
0.0
 10
96.79200661027951
 20
179.0972587148411
 30
0.0
  0
SPLINE
  5
151
330
1F
100
AcDbEntity
  8
0
  6
SLD-Durchgehend
 62
     7
370
    25
100
AcDbSpline
210
0.0
220
0.0
230
1.0
 70
     8
 71
     3
 72
    12
 73
     8
 74
     0
 42
0.00000001
 43
0.00000001
 40
0.0
 40
0.0
 40
0.0
 40
0.0
 40
0.1692404786412911
 40
0.4431922527197579
 40
0.6990521151017093
 40
0.9453086298034038
 40
1.0
 40
1.0
 40
1.0
 40
1.0
 10
87.59961845485442
 20
184.3504324478426
 30
0.0
 10
87.63407445746212
 20
184.3322315174265
 30
0.0
 10
87.72430484169419
 20
184.284568503132
 30
0.0
 10
87.87461906584456
 20
184.2428220261482
 30
0.0
 10
88.0412896197121
 20
184.244608782379
 30
0.0
 10
88.16255192300551
 20
184.2717213845607
 30
0.0
 10
88.21392462851318
 20
184.3108295268811
 30
0.0
 10
88.22326060924576
 20
184.317936664019
 30
0.0
  0
LINE
  5
152
330
1F
100
AcDbEntity
  8
0
  6
SLD-Durchgehend
 62
     7
370
    25
100
AcDbLine
 10
88.2245676628
 20
184.31330141
 30
0.0
 11
90.7878297446
 21
185.7930411127
 31
0.0
  0
LINE
  5
153
330
1F
100
AcDbEntity
  8
0
  6
SLD-Durchgehend
 62
     7
370
    25
100
AcDbLine
 10
83.3569777677
 20
186.7996567833
 30
0.0
 11
87.5996184549
 21
184.3504324478
 31
0.0
  0
SPLINE
  5
154
330
1F
100
AcDbEntity
  8
0
  6
SLD-Durchgehend
 62
     7
370
    25
100
AcDbSpline
210
0.0
220
0.0
230
1.0
 70
     8
 71
     3
 72
    11
 73
     7
 74
     0
 42
0.00000001
 43
0.00000001
 40
0.0
 40
0.0
 40
0.0
 40
0.0
 40
0.2082595790238604
 40
0.4619803642889673
 40
0.7200097723803066
 40
1.0
 40
1.0
 40
1.0
 40
1.0
 10
82.98331529650281
 20
191.6336703419133
 30
0.0
 10
82.94547383225377
 20
191.6098490744153
 30
0.0
 10
82.86153045005284
 20
191.5570065694599
 30
0.0
 10
82.77364749544384
 20
191.4264538922353
 30
0.0
 10
82.71252494322482
 20
191.2653291256903
 30
0.0
 10
82.70536409358564
 20
191.1423889446517
 30
0.0
 10
82.70163752342474
 20
191.0784097755138
 30
0.0
  0
LINE
  5
155
330
1F
100
AcDbEntity
  8
0
  6
SLD-Durchgehend
 62
     7
370
    25
100
AcDbLine
 10
85.5452703248
 20
193.1180452986
 30
0.0
 11
82.982008243
 21
191.638305596
 31
0.0
  0
LINE
  5
156
330
1F
100
AcDbEntity
  8
0
  6
SLD-Durchgehend
 62
     7
370
    25
100
AcDbLine
 10
82.7016375234
 20
191.0784097755
 30
0.0
 11
82.7016375234
 21
187.9347276498
 31
0.0
  0
SPLINE
  5
157
330
1F
100
AcDbEntity
  8
0
  6
SLD-Durchgehend
 62
     7
370
    25
100
AcDbSpline
210
0.0
220
0.0
230
1.0
 70
     8
 71
     3
 72
    14
 73
    10
 74
     0
 42
0.00000001
 43
0.00000001
 40
0.0
 40
0.0
 40
0.0
 40
0.0
 40
0.0919752250307076
 40
0.2575887227247833
 40
0.4226315715063432
 40
0.5873812384947733
 40
0.7530842104473308
 40
0.9210337975567052
 40
1.0
 40
1.0
 40
1.0
 40
1.0
 10
82.70163752342474
 20
187.9347276497537
 30
0.0
 10
82.70304310684696
 20
187.8956852083506
 30
0.0
 10
82.7069796282123
 20
187.7863417127546
 30
0.0
 10
82.74804059069965
 20
187.5994109256229
 30
0.0
 10
82.83301145880817
 20
187.3824073762478
 30
0.0
 10
82.95259187062418
 20
187.1774843425156
 30
0.0
 10
83.1004122163371
 20
186.9960637694133
 30
0.0
 10
83.23951959305434
 20
186.8724528421945
 30
0.0
 10
83.32851585137193
 20
186.8172963843445
 30
0.0
 10
83.35697776773513
 20
186.7996567833107
 30
0.0
  0
SPLINE
  5
158
330
1F
100
AcDbEntity
  8
0
  6
SLD-Durchgehend
 62
     7
370
    25
100
AcDbSpline
210
0.0
220
0.0
230
1.0
 70
     8
 71
     3
 72
    14
 73
    10
 74
     0
 42
0.00000001
 43
0.00000001
 40
0.0
 40
0.0
 40
0.0
 40
0.0
 40
0.1186840051038201
 40
0.2863343793822708
 40
0.4540641942267526
 40
0.6239421481039937
 40
0.796676807590542
 40
0.9638523906012513
 40
1.0
 40
1.0
 40
1.0
 40
1.0
 10
83.29929247089174
 20
195.2543635308608
 30
0.0
 10
83.25061531929789
 20
195.232794858765
 30
0.0
 10
83.13317791078167
 20
195.1807587622982
 30
0.0
 10
82.97943484296863
 20
195.0426868800676
 30
0.0
 10
82.83937668680383
 20
194.8542156952265
 30
0.0
 10
82.73604703576225
 20
194.625814725582
 30
0.0
 10
82.67130605484178
 20
194.3668803564883
 30
0.0
 10
82.65105371124345
 20
194.1570931530779
 30
0.0
 10
82.65004089130318
 20
194.0385083738362
 30
0.0
 10
82.6498608281281
 20
194.0174258980504
 30
0.0
  0
LINE
  5
159
330
1F
100
AcDbEntity
  8
0
  6
SLD-Durchgehend
 62
     7
370
    25
100
AcDbLine
 10
84.1766128418
 20
195.7743439981
 30
0.0
 11
83.2043410177
 21
195.2130634212
 31
0.0
  0
LINE
  5
15A
330
1F
100
AcDbEntity
  8
0
  6
SLD-Durchgehend
 62
     7
370
    25
100
AcDbLine
 10
82.6498608281
 20
194.0174258981
 30
0.0
 11
82.6498608281
 21
182.1775841257
 31
0.0
  0
SPLINE
  5
15B
330
1F
100
AcDbEntity
  8
0
  6
SLD-Durchgehend
 62
     7
370
    25
100
AcDbSpline
210
0.0
220
0.0
230
1.0
 70
     8
 71
     3
 72
    19
 73
    15
 74
     0
 42
0.00000001
 43
0.00000001
 40
0.0
 40
0.0
 40
0.0
 40
0.0
 40
0.0464157561760856
 40
0.1343247429541453
 40
0.2221808079952023
 40
0.3099431490363046
 40
0.3976253415511201
 40
0.4852581954069584
 40
0.5728791222412297
 40
0.6605236749529902
 40
0.7482242024423509
 40
0.8360223774385602
 40
0.9239573287103134
 40
1.0
 40
1.0
 40
1.0
 40
1.0
 10
82.6498608281281
 20
182.177584125707
 30
0.0
 10
82.65098724667465
 20
182.1175827590848
 30
0.0
 10
82.65424704236017
 20
181.9439419781859
 30
0.0
 10
82.69026443371523
 20
181.6424660240779
 30
0.0
 10
82.76987342806686
 20
181.2744698907483
 30
0.0
 10
82.88722439348942
 20
180.9014621342129
 30
0.0
 10
83.03930758681038
 20
180.5305706065486
 30
0.0
 10
83.22345214912198
 20
180.1683340120547
 30
0.0
 10
83.43624918393964
 20
179.821250887937
 30
0.0
 10
83.6739020753087
 20
179.4956354509864
 30
0.0
 10
83.93220694487802
 20
179.197102078564
 30
0.0
 10
84.20672410842353
 20
178.9321169687165
 30
0.0
 10
84.4795790302659
 20
178.7122540641459
 30
0.0
 10
84.66111346788561
 20
178.6001660198138
 30
0.0
 10
84.74529790324966
 20
178.5481865229927
 30
0.0
  0
ARC
  5
15C
330
1F
100
AcDbEntity
  8
0
  6
SLD-Durchgehend
 62
     7
370
    25
100
AcDbCircle
 10
128.6384631584
 20
166.3048143132
 30
0.0
 40
3.813957998986789
100
AcDbArc
 50
2.3868561234
 51
57.6131440222
  0
LINE
  5
15D
330
1F
100
AcDbEntity
  8
0
  6
SLD-Durchgehend
 62
     7
370
    25
100
AcDbLine
 10
122.1960638793
 20
164.8099247549
 30
0.0
 11
123.6102774417
 21
163.993516643
 31
0.0
  0
LWPOLYLINE
  5
15E
330
1F
100
AcDbEntity
  8
0
  6
SLD-Durchgehend
 62
     7
370
    25
100
AcDbPolyline
 90
       20
 70
   128
 43
0.0
 10
123.6102774417
 20
163.993516643
 10
123.8721458313
 20
163.8674004824
 10
124.1268711338
 20
163.7948389277
 10
124.3675051071
 20
163.7778112688
 10
124.5874838837
 20
163.8167819761
 10
124.7808070159
 20
163.9106880301
 10
124.9422011526
 20
164.0569679185
 10
125.0672638826
 20
164.2516315073
 10
125.1525838205
 20
164.4893688813
 10
125.195833661
 20
164.7636951845
 10
125.195833661
 20
165.0671275106
 10
125.1525838205
 20
165.3913890167
 10
125.0672638826
 20
165.7276346941
 10
124.9422011526
 20
166.0666926375
 10
124.7808070159
 20
166.3993142298
 10
124.5874838837
 20
166.7164264212
 10
124.3675051071
 20
167.0093792176
 10
124.1268711338
 20
167.2701816306
 10
123.8721458313
 20
167.4917196501
 10
123.6102774417
 20
167.6679502965
  0
LINE
  5
15F
330
1F
100
AcDbEntity
  8
0
  6
SLD-Durchgehend
 62
     7
370
    25
100
AcDbLine
 10
123.6102774417
 20
167.6679502965
 30
0.0
 11
122.1960638793
 21
168.4843584083
 31
0.0
  0
LWPOLYLINE
  5
160
330
1F
100
AcDbEntity
  8
0
  6
SLD-Durchgehend
 62
     7
370
    25
100
AcDbPolyline
 90
       20
 70
   128
 43
0.0
 10
122.1960638793
 20
168.4843584083
 10
121.9341954897
 20
168.610474569
 10
121.6794701871
 20
168.6830361237
 10
121.4388362138
 20
168.7000637825
 10
121.2188574373
 20
168.6610930753
 10
121.0255343051
 20
168.5671870213
 10
120.8641401683
 20
168.4209071328
 10
120.7390774383
 20
168.226243544
 10
120.6537575004
 20
167.9885061701
 10
120.61050766
 20
167.7141798669
 10
120.61050766
 20
167.4107475408
 10
120.6537575004
 20
167.0864860347
 10
120.7390774383
 20
166.7502403572
 10
120.8641401683
 20
166.4111824139
 10
121.0255343051
 20
166.0785608216
 10
121.2188574373
 20
165.7614486302
 10
121.4388362138
 20
165.4684958337
 10
121.6794701871
 20
165.2076934208
 10
121.9341954897
 20
164.9861554012
 10
122.1960638793
 20
164.8099247549
  0
ARC
  5
161
330
1F
100
AcDbEntity
  8
0
  6
SLD-Durchgehend
 62
     7
370
    25
100
AcDbCircle
 10
125.2824523589
 20
165.7878258421
 30
0.0
 40
1.506717757965931
100
AcDbArc
 50
238.4538922425
 51
262.5354117261
  0
LINE
  5
162
330
1F
100
AcDbEntity
  8
0
  6
SLD-Durchgehend
 62
     7
370
    25
100
AcDbLine
 10
132.4491122065
 20
154.6238103517
 30
0.0
 11
132.4491122065
 21
166.463652124
 31
0.0
  0
LINE
  5
163
330
1F
100
AcDbEntity
  8
0
  6
SLD-Durchgehend
 62
     7
370
    25
100
AcDbLine
 10
130.6813452535
 20
169.5255142935
 30
0.0
 11
85.4265112576
 21
195.6505738719
 31
0.0
  0
LINE
  5
164
330
1F
100
AcDbEntity
  8
0
  6
SLD-Durchgehend
 62
     7
370
    25
100
AcDbLine
 10
123.0799473558
 20
165.3201798247
 30
0.0
 11
124.4941609181
 21
164.5037717129
 31
0.0
  0
ARC
  5
165
330
1F
100
AcDbEntity
  8
0
  6
SLD-Durchgehend
 62
     7
370
    25
100
AcDbCircle
 10
124.6556167384
 20
168.0197299495
 30
0.0
 40
3.125748691067287
100
AcDbArc
 50
167.5377856861
 51
239.7288092202
  0
LINE
  5
166
330
1F
100
AcDbEntity
  8
0
  6
SLD-Durchgehend
 62
     7
370
    25
100
AcDbLine
 10
123.0799473558
 20
166.2387882381
 30
0.0
 11
124.4941609181
 21
165.4223801263
 31
0.0
  0
ARC
  5
167
330
1F
100
AcDbEntity
  8
0
  6
SLD-Durchgehend
 62
     7
370
    25
100
AcDbCircle
 10
124.8108129136
 20
165.8255892939
 30
0.0
 40
0.5126852046712487
100
AcDbArc
 50
231.8564124421
 51
310.4777228516
  0
LWPOLYLINE
  5
168
330
1F
100
AcDbEntity
  8
0
  6
SLD-Durchgehend
 62
     7
370
    25
100
AcDbPolyline
 90
       13
 70
   128
 43
0.0
 10
122.7157917081
 20
168.1843259191
 10
122.7102623361
 20
168.1841986255
 10
122.5524365113
 20
168.1495104507
 10
122.4252676993
 20
168.0571642282
 10
122.3361464893
 20
167.9125267846
 10
122.2902522821
 20
167.7240039224
 10
122.2902522821
 20
167.5025519052
 10
122.3361464893
 20
167.2610407193
 10
122.4252676993
 20
167.0135061168
 10
122.5524365113
 20
166.7743339092
 10
122.7102623361
 20
166.5574239158
 10
122.8895729106
 20
166.375382157
 10
123.0799473558
 20
166.2387882381
  0
ARC
  5
169
330
1F
100
AcDbEntity
  8
0
  6
SLD-Durchgehend
 62
     7
370
    25
100
AcDbCircle
 10
130.2992927161
 20
153.6522486084
 30
0.0
 40
1.105659053326033
100
AcDbArc
 50
261.384703781
 51
338.5517493175
  0
ARC
  5
16A
330
1F
100
AcDbEntity
  8
0
  6
SLD-Durchgehend
 62
     7
370
    25
100
AcDbCircle
 10
130.9617810063
 20
154.4693888899
 30
0.0
 40
1.49532608046078
100
AcDbArc
 50
305.3847106268
 51
5.9274697666
  0
LINE
  5
16B
330
1F
100
AcDbEntity
  8
0
  6
SLD-Durchgehend
 62
     7
370
    25
100
AcDbLine
 10
100.4525303578
 20
178.8932134964
 30
0.0
 11
100.4525303578
 21
179.5056191053
 31
0.0
  0
ARC
  5
16C
330
1F
100
AcDbEntity
  8
0
  6
SLD-Durchgehend
 62
     7
370
    25
100
AcDbCircle
 10
96.9510770058
 20
179.3314682223
 30
0.0
 40
3.505781525706644
100
AcDbArc
 50
2.847359088
 51
53.2650547075
  0
LWPOLYLINE
  5
16D
330
1F
100
AcDbEntity
  8
0
  6
SLD-Durchgehend
 62
     7
370
    25
100
AcDbPolyline
 90
        9
 70
   128
 43
0.0
 10
99.0479341824
 20
177.8795047354
 10
99.330337212
 20
177.7853919938
 10
99.5973103485
 20
177.7579718419
 10
99.8400664923
 20
177.7981467808
 10
100.0506156169
 20
177.9045945008
 10
100.2220277511
 20
178.0738114033
 10
100.3486610708
 20
178.3002279174
 10
100.4263475925
 20
178.576391816
 10
100.4525303578
 20
178.8932134964
  0
LWPOLYLINE
  5
16E
330
1F
100
AcDbEntity
  8
0
  6
SLD-Durchgehend
 62
     7
370
    25
100
AcDbPolyline
 90
       17
 70
   128
 43
0.0
 10
106.7281030408
 20
175.597018825
 10
106.7079185538
 20
175.7258498215
 10
106.6504379979
 20
175.8583719794
 10
106.5644122667
 20
175.9744100013
 10
106.4629379979
 20
176.0562981504
 10
106.3614637291
 20
176.0915696982
 10
106.2754379979
 20
176.0748548714
 10
106.217957442
 20
176.0086983508
 10
106.1977729549
 20
175.9031718669
 10
106.217957442
 20
175.7743408703
 10
106.2754379979
 20
175.6418187125
 10
106.3614637291
 20
175.5257806905
 10
106.4629379979
 20
175.4438925415
 10
106.5644122667
 20
175.4086209936
 10
106.6504379979
 20
175.4253358205
 10
106.7079185538
 20
175.4914923411
 10
106.7281030408
 20
175.597018825
  0
LINE
  5
16F
330
1F
100
AcDbEntity
  8
0
  6
SLD-Durchgehend
 62
     7
370
    25
100
AcDbLine
 10
110.3520252944
 20
175.3217763449
 30
0.0
 11
108.5842583414
 21
176.3422864846
 31
0.0
  0
LWPOLYLINE
  5
170
330
1F
100
AcDbEntity
  8
0
  6
SLD-Durchgehend
 62
     7
370
    25
100
AcDbPolyline
 90
       20
 70
   128
 43
0.0
 10
108.5842583414
 20
176.3422864846
 10
108.3223899518
 20
176.4684026453
 10
108.0676646493
 20
176.5409642
 10
107.827030676
 20
176.5579918588
 10
107.6070518994
 20
176.5190211516
 10
107.4137287672
 20
176.4251150976
 10
107.2523346305
 20
176.2788352091
 10
107.1272719005
 20
176.0841716203
 10
107.0419519625
 20
175.8464342464
 10
106.9987021221
 20
175.5721079432
 10
106.9987021221
 20
175.2686756171
 10
107.0419519625
 20
174.944414111
 10
107.1272719005
 20
174.6081684335
 10
107.2523346305
 20
174.2691104902
 10
107.4137287672
 20
173.9364888979
 10
107.6070518994
 20
173.6193767065
 10
107.827030676
 20
173.32642391
 10
108.0676646493
 20
173.065621497
 10
108.3223899518
 20
172.8440834775
 10
108.5842583414
 20
172.6678528311
  0
LINE
  5
171
330
1F
100
AcDbEntity
  8
0
  6
SLD-Durchgehend
 62
     7
370
    25
100
AcDbLine
 10
108.5842583414
 20
172.6678528311
 30
0.0
 11
110.3520252944
 21
171.6473426914
 31
0.0
  0
LWPOLYLINE
  5
172
330
1F
100
AcDbEntity
  8
0
  6
SLD-Durchgehend
 62
     7
370
    25
100
AcDbPolyline
 90
       20
 70
   128
 43
0.0
 10
110.3520252944
 20
171.6473426914
 10
110.613893684
 20
171.5212265308
 10
110.8686189866
 20
171.448664976
 10
111.1092529599
 20
171.4316373172
 10
111.3292317364
 20
171.4706080244
 10
111.5225548686
 20
171.5645140785
 10
111.6839490054
 20
171.7107939669
 10
111.8090117353
 20
171.9054575557
 10
111.8943316733
 20
172.1431949296
 10
111.9375815137
 20
172.4175212328
 10
111.9375815137
 20
172.7209535589
 10
111.8943316733
 20
173.045215065
 10
111.8090117353
 20
173.3814607425
 10
111.6839490054
 20
173.7205186858
 10
111.5225548686
 20
174.0531402781
 10
111.3292317364
 20
174.3702524695
 10
111.1092529599
 20
174.663205266
 10
110.8686189866
 20
174.924007679
 10
110.613893684
 20
175.1455456985
 10
110.3520252944
 20
175.3217763449
  0
LWPOLYLINE
  5
173
330
1F
100
AcDbEntity
  8
0
  6
SLD-Durchgehend
 62
     7
370
    25
100
AcDbPolyline
 90
       27
 70
   128
 43
0.0
 10
102.6445613795
 20
177.9543972478
 10
102.6219594177
 20
177.7524929751
 10
102.5554670764
 20
177.5884183144
 10
102.4489486486
 20
177.4717086886
 10
102.3085945982
 20
177.4091468369
 10
102.1425617925
 20
177.4043686268
 10
101.9604994546
 20
177.4576517504
 10
101.7729883858
 20
177.5658995863
 10
101.5909260479
 20
177.7228211637
 10
101.4248932421
 20
177.9192967709
 10
101.2845391918
 20
178.1439079599
 10
101.178020764
 20
178.3836011446
 10
101.1115284226
 20
178.6244462286
 10
101.0889264609
 20
178.8524461708
 10
101.1115284226
 20
179.0543504436
 10
101.178020764
 20
179.2184251043
 10
101.2845391918
 20
179.3351347301
 10
101.4248932421
 20
179.3976965818
 10
101.5909260479
 20
179.4024747919
 10
101.7729883858
 20
179.3491916683
 10
101.9604994546
 20
179.2409438324
 10
102.1425617925
 20
179.084022255
 10
102.3085945982
 20
178.8875466478
 10
102.4489486486
 20
178.6629354588
 10
102.5554670764
 20
178.4232422741
 10
102.6219594177
 20
178.1823971901
 10
102.6445613795
 20
177.9543972478
  0
ARC
  5
174
330
1F
100
AcDbEntity
  8
0
  6
SLD-Durchgehend
 62
     7
370
    25
100
AcDbCircle
 10
112.0242002117
 20
173.4416518904
 30
0.0
 40
1.506717757967408
100
AcDbArc
 50
238.4538922425
 51
262.5354117261
  0
LINE
  5
175
330
1F
100
AcDbEntity
  8
0
  6
SLD-Durchgehend
 62
     7
370
    25
100
AcDbLine
 10
109.4681418179
 20
173.178107901
 30
0.0
 11
111.2359087709
 21
172.1575977613
 31
0.0
  0
ARC
  5
176
330
1F
100
AcDbEntity
  8
0
  6
SLD-Durchgehend
 62
     7
370
    25
100
AcDbCircle
 10
111.0438112006
 20
175.8776580258
 30
0.0
 40
3.125748691067309
100
AcDbArc
 50
167.5377856861
 51
239.7288092202
  0
LINE
  5
177
330
1F
100
AcDbEntity
  8
0
  6
SLD-Durchgehend
 62
     7
370
    25
100
AcDbLine
 10
109.4681418179
 20
174.0967163144
 30
0.0
 11
111.2359087709
 21
173.0762061746
 31
0.0
  0
ARC
  5
178
330
1F
100
AcDbEntity
  8
0
  6
SLD-Durchgehend
 62
     7
370
    25
100
AcDbCircle
 10
111.5525607663
 20
173.4794153423
 30
0.0
 40
0.5126852046714315
100
AcDbArc
 50
231.8564124421
 51
310.4777228515
  0
LWPOLYLINE
  5
179
330
1F
100
AcDbEntity
  8
0
  6
SLD-Durchgehend
 62
     7
370
    25
100
AcDbPolyline
 90
       13
 70
   128
 43
0.0
 10
109.1039861703
 20
176.0422539954
 10
109.0984567983
 20
176.0421267018
 10
108.9406309735
 20
176.007438527
 10
108.8134621615
 20
175.9150923045
 10
108.7243409515
 20
175.7704548609
 10
108.6784467442
 20
175.5819319987
 10
108.6784467442
 20
175.3604799815
 10
108.7243409515
 20
175.1189687956
 10
108.8134621615
 20
174.8714341931
 10
108.9406309735
 20
174.6322619855
 10
109.0984567983
 20
174.4153519921
 10
109.2777673727
 20
174.2333102333
 10
109.4681418179
 20
174.0967163144
  0
LINE
  5
17A
330
1F
100
AcDbEntity
  8
0
  6
SLD-Durchgehend
 62
     7
370
    25
100
AcDbLine
 10
102.8471068512
 20
176.4183290296
 30
0.0
 11
102.8444370917
 21
176.4198057816
 31
0.0
  0
SPLINE
  5
17B
330
1F
100
AcDbEntity
  8
0
  6
SLD-Durchgehend
 62
     7
370
    25
100
AcDbSpline
210
0.0
220
0.0
230
1.0
 70
     8
 71
     3
 72
     8
 73
     4
 74
     0
 42
0.00000001
 43
0.00000001
 40
0.0
 40
0.0
 40
0.0
 40
0.0
 40
1.0
 40
1.0
 40
1.0
 40
1.0
 10
99.0479341824361
 20
182.1410400912954
 30
0.0
 10
98.92367146089339
 20
182.229703192221
 30
0.0
 10
98.79940873935067
 20
182.3014385344379
 30
0.0
 10
98.67514601780796
 20
182.3562461179462
 30
0.0
  0
LWPOLYLINE
  5
17C
330
1F
100
AcDbEntity
  8
0
  6
SLD-Durchgehend
 62
     7
370
    25
100
AcDbPolyline
 90
       18
 70
   128
 43
0.0
 10
101.9609557201
 20
179.2406163033
 10
101.8422443175
 20
179.2756523805
 10
101.6969122341
 20
179.2725913536
 10
101.5772865086
 20
179.2126366472
 10
101.492239234
 20
179.1002348277
 10
101.4480779776
 20
178.9437222237
 10
101.4480779776
 20
178.7547066592
 10
101.492239234
 20
178.5472065538
 10
101.5772865086
 20
178.3366112411
 10
101.6969122341
 20
178.138539612
 10
101.8422443175
 20
177.9676817333
 10
102.0025041432
 20
177.836709352
 10
102.165805973
 20
177.7553360906
 10
102.3200384572
 20
177.7295970316
 10
102.4537628781
 20
177.7614011232
 10
102.5570615072
 20
177.8483896016
 10
102.6222731575
 20
177.9841109291
 10
102.6388499789
 20
178.0663417699
  0
ARC
  5
17D
330
1F
100
AcDbEntity
  8
0
  6
SLD-Durchgehend
 62
     7
370
    25
100
AcDbCircle
 10
99.6608746002
 20
181.8935336516
 30
0.0
 40
1.506992097283657
100
AcDbArc
 50
157.460685044
 51
181.5491684916
  0
LWPOLYLINE
  5
17E
330
1F
100
AcDbEntity
  8
0
  6
SLD-Durchgehend
 62
     7
370
    25
100
AcDbPolyline
 90
        9
 70
   128
 43
0.0
 10
98.6751460178
 20
182.3562461179
 10
98.3927429883
 20
182.4503588595
 10
98.1257698518
 20
182.4777790115
 10
97.883013708
 20
182.4376040726
 10
97.6724645834
 20
182.3311563525
 10
97.5010524491
 20
182.16193945
 10
97.3744191295
 20
181.9355229359
 10
97.2967326078
 20
181.6593590374
 10
97.2705498425
 20
181.3425373569
  0
ARC
  5
17F
330
1F
100
AcDbEntity
  8
0
  6
SLD-Durchgehend
 62
     7
370
    25
100
AcDbCircle
 10
101.2801048101
 20
181.2551561523
 30
0.0
 40
3.125706384799258
100
AcDbArc
 50
180.2707303796
 51
252.4574304843
  0
LINE
  5
180
330
1F
100
AcDbEntity
  8
0
  6
SLD-Durchgehend
 62
     7
370
    25
100
AcDbLine
 10
98.1544333189
 20
181.8527924268
 30
0.0
 11
98.1544333189
 21
181.2403868179
 31
0.0
  0
LINE
  5
181
330
1F
100
AcDbEntity
  8
0
  6
SLD-Durchgehend
 62
     7
370
    25
100
AcDbLine
 10
98.9499284478
 20
181.3935628639
 30
0.0
 11
98.9499284478
 21
180.781157255
 31
0.0
  0
LWPOLYLINE
  5
182
330
1F
100
AcDbEntity
  8
0
  6
SLD-Durchgehend
 62
     7
370
    25
100
AcDbPolyline
 90
       13
 70
   128
 43
0.0
 10
98.9499284478
 20
180.781157255
 10
98.9730440905
 20
180.5479754959
 10
99.0410476214
 20
180.30165666
 10
99.1499869226
 20
180.0565159029
 10
99.2935308377
 20
179.8267999142
 10
99.4633371163
 20
179.6258589522
 10
99.6495372346
 20
179.4653709753
 10
99.8413099186
 20
179.3546629613
 10
100.0275100369
 20
179.3001688577
 10
100.1973163155
 20
179.3050556635
 10
100.3408602307
 20
179.3690393754
 10
100.4497995318
 20
179.4884014927
 10
100.4525303578
 20
179.4928881343
  0
ARC
  5
183
330
1F
100
AcDbEntity
  8
0
  6
SLD-Durchgehend
 62
     7
370
    25
100
AcDbCircle
 10
99.4575102301
 20
181.4662330686
 30
0.0
 40
0.5127574713465982
100
AcDbArc
 50
109.5211016867
 51
188.1476376038
  0
LINE
  5
184
330
1F
100
AcDbEntity
  8
0
  6
SLD-Durchgehend
 62
     7
370
    25
100
AcDbLine
 10
97.2705498425
 20
181.3425373569
 30
0.0
 11
97.2705498425
 21
180.730131748
 31
0.0
  0
ARC
  5
185
330
1F
100
AcDbEntity
  8
0
  6
SLD-Durchgehend
 62
     7
370
    25
100
AcDbCircle
 10
100.7720031944
 20
180.904282631
 30
0.0
 40
3.505781525706672
100
AcDbArc
 50
182.847359088
 51
233.2650547075
  0
SPLINE
  5
186
330
1F
100
AcDbEntity
  8
0
  6
SLD-Durchgehend
 62
     7
370
    25
100
AcDbSpline
210
0.0
220
0.0
230
1.0
 70
     8
 71
     3
 72
     8
 73
     4
 74
     0
 42
0.00000001
 43
0.00000001
 40
0.0
 40
0.0
 40
0.0
 40
0.0
 40
1.0
 40
1.0
 40
1.0
 40
1.0
 10
98.67514601780795
 20
178.0947107620498
 30
0.0
 10
98.79940873935067
 20
178.0060476611242
 30
0.0
 10
98.92367146089339
 20
177.9343123189073
 30
0.0
 10
99.0479341824361
 20
177.879504735399
 30
0.0
  0
LINE
  5
187
330
1F
100
AcDbEntity
  8
0
  6
SLD-Durchgehend
 62
     7
370
    25
100
AcDbLine
 10
86.1336180388
 20
189.3027652598
 30
0.0
 11
84.7194044764
 21
190.1191733716
 31
0.0
  0
LWPOLYLINE
  5
188
330
1F
100
AcDbEntity
  8
0
  6
SLD-Durchgehend
 62
     7
370
    25
100
AcDbPolyline
 90
       20
 70
   128
 43
0.0
 10
84.7194044764
 20
190.1191733716
 10
84.4575360868
 20
190.2452895323
 10
84.2028107842
 20
190.317851087
 10
83.9621768109
 20
190.3348787458
 10
83.7421980344
 20
190.2959080386
 10
83.5488749022
 20
190.2020019846
 10
83.3874807654
 20
190.0557220961
 10
83.2624180354
 20
189.8610585073
 10
83.1770980975
 20
189.6233211334
 10
83.1338482571
 20
189.3489948302
 10
83.1338482571
 20
189.0455625041
 10
83.1770980975
 20
188.721300998
 10
83.2624180354
 20
188.3850553205
 10
83.3874807654
 20
188.0459973772
 10
83.5488749022
 20
187.7133757849
 10
83.7421980344
 20
187.3962635935
 10
83.9621768109
 20
187.103310797
 10
84.2028107842
 20
186.8425083841
 10
84.4575360868
 20
186.6209703645
 10
84.7194044764
 20
186.4447397182
  0
LINE
  5
189
330
1F
100
AcDbEntity
  8
0
  6
SLD-Durchgehend
 62
     7
370
    25
100
AcDbLine
 10
84.7194044764
 20
186.4447397182
 30
0.0
 11
86.1336180388
 21
185.6283316063
 31
0.0
  0
LWPOLYLINE
  5
18A
330
1F
100
AcDbEntity
  8
0
  6
SLD-Durchgehend
 62
     7
370
    25
100
AcDbPolyline
 90
       20
 70
   128
 43
0.0
 10
86.1336180388
 20
185.6283316063
 10
86.3954864284
 20
185.5022154457
 10
86.6502117309
 20
185.429653891
 10
86.8908457042
 20
185.4126262321
 10
87.1108244808
 20
185.4515969394
 10
87.304147613
 20
185.5455029934
 10
87.4655417497
 20
185.6917828818
 10
87.5906044797
 20
185.8864464706
 10
87.6759244177
 20
186.1241838446
 10
87.7191742581
 20
186.3985101478
 10
87.7191742581
 20
186.7019424739
 10
87.6759244177
 20
187.02620398
 10
87.5906044797
 20
187.3624496574
 10
87.4655417497
 20
187.7015076008
 10
87.304147613
 20
188.0341291931
 10
87.1108244808
 20
188.3512413845
 10
86.8908457042
 20
188.6441941809
 10
86.6502117309
 20
188.9049965939
 10
86.3954864284
 20
189.1265346134
 10
86.1336180388
 20
189.3027652598
  0
ARC
  5
18B
330
1F
100
AcDbEntity
  8
0
  6
SLD-Durchgehend
 62
     7
370
    25
100
AcDbCircle
 10
87.805792956
 20
187.4226408054
 30
0.0
 40
1.506717757967877
100
AcDbArc
 50
238.4538922425
 51
262.5354117261
  0
LINE
  5
18C
330
1F
100
AcDbEntity
  8
0
  6
SLD-Durchgehend
 62
     7
370
    25
100
AcDbLine
 10
85.6032879529
 20
186.954994788
 30
0.0
 11
87.0175015152
 21
186.1385866762
 31
0.0
  0
ARC
  5
18D
330
1F
100
AcDbEntity
  8
0
  6
SLD-Durchgehend
 62
     7
370
    25
100
AcDbCircle
 10
87.1789573355
 20
189.6545449128
 30
0.0
 40
3.125748691067252
100
AcDbArc
 50
167.5377856861
 51
239.7288092202
  0
LINE
  5
18E
330
1F
100
AcDbEntity
  8
0
  6
SLD-Durchgehend
 62
     7
370
    25
100
AcDbLine
 10
85.6032879529
 20
187.8736032014
 30
0.0
 11
87.0175015152
 21
187.0571950896
 31
0.0
  0
ARC
  5
18F
330
1F
100
AcDbEntity
  8
0
  6
SLD-Durchgehend
 62
     7
370
    25
100
AcDbCircle
 10
87.3341535107
 20
187.4604042572
 30
0.0
 40
0.5126852046711153
100
AcDbArc
 50
231.8564124421
 51
310.4777228516
  0
LWPOLYLINE
  5
190
330
1F
100
AcDbEntity
  8
0
  6
SLD-Durchgehend
 62
     7
370
    25
100
AcDbPolyline
 90
       13
 70
   128
 43
0.0
 10
85.2391323052
 20
189.8191408824
 10
85.2336029333
 20
189.8190135888
 10
85.0757771084
 20
189.7843254141
 10
84.9486082964
 20
189.6919791915
 10
84.8594870864
 20
189.5473417479
 10
84.8135928792
 20
189.3588188857
 10
84.8135928792
 20
189.1373668685
 10
84.8594870864
 20
188.8958556826
 10
84.9486082964
 20
188.6483210801
 10
85.0757771084
 20
188.4091488725
 10
85.2336029333
 20
188.1922388791
 10
85.4129135077
 20
188.0101971203
 10
85.6032879529
 20
187.8736032014
  0
LINE
  5
191
330
1F
100
AcDbEntity
  8
0
  6
SLD-Durchgehend
 62
     7
370
    25
100
AcDbLine
 10
83.2043410177
 20
195.2130634212
 30
0.0
 11
83.2883542672
 21
195.2554426563
 31
0.0
  0
ARC
  5
192
330
1F
100
AcDbEntity
  8
0
  6
SLD-Durchgehend
 62
     7
370
    25
100
AcDbCircle
 10
84.692046474
 20
194.6065107658
 30
0.0
 40
1.276521166141568
100
AcDbArc
 50
54.8748474707
 51
113.8146941003
  0
ARC
  5
193
330
1F
100
AcDbEntity
  8
0
  6
SLD-Durchgehend
 62
     8
370
    18
100
AcDbCircle
 10
127.6693466128
 20
165.7453554377
 30
0.0
 40
3.634110693452647
100
AcDbArc
 50
2.476303705
 51
57.5236964406
  0
ARC
  5
194
330
1F
100
AcDbEntity
  8
0
  6
SLD-Durchgehend
 62
     8
370
    18
100
AcDbCircle
 10
129.8125870944
 20
168.8024080016
 30
0.0
 40
0.1921006009465711
100
AcDbArc
 50
122.60547834
 51
177.3945215143
  0
ARC
  5
195
330
1F
100
AcDbEntity
  8
0
  6
SLD-Durchgehend
 62
     8
370
    18
100
AcDbCircle
 10
127.6661913342
 20
165.7435337363
 30
0.0
 40
3.813957998986955
100
AcDbArc
 50
2.3868561234
 51
57.6131440222
  0
ARC
  5
196
330
1F
100
AcDbEntity
  8
0
  6
SLD-Durchgehend
 62
     8
370
    18
100
AcDbCircle
 10
131.3884520347
 20
166.0729604328
 30
0.0
 40
0.1921277384888518
100
AcDbArc
 50
242.6096722366
 51
297.3903277634
  0
LINE
  5
197
330
1F
100
AcDbEntity
  8
0
  6
SLD-Durchgehend
 62
     8
370
    18
100
AcDbLine
 10
132.4491122065
 20
166.463652124
 30
0.0
 11
131.4768403824
 21
165.9023715472
 31
0.0
  0
LINE
  5
198
330
1F
100
AcDbEntity
  8
0
  6
SLD-Durchgehend
 62
     8
370
    18
100
AcDbLine
 10
129.7090734294
 20
168.9642337166
 30
0.0
 11
130.6813452535
 21
169.5255142935
 31
0.0
  0
LWPOLYLINE
  5
199
330
1F
100
AcDbEntity
  8
0
  6
SLD-Durchgehend
 62
     8
370
    18
100
AcDbPolyline
 90
        8
 70
   128
 43
0.0
 10
115.2118550547
 20
172.3728308991
 10
115.1965992251
 20
172.2027708299
 10
115.1514180093
 20
172.0568600798
 10
115.078047696
 20
171.940705917
 10
114.9793078652
 20
171.8587720808
 10
114.8589930332
 20
171.8142072428
 10
114.7217268317
 20
171.8087240044
 10
114.6531606644
 20
171.8196937407
  0
LINE
  5
19A
330
1F
100
AcDbEntity
  8
0
  6
SLD-Durchgehend
 62
     8
370
    18
100
AcDbLine
 10
115.2118550547
 20
175.5165130248
 30
0.0
 11
115.2118550547
 21
172.3728308991
 31
0.0
  0
ARC
  5
19B
330
1F
100
AcDbEntity
  8
0
  6
SLD-Durchgehend
 62
     8
370
    18
100
AcDbCircle
 10
113.4880573707
 20
175.438070664
 30
0.0
 40
1.725581542365199
100
AcDbArc
 50
2.6054784857
 51
57.39452166
  0
LINE
  5
19C
330
1F
100
AcDbEntity
  8
0
  6
SLD-Durchgehend
 62
     8
370
    18
100
AcDbLine
 10
108.8508854348
 20
180.1054649879
 30
0.0
 11
114.4178892862
 21
176.8917020713
 31
0.0
  0
ELLIPSE
  5
19D
330
1F
100
AcDbEntity
  8
0
  6
SLD-Durchgehend
 62
     8
370
    18
100
AcDbEllipse
 10
108.8510200648
 20
179.5949715214
 30
0.0
 11
-0.3125698171911324
 21
0.5414454174486423
 31
0.0
210
0.0
220
0.0
230
1.0
 40
0.5772057094
 41
5.498020651610313
 42
6.935865468778474
  0
LINE
  5
19E
330
1F
100
AcDbEntity
  8
0
  6
SLD-Durchgehend
 62
     8
370
    18
100
AcDbLine
 10
105.6659000467
 20
181.1275771037
 30
0.0
 11
108.1002596883
 21
179.7222511958
 31
0.0
  0
ELLIPSE
  5
19F
330
1F
100
AcDbEntity
  8
0
  6
SLD-Durchgehend
 62
     8
370
    18
100
AcDbEllipse
 10
105.6659269727
 20
181.2296447089
 30
0.0
 11
-0.06249491614543956
 21
0.1082561104790045
 31
0.0
210
0.0
220
0.0
230
1.0
 40
0.5775574346
 41
0.7856317702414953
 42
2.356123510541041
  0
LINE
  5
1A0
330
1F
100
AcDbEntity
  8
0
  6
SLD-Durchgehend
 62
     8
370
    18
100
AcDbLine
 10
105.5775251611
 20
181.4848753706
 30
0.0
 11
105.5775251611
 21
181.2806468953
 31
0.0
  0
ELLIPSE
  5
1A1
330
1F
100
AcDbEntity
  8
0
  6
SLD-Durchgehend
 62
     8
370
    18
100
AcDbEllipse
 10
105.1355161027
 20
181.7398863029
 30
0.0
 11
-0.3124745807271694
 21
0.5412805523949089
 31
0.0
210
0.0
220
0.0
230
1.0
 40
0.5775574346
 41
3.92722442383122
 42
5.49771616413096
  0
LINE
  5
1A2
330
1F
100
AcDbEntity
  8
0
  6
SLD-Durchgehend
 62
     8
370
    18
100
AcDbLine
 10
99.5686468813
 20
185.4639872455
 30
0.0
 11
105.1356507327
 21
182.2502243289
 31
0.0
  0
LWPOLYLINE
  5
1A3
330
1F
100
AcDbEntity
  8
0
  6
SLD-Durchgehend
 62
     8
370
    18
100
AcDbPolyline
 90
        8
 70
   128
 43
0.0
 10
98.81037845
 20
185.2567089491
 10
98.8351181583
 20
185.3214623822
 10
98.9084884716
 20
185.437616545
 10
99.0072283024
 20
185.5195503811
 10
99.1275431343
 20
185.5641152192
 10
99.2648093358
 20
185.5695984575
 10
99.4137518439
 20
185.5357893783
 10
99.5686468813
 20
185.4639872455
  0
LWPOLYLINE
  5
1A4
330
1F
100
AcDbEntity
  8
0
  6
SLD-Durchgehend
 62
     8
370
    18
100
AcDbPolyline
 90
       11
 70
   128
 43
0.0
 10
129.2671316911
 20
152.8885616014
 10
129.5851523204
 20
152.7338744955
 10
129.8953422263
 20
152.6408008906
 10
130.1900635039
 20
152.6116325678
 10
130.4620591373
 20
152.647087748
 10
130.7046316911
 20
152.746293407
 10
130.9118082242
 20
152.9068067722
 10
131.0784873627
 20
153.1246754718
 10
131.200564913
 20
153.3945348554
 10
131.2750349207
 20
153.7097400894
 10
131.3000636871
 20
154.0625297748
  0
LINE
  5
1A5
330
1F
100
AcDbEntity
  8
0
  6
SLD-Durchgehend
 62
     8
370
    18
100
AcDbLine
 10
84.7194044764
 20
178.6054171238
 30
0.0
 11
129.2671316911
 21
152.8885616014
 31
0.0
  0
ARC
  5
1A6
330
1F
100
AcDbEntity
  8
0
  6
SLD-Durchgehend
 62
     8
370
    18
100
AcDbCircle
 10
87.0687188858
 20
182.3092221012
 30
0.0
 40
4.386051698834887
100
AcDbArc
 50
182.3868561234
 51
237.6131440222
  0
LINE
  5
1A7
330
1F
100
AcDbEntity
  8
0
  6
SLD-Durchgehend
 62
     8
370
    18
100
AcDbLine
 10
82.6864724805
 20
193.9664003911
 30
0.0
 11
82.6864724805
 21
182.1265586187
 31
0.0
  0
ARC
  5
1A8
330
1F
100
AcDbEntity
  8
0
  6
SLD-Durchgehend
 62
     8
370
    18
100
AcDbCircle
 10
83.7154156058
 20
194.1235740691
 30
0.0
 40
1.040878244705202
100
AcDbArc
 50
51.325810101
 51
188.6849416537
  0
LINE
  5
1A9
330
1F
100
AcDbEntity
  8
0
  6
SLD-Durchgehend
 62
     8
370
    18
100
AcDbLine
 10
129.6206850817
 20
168.8111406082
 30
0.0
 11
84.3658510858
 21
194.9362001865
 31
0.0
  0
LINE
  5
1AA
330
1F
100
AcDbEntity
  8
0
  6
SLD-Durchgehend
 62
     8
370
    18
100
AcDbLine
 10
131.3000636871
 20
154.0625297748
 30
0.0
 11
131.3000636871
 21
165.9023715472
 31
0.0
  0
ARC
  5
1AB
330
1F
100
AcDbEntity
  8
0
  6
SLD-Durchgehend
 62
     8
370
    18
100
AcDbCircle
 10
126.9212951436
 20
167.6811596228
 30
0.0
 40
1.728905408518578
100
AcDbArc
 50
2.6054784857
 51
57.39452166
  0
LINE
  5
1AC
330
1F
100
AcDbEntity
  8
0
  6
SLD-Durchgehend
 62
     8
370
    18
100
AcDbLine
 10
123.6102774417
 20
171.5868153933
 30
0.0
 11
127.8529181288
 21
169.1375910578
 31
0.0
  0
LWPOLYLINE
  5
1AD
330
1F
100
AcDbEntity
  8
0
  6
SLD-Durchgehend
 62
     8
370
    18
100
AcDbPolyline
 90
        8
 70
   128
 43
0.0
 10
122.8526030333
 20
171.3854801153
 10
122.8753357739
 20
171.4440159945
 10
122.9488474153
 20
171.5603938968
 10
123.0477774417
 20
171.6424855563
 10
123.1683240276
 20
171.6871362365
 10
123.3058546353
 20
171.6926300368
 10
123.4550840408
 20
171.6587558335
 10
123.6102774417
 20
171.5868153933
  0
LWPOLYLINE
  5
1AE
330
1F
100
AcDbEntity
  8
0
  6
SLD-Durchgehend
 62
     8
370
    18
100
AcDbPolyline
 90
        8
 70
   128
 43
0.0
 10
128.6484132576
 20
164.6160709558
 10
128.6331280418
 20
164.4456833119
 10
128.5878597965
 20
164.2994915042
 10
128.5143481551
 20
164.1831136018
 10
128.4154181288
 20
164.1010219423
 10
128.2948715429
 20
164.0563712621
 10
128.1573409351
 20
164.0508774618
 10
128.0951624531
 20
164.0604759294
  0
LINE
  5
1AF
330
1F
100
AcDbEntity
  8
0
  6
SLD-Durchgehend
 62
     8
370
    18
100
AcDbLine
 10
128.6484132576
 20
167.7597530816
 30
0.0
 11
128.6484132576
 21
164.6160709558
 31
0.0
  0
ARC
  5
1B0
330
1F
100
AcDbEntity
  8
0
  6
SLD-Durchgehend
 62
     8
370
    18
100
AcDbCircle
 10
89.4446357407
 20
189.3159745861
 30
0.0
 40
1.728905408518494
100
AcDbArc
 50
2.6054784857
 51
57.39452166
  0
LINE
  5
1B1
330
1F
100
AcDbEntity
  8
0
  6
SLD-Durchgehend
 62
     8
370
    18
100
AcDbLine
 10
86.1336180388
 20
193.2216303566
 30
0.0
 11
90.3762587259
 21
190.7724060212
 31
0.0
  0
LWPOLYLINE
  5
1B2
330
1F
100
AcDbEntity
  8
0
  6
SLD-Durchgehend
 62
     8
370
    18
100
AcDbPolyline
 90
        8
 70
   128
 43
0.0
 10
85.3759436304
 20
193.0202950787
 10
85.398676371
 20
193.0788309578
 10
85.4721880124
 20
193.1952088601
 10
85.5711180388
 20
193.2773005196
 10
85.6916646247
 20
193.3219511998
 10
85.8291952324
 20
193.3274450001
 10
85.9784246379
 20
193.2935707968
 10
86.1336180388
 20
193.2216303566
  0
LWPOLYLINE
  5
1B3
330
1F
100
AcDbEntity
  8
0
  6
SLD-Durchgehend
 62
     8
370
    18
100
AcDbPolyline
 90
        8
 70
   128
 43
0.0
 10
91.1717538547
 20
186.2508859191
 10
91.1564686389
 20
186.0804982752
 10
91.1112003936
 20
185.9343064675
 10
91.0376887522
 20
185.8179285651
 10
90.9387587259
 20
185.7358369056
 10
90.81821214
 20
185.6911862254
 10
90.6806815322
 20
185.6856924251
 10
90.6185030502
 20
185.6952908927
  0
LINE
  5
1B4
330
1F
100
AcDbEntity
  8
0
  6
SLD-Durchgehend
 62
     8
370
    18
100
AcDbLine
 10
91.1717538547
 20
189.3945680449
 30
0.0
 11
91.1717538547
 21
186.2508859191
 31
0.0
  0
ARC
  5
1B5
330
1F
100
AcDbEntity
  8
0
  6
SLD-Durchgehend
 62
     8
370
    18
100
AcDbCircle
 10
124.4034090139
 20
166.2276177397
 30
0.0
 40
1.152603605679157
100
AcDbArc
 50
2.6054784857
 51
57.39452166
  0
ARC
  5
1B6
330
1F
100
AcDbEntity
  8
0
  6
SLD-Durchgehend
 62
     8
370
    18
100
AcDbCircle
 10
125.4082950294
 20
167.1811068167
 30
0.0
 40
0.3842012018927681
100
AcDbArc
 50
122.60547834
 51
177.3945215144
  0
ARC
  5
1B7
330
1F
100
AcDbEntity
  8
0
  6
SLD-Durchgehend
 62
     8
370
    18
100
AcDbCircle
 10
124.3731583791
 20
166.2101525266
 30
0.0
 40
1.536804807571882
100
AcDbArc
 50
2.6054784857
 51
57.39452166
  0
ARC
  5
1B8
330
1F
100
AcDbEntity
  8
0
  6
SLD-Durchgehend
 62
     8
370
    18
100
AcDbCircle
 10
125.7315977852
 20
166.6211911501
 30
0.0
 40
0.3842554769779428
100
AcDbArc
 50
242.6096722366
 51
297.3903277634
  0
LINE
  5
1B9
330
1F
100
AcDbEntity
  8
0
  6
SLD-Durchgehend
 62
     8
370
    18
100
AcDbLine
 10
125.2012676993
 20
167.5047582467
 30
0.0
 11
127.7645297811
 21
168.9844979494
 31
0.0
  0
ARC
  5
1BA
330
1F
100
AcDbEntity
  8
0
  6
SLD-Durchgehend
 62
     8
370
    18
100
AcDbCircle
 10
126.9364204609
 20
167.6898922293
 30
0.0
 40
1.536804807572172
100
AcDbArc
 50
2.6054784857
 51
57.39452166
  0
LINE
  5
1BB
330
1F
100
AcDbEntity
  8
0
  6
SLD-Durchgehend
 62
     8
370
    18
100
AcDbLine
 10
125.9083744805
 20
166.2800133789
 30
0.0
 11
128.4716365623
 21
167.7597530816
 31
0.0
  0
ARC
  5
1BC
330
1F
100
AcDbEntity
  8
0
  6
SLD-Durchgehend
 62
     8
370
    18
100
AcDbCircle
 10
125.2315153143
 20
163.0838858555
 30
0.0
 40
0.3275318980713837
100
AcDbArc
 50
230.7967147643
 51
9.2140369905
  0
LINE
  5
1BD
330
1F
100
AcDbEntity
  8
0
  6
SLD-Durchgehend
 62
     8
370
    18
100
AcDbLine
 10
120.7818503169
 20
165.2793030216
 30
0.0
 11
125.024491004
 21
162.8300786862
 31
0.0
  0
ARC
  5
1BE
330
1F
100
AcDbEntity
  8
0
  6
SLD-Durchgehend
 62
     8
370
    18
100
AcDbCircle
 10
121.402932307
 20
166.2502573117
 30
0.0
 40
1.152603605678928
100
AcDbArc
 50
182.6054784856
 51
237.39452166
  0
LINE
  5
1BF
330
1F
100
AcDbEntity
  8
0
  6
SLD-Durchgehend
 62
     8
370
    18
100
AcDbLine
 10
120.251520231
 20
169.3415437982
 30
0.0
 11
120.251520231
 21
166.1978616725
 31
0.0
  0
ARC
  5
1C0
330
1F
100
AcDbEntity
  8
0
  6
SLD-Durchgehend
 62
     8
370
    18
100
AcDbCircle
 10
120.5748260066
 20
169.3939891959
 30
0.0
 40
0.3275318980713713
100
AcDbArc
 50
50.7967147643
 51
189.2140369905
  0
LINE
  5
1C1
330
1F
100
AcDbEntity
  8
0
  6
SLD-Durchgehend
 62
     8
370
    18
100
AcDbLine
 10
125.024491004
 20
167.1985720297
 30
0.0
 11
120.7818503169
 21
169.6477963652
 31
0.0
  0
LINE
  5
1C2
330
1F
100
AcDbEntity
  8
0
  6
SLD-Durchgehend
 62
     8
370
    18
100
AcDbLine
 10
125.5548210899
 20
163.1363312531
 30
0.0
 11
125.5548210899
 21
166.2800133789
 31
0.0
  0
LINE
  5
1C3
330
1F
100
AcDbEntity
  8
0
  6
SLD-Durchgehend
 62
     8
370
    18
100
AcDbLine
 10
125.9083744805
 20
166.2800133789
 30
0.0
 11
125.9083744805
 21
163.1363312531
 31
0.0
  0
ARC
  5
1C4
330
1F
100
AcDbEntity
  8
0
  6
SLD-Durchgehend
 62
     8
370
    18
100
AcDbCircle
 10
125.7315977852
 20
163.4775090244
 30
0.0
 40
0.3842554769777223
100
AcDbArc
 50
242.6096722366
 51
297.3903277634
  0
LINE
  5
1C5
330
1F
100
AcDbEntity
  8
0
  6
SLD-Durchgehend
 62
     8
370
    18
100
AcDbLine
 10
120.9586270122
 20
169.9539825822
 30
0.0
 11
125.2012676993
 21
167.5047582467
 31
0.0
  0
ARC
  5
1C6
330
1F
100
AcDbEntity
  8
0
  6
SLD-Durchgehend
 62
     8
370
    18
100
AcDbCircle
 10
121.1656543422
 20
169.6303311521
 30
0.0
 40
0.3842012018931746
100
AcDbArc
 50
122.60547834
 51
177.3945215143
  0
LINE
  5
1C7
330
1F
100
AcDbEntity
  8
0
  6
SLD-Durchgehend
 62
     8
370
    18
100
AcDbLine
 10
128.4716365623
 20
164.6160709558
 30
0.0
 11
128.4716365623
 21
167.7597530816
 31
0.0
  0
LINE
  5
1C8
330
1F
100
AcDbEntity
  8
0
  6
SLD-Durchgehend
 62
     8
370
    18
100
AcDbLine
 10
125.9083744805
 20
163.1363312531
 30
0.0
 11
128.4716365623
 21
164.6160709558
 31
0.0
  0
LINE
  5
1C9
330
1F
100
AcDbEntity
  8
0
  6
SLD-Durchgehend
 62
     8
370
    18
100
AcDbLine
 10
120.9586270122
 20
169.9539825822
 30
0.0
 11
123.521889094
 21
171.4337222848
 31
0.0
  0
LINE
  5
1CA
330
1F
100
AcDbEntity
  8
0
  6
SLD-Durchgehend
 62
     8
370
    18
100
AcDbLine
 10
127.7645297811
 20
168.9844979494
 30
0.0
 11
123.521889094
 21
171.4337222848
 31
0.0
  0
LINE
  5
1CB
330
1F
100
AcDbEntity
  8
0
  6
SLD-Durchgehend
 62
     8
370
    18
100
AcDbLine
 10
131.4768403824
 20
165.9023715472
 30
0.0
 11
131.4768403824
 21
154.0625297748
 31
0.0
  0
ARC
  5
1CC
330
1F
100
AcDbEntity
  8
0
  6
SLD-Durchgehend
 62
     8
370
    18
100
AcDbCircle
 10
131.3884520347
 20
154.2331186604
 30
0.0
 40
0.1921277384888266
100
AcDbArc
 50
242.6096722366
 51
297.3903277634
  0
LINE
  5
1CD
330
1F
100
AcDbEntity
  8
0
  6
SLD-Durchgehend
 62
     8
370
    18
100
AcDbLine
 10
84.4542394334
 20
195.089293295
 30
0.0
 11
129.7090734294
 21
168.9642337166
 31
0.0
  0
ARC
  5
1CE
330
1F
100
AcDbEntity
  8
0
  6
SLD-Durchgehend
 62
     8
370
    18
100
AcDbCircle
 10
84.5577530985
 20
194.92746758
 30
0.0
 40
0.1921006009464344
100
AcDbArc
 50
122.60547834
 51
177.3945215144
  0
LINE
  5
1CF
330
1F
100
AcDbEntity
  8
0
  6
SLD-Durchgehend
 62
     8
370
    18
100
AcDbLine
 10
124.4941609181
 20
164.5037717129
 30
0.0
 11
123.6102774417
 21
163.993516643
 31
0.0
  0
LINE
  5
1D0
330
1F
100
AcDbEntity
  8
0
  6
SLD-Durchgehend
 62
     8
370
    18
100
AcDbLine
 10
131.4768403824
 20
154.0625297748
 30
0.0
 11
132.4491122065
 21
154.6238103517
 31
0.0
  0
LINE
  5
1D1
330
1F
100
AcDbEntity
  8
0
  6
SLD-Durchgehend
 62
     8
370
    18
100
AcDbLine
 10
85.4265112576
 20
195.6505738719
 30
0.0
 11
84.4542394334
 21
195.089293295
 31
0.0
  0
ARC
  5
1D2
330
1F
100
AcDbEntity
  8
0
  6
SLD-Durchgehend
 62
     8
370
    18
100
AcDbCircle
 10
128.56002491
 20
167.589164196
 30
0.0
 40
0.1921277384890537
100
AcDbArc
 50
62.6096722366
 51
117.3903277634
  0
ARC
  5
1D3
330
1F
100
AcDbEntity
  8
0
  6
SLD-Durchgehend
 62
     8
370
    18
100
AcDbCircle
 10
127.6610161161
 20
169.1463236644
 30
0.0
 40
0.1921006009462601
100
AcDbArc
 50
302.60547834
 51
357.3945215144
  0
ARC
  5
1D4
330
1F
100
AcDbEntity
  8
0
  6
SLD-Durchgehend
 62
     8
370
    18
100
AcDbCircle
 10
128.56002491
 20
164.4454820702
 30
0.0
 40
0.1921277384891041
100
AcDbArc
 50
62.6096722366
 51
117.3903277634
  0
ARC
  5
1D5
330
1F
100
AcDbEntity
  8
0
  6
SLD-Durchgehend
 62
     8
370
    18
100
AcDbCircle
 10
123.418375429
 20
171.5955479999
 30
0.0
 40
0.192100600946477
100
AcDbArc
 50
302.60547834
 51
357.3945215144
  0
ARC
  5
1D6
330
1F
100
AcDbEntity
  8
0
  6
SLD-Durchgehend
 62
     8
370
    18
100
AcDbCircle
 10
125.4072220135
 20
163.0871504123
 30
0.0
 40
0.5035598775206362
100
AcDbArc
 50
305.8765986238
 51
5.6048026466
  0
ARC
  5
1D7
330
1F
100
AcDbEntity
  8
0
  6
SLD-Durchgehend
 62
     8
370
    18
100
AcDbCircle
 10
125.1434020321
 20
162.8149352254
 30
0.0
 40
0.1198714186173383
100
AcDbArc
 50
172.7423815823
 51
235.9614646614
  0
LINE
  5
1D8
330
1F
100
AcDbEntity
  8
0
  6
SLD-Durchgehend
 62
     8
370
    18
100
AcDbLine
 10
125.060439437
 20
165.7492857569
 30
0.0
 11
124.4941609181
 21
165.4223801263
 31
0.0
  0
ARC
  5
1D9
330
1F
100
AcDbEntity
  8
0
  6
SLD-Durchgehend
 62
     8
370
    18
100
AcDbCircle
 10
127.9816346599
 20
164.5619842185
 30
0.0
 40
0.4929779300173943
100
AcDbArc
 50
305.013332876
 51
6.2988475174
  0
LINE
  5
1DA
330
1F
100
AcDbEntity
  8
0
  6
SLD-Durchgehend
 62
     8
370
    18
100
AcDbLine
 10
123.0799473558
 20
165.3201798247
 30
0.0
 11
122.1960638793
 21
164.8099247549
 31
0.0
  0
ARC
  5
1DB
330
1F
100
AcDbEntity
  8
0
  6
SLD-Durchgehend
 62
     8
370
    18
100
AcDbCircle
 10
120.9007717059
 20
165.2641620145
 30
0.0
 40
0.119881386648034
100
AcDbArc
 50
172.7441704512
 51
235.9436491554
  0
ARC
  5
1DC
330
1F
100
AcDbEntity
  8
0
  6
SLD-Durchgehend
 62
     8
370
    18
100
AcDbCircle
 10
120.6670120167
 20
169.5571740332
 30
0.0
 40
0.4924391639036494
100
AcDbArc
 50
53.6877968783
 51
115.1711848991
  0
ARC
  5
1DD
330
1F
100
AcDbEntity
  8
0
  6
SLD-Durchgehend
 62
     8
370
    18
100
AcDbCircle
 10
120.3034174819
 20
169.4560788397
 30
0.0
 40
0.1257441862076493
100
AcDbArc
 50
185.708713514
 51
245.6241289529
  0
ARC
  5
1DE
330
1F
100
AcDbEntity
  8
0
  6
SLD-Durchgehend
 62
     8
370
    18
100
AcDbCircle
 10
123.2289690392
 20
171.0248409557
 30
0.0
 40
0.5029772359016917
100
AcDbArc
 50
54.3824225248
 51
114.3071190461
  0
LINE
  5
1DF
330
1F
100
AcDbEntity
  8
0
  6
SLD-Durchgehend
 62
     8
370
    18
100
AcDbLine
 10
124.3827759851
 20
166.9908951968
 30
0.0
 11
123.0799473558
 21
166.2387882381
 31
0.0
  0
ARC
  5
1E0
330
1F
100
AcDbEntity
  8
0
  6
SLD-Durchgehend
 62
     8
370
    18
100
AcDbCircle
 10
120.3034111919
 20
166.3123892807
 30
0.0
 40
0.1257348196233393
100
AcDbArc
 50
185.6947992512
 51
245.6253417064
  0
ARC
  5
1E1
330
1F
100
AcDbEntity
  8
0
  6
SLD-Durchgehend
 62
     8
370
    18
100
AcDbCircle
 10
129.4236931122
 20
154.0159009287
 30
0.0
 40
2.053676693646823
100
AcDbArc
 50
338.0412902158
 51
1.3010157322
  0
ARC
  5
1E2
330
1F
100
AcDbEntity
  8
0
  6
SLD-Durchgehend
 62
     8
370
    18
100
AcDbCircle
 10
129.3265877308
 20
152.8809899955
 30
0.0
 40
0.0599362149744903
100
AcDbArc
 50
172.7425630903
 51
235.9596568237
  0
ARC
  5
1E3
330
1F
100
AcDbEntity
  8
0
  6
SLD-Durchgehend
 62
     8
370
    18
100
AcDbCircle
 10
111.0226168397
 20
174.0148054602
 30
0.0
 40
1.051951227193332
100
AcDbArc
 50
2.6054784857
 51
57.39452166
  0
ARC
  5
1E4
330
1F
100
AcDbEntity
  8
0
  6
SLD-Durchgehend
 62
     8
370
    18
100
AcDbCircle
 10
111.9742331307
 20
174.8831456893
 30
0.0
 40
0.3851836033235912
100
AcDbArc
 50
123.2297058793
 51
177.3476850206
  0
ARC
  5
1E5
330
1F
100
AcDbEntity
  8
0
  6
SLD-Durchgehend
 62
     8
370
    18
100
AcDbCircle
 10
110.9893125575
 20
173.9955774143
 30
0.0
 40
1.436093913382565
100
AcDbArc
 50
2.6054784857
 51
57.39452166
  0
ARC
  5
1E6
330
1F
100
AcDbEntity
  8
0
  6
SLD-Durchgehend
 62
     8
370
    18
100
AcDbCircle
 10
112.2504296266
 20
174.4048201389
 30
0.0
 40
0.3852376792060943
100
AcDbArc
 50
242.6564838576
 51
296.7662186596
  0
ARC
  5
1E7
330
1F
100
AcDbEntity
  8
0
  6
SLD-Durchgehend
 62
     8
370
    18
100
AcDbCircle
 10
113.5047095118
 20
175.447684687
 30
0.0
 40
1.533510199270645
100
AcDbArc
 50
2.6054784857
 51
57.39452166
  0
LINE
  5
1E8
330
1F
100
AcDbEntity
  8
0
  6
SLD-Durchgehend
 62
     8
370
    18
100
AcDbLine
 10
112.4239218768
 20
174.0608600997
 30
0.0
 11
115.0366344108
 21
175.5173957713
 31
0.0
  0
LINE
  5
1E9
330
1F
100
AcDbEntity
  8
0
  6
SLD-Durchgehend
 62
     8
370
    18
100
AcDbLine
 10
111.763153678
 20
175.2053441886
 30
0.0
 11
114.3310435279
 21
176.7395150261
 31
0.0
  0
LINE
  5
1EA
330
1F
100
AcDbEntity
  8
0
  6
SLD-Durchgehend
 62
     8
370
    18
100
AcDbLine
 10
102.2624009239
 20
180.2853679405
 30
0.0
 11
99.0479341824
 21
182.1410400913
 31
0.0
  0
ELLIPSE
  5
1EB
330
1F
100
AcDbEntity
  8
0
  6
SLD-Durchgehend
 62
     8
370
    18
100
AcDbEllipse
 10
102.2623470719
 20
180.0812327302
 30
0.0
 11
-0.1249898322908791
 21
0.2165122209579806
 31
0.0
210
0.0
220
0.0
230
1.0
 40
0.5775574346
 41
3.927224423831326
 42
5.497716164130956
  0
LINE
  5
1EC
330
1F
100
AcDbEntity
  8
0
  6
SLD-Durchgehend
 62
     8
370
    18
100
AcDbLine
 10
102.4391506952
 20
179.7749998819
 30
0.0
 11
102.4391506952
 21
179.9792283572
 31
0.0
  0
ELLIPSE
  5
1ED
330
1F
100
AcDbEntity
  8
0
  6
SLD-Durchgehend
 62
     8
370
    18
100
AcDbEllipse
 10
102.7927579419
 20
179.5709911361
 30
0.0
 11
-0.2499796645817298
 21
0.4330244419159329
 31
0.0
210
0.0
220
0.0
230
1.0
 40
0.5775574346
 41
0.7856317702413845
 42
2.356123510541189
  0
LINE
  5
1EE
330
1F
100
AcDbEntity
  8
0
  6
SLD-Durchgehend
 62
     8
370
    18
100
AcDbLine
 10
105.5370316801
 20
177.5784230315
 30
0.0
 11
102.7926502379
 21
179.1627207153
 31
0.0
  0
ELLIPSE
  5
1EF
330
1F
100
AcDbEntity
  8
0
  6
SLD-Durchgehend
 62
     8
370
    18
100
AcDbEllipse
 10
105.5369239761
 20
177.9868178046
 30
0.0
 11
-0.2500558537529116
 21
0.4331563339588911
 31
0.0
210
0.0
220
0.0
230
1.0
 40
0.5772057094
 41
2.356427998020501
 42
3.926919738320252
  0
LINE
  5
1F0
330
1F
100
AcDbEntity
  8
0
  6
SLD-Durchgehend
 62
     8
370
    18
100
AcDbLine
 10
105.8905312228
 20
177.9867887889
 30
0.0
 11
105.8905312228
 21
177.7825603136
 31
0.0
  0
ELLIPSE
  5
1F1
330
1F
100
AcDbEntity
  8
0
  6
SLD-Durchgehend
 62
     8
370
    18
100
AcDbEllipse
 10
106.0673348461
 20
177.8846600434
 30
0.0
 11
-0.12502792687647
 21
0.216578166979474
 31
0.0
210
0.0
220
0.0
230
1.0
 40
0.5772057094
 41
5.498020651610329
 42
7.068512391910149
  0
LINE
  5
1F2
330
1F
100
AcDbEntity
  8
0
  6
SLD-Durchgehend
 62
     8
370
    18
100
AcDbLine
 10
111.5894621615
 20
174.9009700982
 30
0.0
 11
106.0672809942
 21
178.08885743
 31
0.0
  0
LINE
  5
1F3
330
1F
100
AcDbEntity
  8
0
  6
SLD-Durchgehend
 62
     8
370
    18
100
AcDbLine
 10
112.0734805889
 20
170.9189434668
 30
0.0
 11
112.0734805889
 21
174.0626255926
 31
0.0
  0
ARC
  5
1F4
330
1F
100
AcDbEntity
  8
0
  6
SLD-Durchgehend
 62
     8
370
    18
100
AcDbCircle
 10
111.778407846
 20
170.8710779212
 30
0.0
 40
0.2989298145724321
100
AcDbArc
 50
230.7967147643
 51
9.2140369905
  0
LINE
  5
1F5
330
1F
100
AcDbEntity
  8
0
  6
SLD-Durchgehend
 62
     8
370
    18
100
AcDbLine
 10
106.0672809942
 20
173.8273220741
 30
0.0
 11
111.5894621615
 21
170.6394347423
 31
0.0
  0
ELLIPSE
  5
1F6
330
1F
100
AcDbEntity
  8
0
  6
SLD-Durchgehend
 62
     8
370
    18
100
AcDbEllipse
 10
106.0673348461
 20
174.0314572845
 30
0.0
 11
-0.1249898322908791
 21
0.2165122209579806
 31
0.0
210
0.0
220
0.0
230
1.0
 40
0.5775574346
 41
0.7856317702413778
 42
2.356123510541067
  0
LINE
  5
1F7
330
1F
100
AcDbEntity
  8
0
  6
SLD-Durchgehend
 62
     8
370
    18
100
AcDbLine
 10
105.8905312228
 20
174.3376901327
 30
0.0
 11
105.8905312228
 21
174.1334616574
 31
0.0
  0
ELLIPSE
  5
1F8
330
1F
100
AcDbEntity
  8
0
  6
SLD-Durchgehend
 62
     8
370
    18
100
AcDbEllipse
 10
105.5369239761
 20
174.5416988786
 30
0.0
 11
-0.2499796645817298
 21
0.4330244419159329
 31
0.0
210
0.0
220
0.0
230
1.0
 40
0.5775574346
 41
3.92722442383119
 42
5.497716164131002
  0
LINE
  5
1F9
330
1F
100
AcDbEntity
  8
0
  6
SLD-Durchgehend
 62
     8
370
    18
100
AcDbLine
 10
102.7926502379
 20
176.5342669832
 30
0.0
 11
105.5370316801
 21
174.9499692994
 31
0.0
  0
ELLIPSE
  5
1FA
330
1F
100
AcDbEntity
  8
0
  6
SLD-Durchgehend
 62
     8
370
    18
100
AcDbEllipse
 10
102.7927579419
 20
176.12587221
 30
0.0
 11
-0.2500558537529116
 21
0.4331563339589195
 31
0.0
210
0.0
220
0.0
230
1.0
 40
0.5772057094
 41
5.498020651610339
 42
7.068512391910065
  0
LINE
  5
1FB
330
1F
100
AcDbEntity
  8
0
  6
SLD-Durchgehend
 62
     8
370
    18
100
AcDbLine
 10
102.4391506952
 20
176.1259012257
 30
0.0
 11
102.4391506952
 21
176.330129701
 31
0.0
  0
ELLIPSE
  5
1FC
330
1F
100
AcDbEntity
  8
0
  6
SLD-Durchgehend
 62
     8
370
    18
100
AcDbEllipse
 10
102.2623470719
 20
176.2280299712
 30
0.0
 11
-0.1250279268764558
 21
0.2165781669794456
 31
0.0
210
0.0
220
0.0
230
1.0
 40
0.5772057094
 41
2.35642799802055
 42
3.926919738319925
  0
LINE
  5
1FD
330
1F
100
AcDbEntity
  8
0
  6
SLD-Durchgehend
 62
     8
370
    18
100
AcDbLine
 10
99.0479341824
 20
177.8795047354
 30
0.0
 11
102.2624009239
 21
176.0238325846
 31
0.0
  0
LINE
  5
1FE
330
1F
100
AcDbEntity
  8
0
  6
SLD-Durchgehend
 62
     8
370
    18
100
AcDbLine
 10
112.4239218768
 20
174.0608600997
 30
0.0
 11
112.4239218768
 21
170.9171779739
 31
0.0
  0
ARC
  5
1FF
330
1F
100
AcDbEntity
  8
0
  6
SLD-Durchgehend
 62
     8
370
    18
100
AcDbCircle
 10
112.2504296266
 20
171.2611380131
 30
0.0
 40
0.385237679206088
100
AcDbArc
 50
242.6564838576
 51
296.7662186596
  0
ARC
  5
200
330
1F
100
AcDbEntity
  8
0
  6
SLD-Durchgehend
 62
     8
370
    18
100
AcDbCircle
 10
106.4520519633
 20
178.0710330211
 30
0.0
 40
0.3851836033234905
100
AcDbArc
 50
123.2297058793
 51
177.3476850206
  0
LINE
  5
201
330
1F
100
AcDbEntity
  8
0
  6
SLD-Durchgehend
 62
     8
370
    18
100
AcDbLine
 10
106.2409725107
 20
178.3932315204
 30
0.0
 11
111.763153678
 21
175.2053441886
 31
0.0
  0
LINE
  5
202
330
1F
100
AcDbEntity
  8
0
  6
SLD-Durchgehend
 62
     8
370
    18
100
AcDbLine
 10
111.2359087709
 20
172.1575977613
 30
0.0
 11
110.3520252944
 21
171.6473426914
 31
0.0
  0
LINE
  5
203
330
1F
100
AcDbEntity
  8
0
  6
SLD-Durchgehend
 62
     8
370
    18
100
AcDbLine
 10
115.0366344108
 20
172.3737136455
 30
0.0
 11
115.0366344108
 21
175.5173957713
 31
0.0
  0
LINE
  5
204
330
1F
100
AcDbEntity
  8
0
  6
SLD-Durchgehend
 62
     8
370
    18
100
AcDbLine
 10
112.4239218768
 20
170.9171779739
 30
0.0
 11
115.0366344108
 21
172.3737136455
 31
0.0
  0
LINE
  5
205
330
1F
100
AcDbEntity
  8
0
  6
SLD-Durchgehend
 62
     8
370
    18
100
AcDbLine
 10
114.3310435279
 20
176.7395150261
 30
0.0
 11
108.7640396766
 21
179.9532779427
 31
0.0
  0
LINE
  5
206
330
1F
100
AcDbEntity
  8
0
  6
SLD-Durchgehend
 62
     8
370
    18
100
AcDbLine
 10
108.7640396766
 20
179.9532779427
 30
0.0
 11
106.2409725107
 21
178.3932315204
 31
0.0
  0
ARC
  5
207
330
1F
100
AcDbEntity
  8
0
  6
SLD-Durchgehend
 62
     8
370
    18
100
AcDbCircle
 10
84.7788651709
 20
178.5978466202
 30
0.0
 40
0.059940693339952
100
AcDbArc
 50
172.7441704606
 51
235.943649146
  0
ARC
  5
208
330
1F
100
AcDbEntity
  8
0
  6
SLD-Durchgehend
 62
     8
370
    18
100
AcDbCircle
 10
114.2255038016
 20
176.9006142758
 30
0.0
 40
0.1925918016616517
100
AcDbArc
 50
303.2297058793
 51
357.3476850206
  0
ARC
  5
209
330
1F
100
AcDbEntity
  8
0
  6
SLD-Durchgehend
 62
     8
370
    18
100
AcDbCircle
 10
115.1233805359
 20
175.3454157516
 30
0.0
 40
0.19261883960306
100
AcDbArc
 50
62.6564838576
 51
116.7662186596
  0
LINE
  5
20A
330
1F
100
AcDbEntity
  8
0
  6
SLD-Durchgehend
 62
     8
370
    18
100
AcDbLine
 10
111.8021872898
 20
173.4031118052
 30
0.0
 11
111.2359087709
 21
173.0762061746
 31
0.0
  0
ARC
  5
20B
330
1F
100
AcDbEntity
  8
0
  6
SLD-Durchgehend
 62
     8
370
    18
100
AcDbCircle
 10
115.1233805359
 20
172.2017336259
 30
0.0
 40
0.1926188396030843
100
AcDbArc
 50
62.6564838576
 51
116.7662186596
  0
ARC
  5
20C
330
1F
100
AcDbEntity
  8
0
  6
SLD-Durchgehend
 62
     8
370
    18
100
AcDbCircle
 10
108.6584999503
 20
180.1143771923
 30
0.0
 40
0.1925918016618685
100
AcDbArc
 50
303.2297058793
 51
357.3476850206
  0
ARC
  5
20D
330
1F
100
AcDbEntity
  8
0
  6
SLD-Durchgehend
 62
     8
370
    18
100
AcDbCircle
 10
111.9815909949
 20
170.8600671184
 30
0.0
 40
0.4460025324309401
100
AcDbArc
 50
303.0404810417
 51
7.3569537233
  0
ARC
  5
20E
330
1F
100
AcDbEntity
  8
0
  6
SLD-Durchgehend
 62
     8
370
    18
100
AcDbCircle
 10
111.7086274716
 20
170.6244064113
 30
0.0
 40
0.1201092081316101
100
AcDbArc
 50
172.8121860113
 51
235.8919380675
  0
ARC
  5
20F
330
1F
100
AcDbEntity
  8
0
  6
SLD-Durchgehend
 62
     8
370
    18
100
AcDbCircle
 10
114.5503116723
 20
172.3192175915
 30
0.0
 40
0.4893665557721969
100
AcDbArc
 50
303.9678102715
 51
6.3937424366
  0
LINE
  5
210
330
1F
100
AcDbEntity
  8
0
  6
SLD-Durchgehend
 62
     8
370
    18
100
AcDbLine
 10
109.4681418179
 20
173.178107901
 30
0.0
 11
108.5842583414
 21
172.6678528311
 31
0.0
  0
ARC
  5
211
330
1F
100
AcDbEntity
  8
0
  6
SLD-Durchgehend
 62
     8
370
    18
100
AcDbCircle
 10
106.1864569208
 20
173.8122962301
 30
0.0
 40
0.1201194301063179
100
AcDbArc
 50
172.8139965458
 51
235.8738230608
  0
LINE
  5
212
330
1F
100
AcDbEntity
  8
0
  6
SLD-Durchgehend
 62
     8
370
    18
100
AcDbLine
 10
110.8807080719
 20
174.9121734553
 30
0.0
 11
109.4681418179
 21
174.0967163144
 31
0.0
  0
ARC
  5
213
330
1F
100
AcDbEntity
  8
0
  6
SLD-Durchgehend
 62
     8
370
    18
100
AcDbCircle
 10
105.9370762728
 20
178.0974774182
 30
0.0
 40
0.1200767018174918
100
AcDbArc
 50
184.107023886
 51
247.1930347161
  0
ELLIPSE
  5
214
330
1F
100
AcDbEntity
  8
0
  6
SLD-Durchgehend
 62
     8
370
    18
100
AcDbEllipse
 10
106.2441115414
 20
177.9867110574
 30
0.0
 11
-0.2565134557339661
 21
0.4292306245992847
 31
0.0
210
0.0
220
0.0
230
1.0
 40
0.5772944524
 41
5.489297307470074
 42
6.298814074603646
  0
ELLIPSE
  5
215
330
1F
100
AcDbEntity
  8
0
  6
SLD-Durchgehend
 62
     8
370
    18
100
AcDbEllipse
 10
108.7626317172
 20
179.5439460144
 30
0.0
 11
-0.2468211437849135
 21
0.4351061353084162
 31
0.0
210
0.0
220
0.0
230
1.0
 40
0.5770955016
 41
5.502377162741991
 42
6.304991214173067
  0
ARC
  5
216
330
1F
100
AcDbEntity
  8
0
  6
SLD-Durchgehend
 62
     8
370
    18
100
AcDbCircle
 10
105.9370854626
 20
177.8932587354
 30
0.0
 40
0.1200892910182814
100
AcDbArc
 50
184.1293369414
 51
247.1908040163
  0
ARC
  5
217
330
1F
100
AcDbEntity
  8
0
  6
SLD-Durchgehend
 62
     8
370
    18
100
AcDbCircle
 10
105.9218026493
 20
177.5605986226
 30
0.0
 40
0.3851836033235723
100
AcDbArc
 50
123.2297058793
 51
177.3476850206
  0
ELLIPSE
  5
218
330
1F
100
AcDbEntity
  8
0
  6
SLD-Durchgehend
 62
     8
370
    18
100
AcDbEllipse
 10
105.7137006714
 20
178.0888688186
 30
0.0
 11
-0.1185501201173906
 21
0.2204499081952633
 31
0.0
210
0.0
220
0.0
230
1.0
 40
0.5765027651
 41
2.373813660460979
 42
3.044341496791113
  0
LINE
  5
219
330
1F
100
AcDbEntity
  8
0
  6
SLD-Durchgehend
 62
     8
370
    18
100
AcDbLine
 10
105.7107231967
 20
177.8827971219
 30
0.0
 11
105.8173079181
 21
177.9486998912
 31
0.0
  0
ARC
  5
21A
330
1F
100
AcDbEntity
  8
0
  6
SLD-Durchgehend
 62
     8
370
    18
100
AcDbCircle
 10
103.1774212071
 20
179.1448963064
 30
0.0
 40
0.3851836033236054
100
AcDbArc
 50
123.2297058793
 51
177.3476850206
  0
LINE
  5
21B
330
1F
100
AcDbEntity
  8
0
  6
SLD-Durchgehend
 62
     8
370
    18
100
AcDbLine
 10
102.9663417545
 20
179.4670948057
 30
0.0
 11
105.7107231967
 21
177.8827971219
 31
0.0
  0
LINE
  5
21C
330
1F
100
AcDbEntity
  8
0
  6
SLD-Durchgehend
 62
     8
370
    18
100
AcDbLine
 10
107.9310376795
 20
179.6176189478
 30
0.0
 11
105.5790542885
 21
180.9753900585
 31
0.0
  0
LINE
  5
21D
330
1F
100
AcDbEntity
  8
0
  6
SLD-Durchgehend
 62
     8
370
    18
100
AcDbLine
 10
105.5790542885
 20
180.9753900585
 30
0.0
 11
102.9663417545
 21
179.4670948057
 31
0.0
  0
ARC
  5
21E
330
1F
100
AcDbEntity
  8
0
  6
SLD-Durchgehend
 62
     8
370
    18
100
AcDbCircle
 10
105.6634341899
 20
174.9379404558
 30
0.0
 40
0.126973570369953
100
AcDbArc
 50
174.5639312996
 51
232.8320456461
  0
ARC
  5
21F
330
1F
100
AcDbEntity
  8
0
  6
SLD-Durchgehend
 62
     8
370
    18
100
AcDbCircle
 10
105.9402788766
 20
174.4506866452
 30
0.0
 40
0.1234627104628827
100
AcDbArc
 50
185.1156122368
 51
246.2381070899
  0
ARC
  5
220
330
1F
100
AcDbEntity
  8
0
  6
SLD-Durchgehend
 62
     8
370
    18
100
AcDbCircle
 10
102.6471718931
 20
180.2675435316
 30
0.0
 40
0.3851836033235473
100
AcDbArc
 50
123.2297058793
 51
177.3476850206
  0
ELLIPSE
  5
221
330
1F
100
AcDbEntity
  8
0
  6
SLD-Durchgehend
 62
     8
370
    18
100
AcDbEllipse
 10
102.4391237672
 20
180.1832837441
 30
0.0
 11
-0.2499802059060841
 21
0.4330241294147754
 31
0.0
210
0.0
220
0.0
230
1.0
 40
0.5673072275
 41
3.927223689447458
 42
5.497715429747185
  0
ARC
  5
222
330
1F
100
AcDbEntity
  8
0
  6
SLD-Durchgehend
 62
     8
370
    18
100
AcDbCircle
 10
102.6160997329
 20
180.3214229036
 30
0.0
 40
0.3852376792063039
100
AcDbArc
 50
242.6564838576
 51
296.7662186596
  0
ELLIPSE
  5
223
330
1F
100
AcDbEntity
  8
0
  6
SLD-Durchgehend
 62
     8
370
    18
100
AcDbEllipse
 10
105.0471277551
 20
181.6888607959
 30
0.0
 11
-0.2499793865467553
 21
0.4330246024226483
 31
0.0
210
0.0
220
0.0
230
1.0
 40
0.5826825381
 41
3.927224810554369
 42
5.497716550854132
  0
LINE
  5
224
330
1F
100
AcDbEntity
  8
0
  6
SLD-Durchgehend
 62
     8
370
    18
100
AcDbLine
 10
105.4023045171
 20
181.4857581171
 30
0.0
 11
102.7895919832
 21
179.9774628643
 31
0.0
  0
LINE
  5
225
330
1F
100
AcDbEntity
  8
0
  6
SLD-Durchgehend
 62
     8
370
    18
100
AcDbLine
 10
102.4360924405
 20
180.5897420309
 30
0.0
 11
105.0488049744
 21
182.0980372837
 31
0.0
  0
ARC
  5
226
330
1F
100
AcDbEntity
  8
0
  6
SLD-Durchgehend
 62
     8
370
    18
100
AcDbCircle
 10
105.9402629491
 20
174.2464399788
 30
0.0
 40
0.1234396439438152
100
AcDbArc
 50
185.0786699092
 51
246.2414710484
  0
ARC
  5
227
330
1F
100
AcDbEntity
  8
0
  6
SLD-Durchgehend
 62
     8
370
    18
100
AcDbCircle
 10
102.9153890735
 20
176.5208531425
 30
0.0
 40
0.1234696435727082
100
AcDbArc
 50
173.7630305026
 51
234.9247891041
  0
LINE
  5
228
330
1F
100
AcDbEntity
  8
0
  6
SLD-Durchgehend
 62
     8
370
    18
100
AcDbLine
 10
102.7895919832
 20
179.9774628643
 30
0.0
 11
102.7895919832
 21
179.773234389
 31
0.0
  0
ARC
  5
229
330
1F
100
AcDbEntity
  8
0
  6
SLD-Durchgehend
 62
     8
370
    18
100
AcDbCircle
 10
102.6160997329
 20
180.1171944283
 30
0.0
 40
0.3852376792062143
100
AcDbArc
 50
242.6564838576
 51
296.7662186596
  0
LINE
  5
22A
330
1F
100
AcDbEntity
  8
0
  6
SLD-Durchgehend
 62
     8
370
    18
100
AcDbLine
 10
98.6751460178
 20
182.3562461179
 30
0.0
 11
96.7402197566
 21
183.4732552724
 31
0.0
  0
ARC
  5
22B
330
1F
100
AcDbEntity
  8
0
  6
SLD-Durchgehend
 62
     8
370
    18
100
AcDbCircle
 10
97.1249907257
 20
183.4554308634
 30
0.0
 40
0.3851836033234624
100
AcDbArc
 50
123.2297058793
 51
177.3476850206
  0
LINE
  5
22C
330
1F
100
AcDbEntity
  8
0
  6
SLD-Durchgehend
 62
     8
370
    18
100
AcDbLine
 10
96.9139112731
 20
183.7776293628
 30
0.0
 11
102.4360924405
 21
180.5897420309
 31
0.0
  0
ELLIPSE
  5
22D
330
1F
100
AcDbEntity
  8
0
  6
SLD-Durchgehend
 62
     8
370
    18
100
AcDbEllipse
 10
102.9695346372
 20
179.6730421501
 30
0.0
 11
-0.1249892602432965
 21
0.2165125511947679
 31
0.0
210
0.0
220
0.0
230
1.0
 40
0.5980578488
 41
0.7856334007561933
 42
2.356125141055947
  0
ELLIPSE
  5
22E
330
1F
100
AcDbEntity
  8
0
  6
SLD-Durchgehend
 62
     8
370
    18
100
AcDbEllipse
 10
105.5775386251
 20
181.1786192019
 30
0.0
 11
-0.1249901029530349
 21
0.2165120647073877
 31
0.0
210
0.0
220
0.0
230
1.0
 40
0.5673072275
 41
0.7856310358574471
 42
2.356122776157516
  0
LINE
  5
22F
330
1F
100
AcDbEntity
  8
0
  6
SLD-Durchgehend
 62
     8
370
    18
100
AcDbLine
 10
102.7895919832
 20
179.773234389
 30
0.0
 11
105.4023045171
 21
181.2815296418
 31
0.0
  0
LINE
  5
230
330
1F
100
AcDbEntity
  8
0
  6
SLD-Durchgehend
 62
     8
370
    18
100
AcDbLine
 10
105.4023045171
 20
181.2815296418
 30
0.0
 11
105.4023045171
 21
181.4857581171
 31
0.0
  0
LINE
  5
231
330
1F
100
AcDbEntity
  8
0
  6
SLD-Durchgehend
 62
     8
370
    18
100
AcDbLine
 10
105.0488049744
 20
182.0980372837
 30
0.0
 11
99.481801123
 21
185.3118002003
 31
0.0
  0
LINE
  5
232
330
1F
100
AcDbEntity
  8
0
  6
SLD-Durchgehend
 62
     8
370
    18
100
AcDbLine
 10
96.9139112731
 20
183.7776293628
 30
0.0
 11
99.481801123
 21
185.3118002003
 31
0.0
  0
ARC
  5
233
330
1F
100
AcDbEntity
  8
0
  6
SLD-Durchgehend
 62
     8
370
    18
100
AcDbCircle
 10
105.4735145622
 20
181.1364893081
 30
0.0
 40
0.1925918016617115
100
AcDbArc
 50
303.2297058793
 51
357.3476850206
  0
LINE
  5
234
330
1F
100
AcDbEntity
  8
0
  6
SLD-Durchgehend
 62
     8
370
    18
100
AcDbLine
 10
98.1544333189
 20
181.8527924268
 30
0.0
 11
97.2705498425
 21
181.3425373569
 31
0.0
  0
ARC
  5
235
330
1F
100
AcDbEntity
  8
0
  6
SLD-Durchgehend
 62
     8
370
    18
100
AcDbCircle
 10
104.9432652481
 20
182.2591365334
 30
0.0
 40
0.1925918016616632
100
AcDbArc
 50
303.2297058793
 51
357.3476850207
  0
ARC
  5
236
330
1F
100
AcDbEntity
  8
0
  6
SLD-Durchgehend
 62
     8
370
    18
100
AcDbCircle
 10
105.4890506422
 20
181.3137780975
 30
0.0
 40
0.1926188396030347
100
AcDbArc
 50
62.6564838576
 51
116.7662186596
  0
ARC
  5
237
330
1F
100
AcDbEntity
  8
0
  6
SLD-Durchgehend
 62
     8
370
    18
100
AcDbCircle
 10
105.4890506422
 20
181.1095496222
 30
0.0
 40
0.1926188396031235
100
AcDbArc
 50
62.6564838576
 51
116.7662186596
  0
ARC
  5
238
330
1F
100
AcDbEntity
  8
0
  6
SLD-Durchgehend
 62
     8
370
    18
100
AcDbCircle
 10
99.3762613967
 20
185.4728994499
 30
0.0
 40
0.1925918016617381
100
AcDbArc
 50
303.2297058793
 51
357.3476850206
  0
ELLIPSE
  5
239
330
1F
100
AcDbEntity
  8
0
  6
SLD-Durchgehend
 62
     8
370
    18
100
AcDbEllipse
 10
102.9695346372
 20
176.227923224
 30
0.0
 11
-0.1316202743550576
 21
0.2129046670299601
 31
0.0
210
0.0
220
0.0
230
1.0
 40
0.5765060239
 41
0.0946159151919573
 42
0.7679410286855601
  0
ARC
  5
23A
330
1F
100
AcDbEntity
  8
0
  6
SLD-Durchgehend
 62
     8
370
    18
100
AcDbCircle
 10
102.6160997329
 20
176.6723242474
 30
0.0
 40
0.38523767920645
100
AcDbArc
 50
242.6564838576
 51
296.7662186596
  0
LINE
  5
23B
330
1F
100
AcDbEntity
  8
0
  6
SLD-Durchgehend
 62
     8
370
    18
100
AcDbLine
 10
102.9000024714
 20
176.3877285706
 30
0.0
 11
102.7895919832
 21
176.3283642081
 31
0.0
  0
LINE
  5
23C
330
1F
100
AcDbEntity
  8
0
  6
SLD-Durchgehend
 62
     8
370
    18
100
AcDbLine
 10
102.7895919832
 20
176.3283642081
 30
0.0
 11
102.7895919832
 21
176.1241357328
 31
0.0
  0
ARC
  5
23D
330
1F
100
AcDbEntity
  8
0
  6
SLD-Durchgehend
 62
     8
370
    18
100
AcDbCircle
 10
102.6160997329
 20
176.4680957721
 30
0.0
 40
0.38523767920645
100
AcDbArc
 50
242.6564838576
 51
296.7662186596
  0
LINE
  5
23E
330
1F
100
AcDbEntity
  8
0
  6
SLD-Durchgehend
 62
     8
370
    18
100
AcDbLine
 10
102.7895919832
 20
176.1241357328
 30
0.0
 11
103.0831740368
 21
176.2819858767
 31
0.0
  0
ELLIPSE
  5
23F
330
1F
100
AcDbEntity
  8
0
  6
SLD-Durchgehend
 62
     8
370
    18
100
AcDbEllipse
 10
102.4391237672
 20
176.3300809852
 30
0.0
 11
-0.243426929705933
 21
0.436785315518307
 31
0.0
210
0.0
220
0.0
230
1.0
 40
0.5772928155
 41
3.141462068966842
 42
3.935643131942041
  0
ARC
  5
240
330
1F
100
AcDbEntity
  8
0
  6
SLD-Durchgehend
 62
     8
370
    18
100
AcDbCircle
 10
102.3851521593
 20
176.0104212006
 30
0.0
 40
0.1234817031382558
100
AcDbArc
 50
173.764788728
 51
234.9054720897
  0
LINE
  5
241
330
1F
100
AcDbEntity
  8
0
  6
SLD-Durchgehend
 62
     8
370
    18
100
AcDbLine
 10
96.2562013291
 20
183.1937465479
 30
0.0
 11
96.2562013291
 21
180.0500644221
 31
0.0
  0
ARC
  5
242
330
1F
100
AcDbEntity
  8
0
  6
SLD-Durchgehend
 62
     8
370
    18
100
AcDbCircle
 10
96.551274072
 20
183.2416120935
 30
0.0
 40
0.2989298145724461
100
AcDbArc
 50
50.7967147643
 51
189.2140369905
  0
LINE
  5
243
330
1F
100
AcDbEntity
  8
0
  6
SLD-Durchgehend
 62
     8
370
    18
100
AcDbLine
 10
96.7402197566
 20
179.2117199165
 30
0.0
 11
98.6751460178
 21
178.094710762
 31
0.0
  0
ARC
  5
244
330
1F
100
AcDbEntity
  8
0
  6
SLD-Durchgehend
 62
     8
370
    18
100
AcDbCircle
 10
97.3070650783
 20
180.0978845544
 30
0.0
 40
1.051951227193434
100
AcDbArc
 50
182.6054784857
 51
237.39452166
  0
ARC
  5
245
330
1F
100
AcDbEntity
  8
0
  6
SLD-Durchgehend
 62
     8
370
    18
100
AcDbCircle
 10
96.8629585922
 20
179.1983060758
 30
0.0
 40
0.1234696435738116
100
AcDbArc
 50
173.7630305029
 51
234.9247891038
  0
LINE
  5
246
330
1F
100
AcDbEntity
  8
0
  6
SLD-Durchgehend
 62
     8
370
    18
100
AcDbLine
 10
98.1544333189
 20
181.2403868179
 30
0.0
 11
97.2705498425
 21
180.730131748
 31
0.0
  0
LINE
  5
247
330
1F
100
AcDbEntity
  8
0
  6
SLD-Durchgehend
 62
     8
370
    18
100
AcDbLine
 10
99.5162960527
 20
181.7205199227
 30
0.0
 11
98.9499284478
 21
181.3935628639
 31
0.0
  0
ARC
  5
248
330
1F
100
AcDbEntity
  8
0
  6
SLD-Durchgehend
 62
     8
370
    18
100
AcDbCircle
 10
96.6421000093
 20
183.4088733172
 30
0.0
 40
0.4581073937988118
100
AcDbArc
 50
53.6059535652
 51
116.0747844814
  0
ARC
  5
249
330
1F
100
AcDbEntity
  8
0
  6
SLD-Durchgehend
 62
     8
370
    18
100
AcDbCircle
 10
96.3059439443
 20
183.3067373057
 30
0.0
 40
0.1234554135445329
100
AcDbArc
 50
185.1039293172
 51
246.2391711415
  0
ARC
  5
24A
330
1F
100
AcDbEntity
  8
0
  6
SLD-Durchgehend
 62
     8
370
    18
100
AcDbCircle
 10
99.1929153821
 20
184.9333639318
 30
0.0
 40
0.4760976586768028
100
AcDbArc
 50
52.6430821731
 51
116.9971713361
  0
LINE
  5
24B
330
1F
100
AcDbEntity
  8
0
  6
SLD-Durchgehend
 62
     8
370
    18
100
AcDbLine
 10
99.8462795774
 20
181.2986097479
 30
0.0
 11
98.9499284478
 21
180.781157255
 31
0.0
  0
ARC
  5
24C
330
1F
100
AcDbEntity
  8
0
  6
SLD-Durchgehend
 62
     8
370
    18
100
AcDbCircle
 10
96.3059330554
 20
180.1630427435
 30
0.0
 40
0.1234396439439625
100
AcDbArc
 50
185.0786699092
 51
246.2414710484
  0
ARC
  5
24D
330
1F
100
AcDbEntity
  8
0
  6
SLD-Durchgehend
 62
     8
370
    18
100
AcDbCircle
 10
86.926749611
 20
187.862432703
 30
0.0
 40
1.152603605679041
100
AcDbArc
 50
2.6054784857
 51
57.39452166
  0
ARC
  5
24E
330
1F
100
AcDbEntity
  8
0
  6
SLD-Durchgehend
 62
     8
370
    18
100
AcDbCircle
 10
87.9316356265
 20
188.81592178
 30
0.0
 40
0.3842012018929991
100
AcDbArc
 50
122.60547834
 51
177.3945215143
  0
ARC
  5
24F
330
1F
100
AcDbEntity
  8
0
  6
SLD-Durchgehend
 62
     8
370
    18
100
AcDbCircle
 10
86.8964989763
 20
187.8449674899
 30
0.0
 40
1.53680480757193
100
AcDbArc
 50
2.6054784857
 51
57.39452166
  0
ARC
  5
250
330
1F
100
AcDbEntity
  8
0
  6
SLD-Durchgehend
 62
     8
370
    18
100
AcDbCircle
 10
88.2549383823
 20
188.2560061134
 30
0.0
 40
0.38425547697817
100
AcDbArc
 50
242.6096722366
 51
297.3903277634
  0
LINE
  5
251
330
1F
100
AcDbEntity
  8
0
  6
SLD-Durchgehend
 62
     8
370
    18
100
AcDbLine
 10
87.7246082964
 20
189.13957321
 30
0.0
 11
90.2878703782
 21
190.6193129127
 31
0.0
  0
ARC
  5
252
330
1F
100
AcDbEntity
  8
0
  6
SLD-Durchgehend
 62
     8
370
    18
100
AcDbCircle
 10
89.4597610581
 20
189.3247071926
 30
0.0
 40
1.53680480757197
100
AcDbArc
 50
2.6054784857
 51
57.39452166
  0
LINE
  5
253
330
1F
100
AcDbEntity
  8
0
  6
SLD-Durchgehend
 62
     8
370
    18
100
AcDbLine
 10
88.4317150776
 20
187.9148283422
 30
0.0
 11
90.9949771594
 21
189.3945680449
 31
0.0
  0
ARC
  5
254
330
1F
100
AcDbEntity
  8
0
  6
SLD-Durchgehend
 62
     8
370
    18
100
AcDbCircle
 10
87.7548559115
 20
184.7187008188
 30
0.0
 40
0.3275318980713747
100
AcDbArc
 50
230.7967147643
 51
9.2140369905
  0
LINE
  5
255
330
1F
100
AcDbEntity
  8
0
  6
SLD-Durchgehend
 62
     8
370
    18
100
AcDbLine
 10
83.305190914
 20
186.9141179849
 30
0.0
 11
87.5478316011
 21
184.4648936495
 31
0.0
  0
ARC
  5
256
330
1F
100
AcDbEntity
  8
0
  6
SLD-Durchgehend
 62
     8
370
    18
100
AcDbCircle
 10
83.9262729042
 20
187.885072275
 30
0.0
 40
1.152603605679046
100
AcDbArc
 50
182.6054784857
 51
237.39452166
  0
LINE
  5
257
330
1F
100
AcDbEntity
  8
0
  6
SLD-Durchgehend
 62
     8
370
    18
100
AcDbLine
 10
82.7748608281
 20
190.9763587615
 30
0.0
 11
82.7748608281
 21
187.8326766358
 31
0.0
  0
ARC
  5
258
330
1F
100
AcDbEntity
  8
0
  6
SLD-Durchgehend
 62
     8
370
    18
100
AcDbCircle
 10
83.0981666037
 20
191.0288041592
 30
0.0
 40
0.3275318980713573
100
AcDbArc
 50
50.7967147643
 51
189.2140369905
  0
LINE
  5
259
330
1F
100
AcDbEntity
  8
0
  6
SLD-Durchgehend
 62
     8
370
    18
100
AcDbLine
 10
87.5478316011
 20
188.833386993
 30
0.0
 11
83.305190914
 21
191.2826113285
 31
0.0
  0
LINE
  5
25A
330
1F
100
AcDbEntity
  8
0
  6
SLD-Durchgehend
 62
     8
370
    18
100
AcDbLine
 10
88.078161687
 20
184.7711462164
 30
0.0
 11
88.078161687
 21
187.9148283422
 31
0.0
  0
LINE
  5
25B
330
1F
100
AcDbEntity
  8
0
  6
SLD-Durchgehend
 62
     8
370
    18
100
AcDbLine
 10
88.4317150776
 20
187.9148283422
 30
0.0
 11
88.4317150776
 21
184.7711462164
 31
0.0
  0
ARC
  5
25C
330
1F
100
AcDbEntity
  8
0
  6
SLD-Durchgehend
 62
     8
370
    18
100
AcDbCircle
 10
88.2549383823
 20
185.1123239877
 30
0.0
 40
0.3842554769780437
100
AcDbArc
 50
242.6096722366
 51
297.3903277634
  0
LINE
  5
25D
330
1F
100
AcDbEntity
  8
0
  6
SLD-Durchgehend
 62
     8
370
    18
100
AcDbLine
 10
83.4819676093
 20
191.5887975455
 30
0.0
 11
87.7246082964
 21
189.13957321
 31
0.0
  0
ARC
  5
25E
330
1F
100
AcDbEntity
  8
0
  6
SLD-Durchgehend
 62
     8
370
    18
100
AcDbCircle
 10
83.6889949394
 20
191.2651461155
 30
0.0
 40
0.3842012018930288
100
AcDbArc
 50
122.60547834
 51
177.3945215143
  0
LINE
  5
25F
330
1F
100
AcDbEntity
  8
0
  6
SLD-Durchgehend
 62
     8
370
    18
100
AcDbLine
 10
90.9949771594
 20
186.2508859191
 30
0.0
 11
90.9949771594
 21
189.3945680449
 31
0.0
  0
LINE
  5
260
330
1F
100
AcDbEntity
  8
0
  6
SLD-Durchgehend
 62
     8
370
    18
100
AcDbLine
 10
88.4317150776
 20
184.7711462164
 30
0.0
 11
90.9949771594
 21
186.2508859191
 31
0.0
  0
LINE
  5
261
330
1F
100
AcDbEntity
  8
0
  6
SLD-Durchgehend
 62
     8
370
    18
100
AcDbLine
 10
83.4819676093
 20
191.5887975455
 30
0.0
 11
86.0452296911
 21
193.0685372481
 31
0.0
  0
LINE
  5
262
330
1F
100
AcDbEntity
  8
0
  6
SLD-Durchgehend
 62
     8
370
    18
100
AcDbLine
 10
90.2878703782
 20
190.6193129127
 30
0.0
 11
86.0452296911
 21
193.0685372481
 31
0.0
  0
LINE
  5
263
330
1F
100
AcDbEntity
  8
0
  6
SLD-Durchgehend
 62
     8
370
    18
100
AcDbLine
 10
87.0175015152
 20
186.1385866762
 30
0.0
 11
86.1336180388
 21
185.6283316063
 31
0.0
  0
ARC
  5
264
330
1F
100
AcDbEntity
  8
0
  6
SLD-Durchgehend
 62
     8
370
    18
100
AcDbCircle
 10
91.0833655071
 20
189.2239791593
 30
0.0
 40
0.1921277384888957
100
AcDbArc
 50
62.6096722366
 51
117.3903277634
  0
ARC
  5
265
330
1F
100
AcDbEntity
  8
0
  6
SLD-Durchgehend
 62
     8
370
    18
100
AcDbCircle
 10
90.1843567132
 20
190.7811386277
 30
0.0
 40
0.1921006009465328
100
AcDbArc
 50
302.60547834
 51
357.3945215143
  0
ARC
  5
266
330
1F
100
AcDbEntity
  8
0
  6
SLD-Durchgehend
 62
     8
370
    18
100
AcDbCircle
 10
91.0833655071
 20
186.0802970335
 30
0.0
 40
0.1921277384890219
100
AcDbArc
 50
62.6096722366
 51
117.3903277634
  0
ARC
  5
267
330
1F
100
AcDbEntity
  8
0
  6
SLD-Durchgehend
 62
     8
370
    18
100
AcDbCircle
 10
85.9417160261
 20
193.2303629632
 30
0.0
 40
0.1921006009465874
100
AcDbArc
 50
302.60547834
 51
357.3945215143
  0
ARC
  5
268
330
1F
100
AcDbEntity
  8
0
  6
SLD-Durchgehend
 62
     8
370
    18
100
AcDbCircle
 10
87.9305626107
 20
184.7219653756
 30
0.0
 40
0.5035598775206221
100
AcDbArc
 50
305.8765986239
 51
5.6048026466
  0
ARC
  5
269
330
1F
100
AcDbEntity
  8
0
  6
SLD-Durchgehend
 62
     8
370
    18
100
AcDbCircle
 10
87.6667426292
 20
184.4497501887
 30
0.0
 40
0.1198714186481429
100
AcDbArc
 50
172.7423815914
 51
235.9614646523
  0
LINE
  5
26A
330
1F
100
AcDbEntity
  8
0
  6
SLD-Durchgehend
 62
     8
370
    18
100
AcDbLine
 10
87.5837800341
 20
187.3841007202
 30
0.0
 11
87.0175015152
 21
187.0571950896
 31
0.0
  0
ARC
  5
26B
330
1F
100
AcDbEntity
  8
0
  6
SLD-Durchgehend
 62
     8
370
    18
100
AcDbCircle
 10
90.504975257
 20
186.1967991818
 30
0.0
 40
0.4929779300646131
100
AcDbArc
 50
305.0133328792
 51
6.2988475141
  0
LINE
  5
26C
330
1F
100
AcDbEntity
  8
0
  6
SLD-Durchgehend
 62
     8
370
    18
100
AcDbLine
 10
85.6032879529
 20
186.954994788
 30
0.0
 11
84.7194044764
 21
186.4447397182
 31
0.0
  0
ARC
  5
26D
330
1F
100
AcDbEntity
  8
0
  6
SLD-Durchgehend
 62
     8
370
    18
100
AcDbCircle
 10
83.4241123031
 20
186.8989769778
 30
0.0
 40
0.1198813866798352
100
AcDbArc
 50
172.7441704605
 51
235.9436491461
  0
ARC
  5
26E
330
1F
100
AcDbEntity
  8
0
  6
SLD-Durchgehend
 62
     8
370
    18
100
AcDbCircle
 10
83.1903526138
 20
191.1919889965
 30
0.0
 40
0.4924391638980831
100
AcDbArc
 50
53.6877968779
 51
115.1711848995
  0
ARC
  5
26F
330
1F
100
AcDbEntity
  8
0
  6
SLD-Durchgehend
 62
     8
370
    18
100
AcDbCircle
 10
82.826758079
 20
191.090893803
 30
0.0
 40
0.1257441862076645
100
AcDbArc
 50
185.708713514
 51
245.6241289529
  0
ARC
  5
270
330
1F
100
AcDbEntity
  8
0
  6
SLD-Durchgehend
 62
     8
370
    18
100
AcDbCircle
 10
85.7523096363
 20
192.659655919
 30
0.0
 40
0.502977235901807
100
AcDbArc
 50
54.3824225248
 51
114.3071190461
  0
LINE
  5
271
330
1F
100
AcDbEntity
  8
0
  6
SLD-Durchgehend
 62
     8
370
    18
100
AcDbLine
 10
86.9061165822
 20
188.6257101601
 30
0.0
 11
85.6032879529
 21
187.8736032014
 31
0.0
  0
ARC
  5
272
330
1F
100
AcDbEntity
  8
0
  6
SLD-Durchgehend
 62
     8
370
    18
100
AcDbCircle
 10
82.826751789
 20
187.947204244
 30
0.0
 40
0.1257348196235923
100
AcDbArc
 50
185.6947992512
 51
245.6253417064
  0
ARC
  5
273
330
1F
100
AcDbEntity
  8
0
  6
SLD-Durchgehend
 62
     8
370
    18
100
AcDbCircle
 10
83.7051859765
 20
194.0067528802
 30
0.0
 40
1.316425019153781
100
AcDbArc
 50
55.3190745285
 51
108.4597966484
  0
ARC
  5
274
330
1F
100
AcDbEntity
  8
0
  6
SLD-Durchgehend
 62
     8
370
    18
100
AcDbCircle
 10
82.7124215458
 20
194.0236684316
 30
0.0
 40
0.0628727481406197
100
AcDbArc
 50
185.7106592977
 51
245.6239593427
  0
ARC
  5
275
330
1F
100
AcDbEntity
  8
0
  6
SLD-Durchgehend
 62
     8
370
    18
100
AcDbCircle
 10
82.7124179609
 20
182.1838224228
 30
0.0
 40
0.0628674098119019
100
AcDbArc
 50
185.6947992513
 51
245.6253417063
  0
ENDSEC
  0
SECTION
  2
OBJECTS
  0
DICTIONARY
  5
C
330
0
100
AcDbDictionary
281
     1
  3
ACAD_DETAILVIEWSTYLE
350
27D
  3
ACAD_GROUP
350
D
  3
ACAD_LAYOUT
350
1A
  3
ACAD_MATERIAL
350
43
  3
ACAD_MLEADERSTYLE
350
6B
  3
ACAD_MLINESTYLE
350
17
  3
ACAD_PLOTSETTINGS
350
19
  3
ACAD_PLOTSTYLENAME
350
E
  3
ACAD_SCALELIST
350
47
  3
ACAD_SECTIONVIEWSTYLE
350
27E
  3
ACAD_TABLESTYLE
350
69
  3
ACAD_VISUALSTYLE
350
2A
  3
ACDB_RECOMPOSE_DATA
350
27A
  3
AcDbVariableDictionary
350
276
  0
SUN
  5
6D
330
29
100
AcDbSun
 90
        1
290
     0
 63
     7
421
 16777215
 40
1.0
291
     1
 91
  2455826
 92
 54000000
292
     0
 70
     2
 71
   256
280
     1
  0
DICTIONARY
  5
27D
102
{ACAD_REACTORS
330
C
102
}
330
C
100
AcDbDictionary
281
     1
  0
DICTIONARY
  5
D
102
{ACAD_REACTORS
330
C
102
}
330
C
100
AcDbDictionary
281
     1
  0
DICTIONARY
  5
1A
102
{ACAD_REACTORS
330
C
102
}
330
C
100
AcDbDictionary
281
     1
  3
Layout1
350
1E
  3
Layout2
350
26
  3
Model
350
22
  0
DICTIONARY
  5
43
102
{ACAD_REACTORS
330
C
102
}
330
C
100
AcDbDictionary
281
     1
  3
ByBlock
350
45
  3
ByLayer
350
44
  3
Global
350
46
  0
DICTIONARY
  5
6B
102
{ACAD_REACTORS
330
C
102
}
330
C
100
AcDbDictionary
281
     1
  3
Standard
350
6C
  0
DICTIONARY
  5
17
102
{ACAD_REACTORS
330
C
102
}
330
C
100
AcDbDictionary
281
     1
  3
Standard
350
18
  0
DICTIONARY
  5
19
102
{ACAD_REACTORS
330
C
102
}
330
C
100
AcDbDictionary
281
     1
  0
ACDBDICTIONARYWDFLT
  5
E
102
{ACAD_REACTORS
330
C
102
}
330
C
100
AcDbDictionary
281
     1
  3
Normal
350
F
100
AcDbDictionaryWithDefault
340
F
  0
DICTIONARY
  5
47
102
{ACAD_REACTORS
330
C
102
}
330
C
100
AcDbDictionary
281
     1
  3
A0
350
48
  3
A1
350
49
  3
A2
350
4A
  3
A3
350
4B
  3
A4
350
4C
  3
A5
350
4D
  3
A6
350
4E
  3
A7
350
4F
  3
A8
350
50
  3
A9
350
51
  3
B0
350
52
  3
B1
350
53
  3
B2
350
54
  3
B3
350
55
  3
B4
350
56
  3
B5
350
57
  3
B6
350
58
  3
B7
350
59
  3
B8
350
5A
  3
B9
350
5B
  3
C0
350
5C
  3
C1
350
5D
  3
C2
350
5E
  3
C3
350
5F
  3
C4
350
60
  3
C5
350
61
  3
C6
350
62
  3
C7
350
63
  3
C8
350
64
  3
C9
350
65
  3
D0
350
66
  3
D1
350
67
  3
D2
350
68
  0
DICTIONARY
  5
27E
102
{ACAD_REACTORS
330
C
102
}
330
C
100
AcDbDictionary
281
     1
  0
DICTIONARY
  5
69
102
{ACAD_REACTORS
330
C
102
}
330
C
100
AcDbDictionary
281
     1
  3
Standard
350
6A
  0
DICTIONARY
  5
2A
102
{ACAD_REACTORS
330
C
102
}
330
C
100
AcDbDictionary
281
     1
  3
2dWireframe
350
2F
  3
Basic
350
32
  3
Brighten
350
36
  3
ColorChange
350
3A
  3
Conceptual
350
34
  3
Dim
350
35
  3
EdgeColorOff
350
3D
  3
Facepattern
350
39
  3
Flat
350
2B
  3
FlatWithEdges
350
2C
  3
Gouraud
350
2D
  3
GouraudWithEdges
350
2E
  3
Hidden
350
31
  3
JitterOff
350
3B
  3
Linepattern
350
38
  3
OverhangOff
350
3C
  3
Realistic
350
33
  3
Shaded
350
42
  3
Shaded with edges
350
41
  3
Shades of Gray
350
3E
  3
Sketchy
350
3F
  3
Thicken
350
37
  3
Wireframe
350
30
  3
X-Ray
350
40
  0
XRECORD
  5
27A
102
{ACAD_REACTORS
330
C
102
}
330
C
100
AcDbXrecord
280
     1
 90
        1
330
6A
  0
DICTIONARY
  5
276
102
{ACAD_REACTORS
330
C
102
}
330
C
100
AcDbDictionary
281
     1
  3
CANNOSCALE
350
277
  3
CENTEREXE
350
27F
  3
CENTERLTYPEFILE
350
280
  3
CMLEADERSTYLE
350
27C
  3
CTABLESTYLE
350
27B
  0
LAYOUT
  5
1E
102
{ACAD_REACTORS
330
1A
102
}
330
1A
100
AcDbPlotSettings
  1

  2
none_device
  4

  6

 40
0.0
 41
0.0
 42
0.0
 43
0.0
 44
0.0
 45
0.0
 46
0.0
 47
0.0
 48
0.0
 49
0.0
140
0.0
141
0.0
142
1.0
143
1.0
 70
   688
 72
     1
 73
     0
 74
     5
  7

 75
    16
 76
     0
 77
     2
 78
   300
147
1.0
148
0.0
149
0.0
100
AcDbLayout
  1
Layout1
 70
     1
 71
     1
 10
0.0
 20
0.0
 11
420.0
 21
297.0
 12
0.0
 22
0.0
 32
0.0
 14
1.0000000000E+20
 24
1.0000000000E+20
 34
1.0000000000E+20
 15
-1.0000000000E+20
 25
-1.0000000000E+20
 35
-1.0000000000E+20
146
0.0
 13
0.0
 23
0.0
 33
0.0
 16
1.0
 26
0.0
 36
0.0
 17
0.0
 27
1.0
 37
0.0
 76
     0
330
1B
  0
LAYOUT
  5
26
102
{ACAD_REACTORS
330
1A
102
}
330
1A
100
AcDbPlotSettings
  1

  2
none_device
  4

  6

 40
0.0
 41
0.0
 42
0.0
 43
0.0
 44
0.0
 45
0.0
 46
0.0
 47
0.0
 48
0.0
 49
0.0
140
0.0
141
0.0
142
1.0
143
1.0
 70
   688
 72
     1
 73
     0
 74
     5
  7

 75
    16
 76
     0
 77
     2
 78
   300
147
1.0
148
0.0
149
0.0
100
AcDbLayout
  1
Layout2
 70
     1
 71
     2
 10
0.0
 20
0.0
 11
0.0
 21
0.0
 12
0.0
 22
0.0
 32
0.0
 14
0.0
 24
0.0
 34
0.0
 15
0.0
 25
0.0
 35
0.0
146
0.0
 13
0.0
 23
0.0
 33
0.0
 16
1.0
 26
0.0
 36
0.0
 17
0.0
 27
1.0
 37
0.0
 76
     0
330
23
  0
LAYOUT
  5
22
102
{ACAD_REACTORS
330
1A
102
}
330
1A
100
AcDbPlotSettings
  1

  2
none_device
  4
Letter_(8.50_x_11.00_Inches)
  6

 40
6.35
 41
6.35
 42
6.35000508
 43
6.35000508
 44
215.9
 45
279.4
 46
0.0
 47
0.0
 48
0.0
 49
0.0
140
0.0
141
0.0
142
1.0
143
1.0
 70
  1712
 72
     1
 73
     0
 74
     0
  7

 75
     0
 76
     0
 77
     2
 78
   300
147
1.0
148
0.0
149
0.0
100
AcDbLayout
  1
Model
 70
     1
 71
     0
 10
0.0
 20
0.0
 11
210.0
 21
297.0
 12
0.0
 22
0.0
 32
0.0
 14
0.0
 24
0.0
 34
0.0
 15
210.0
 25
297.0
 35
0.0
146
0.0
 13
0.0
 23
0.0
 33
0.0
 16
1.0
 26
0.0
 36
0.0
 17
0.0
 27
1.0
 37
0.0
 76
     0
330
1F
331
29
  0
MATERIAL
  5
45
102
{ACAD_REACTORS
330
43
102
}
330
43
100
AcDbMaterial
  1
ByBlock
 72
     1
 94
      127
  0
MATERIAL
  5
44
102
{ACAD_REACTORS
330
43
102
}
330
43
100
AcDbMaterial
  1
ByLayer
 72
     1
 94
      127
  0
MATERIAL
  5
46
102
{ACAD_REACTORS
330
43
102
}
330
43
100
AcDbMaterial
  1
Global
 72
     1
 94
      127
  0
MLEADERSTYLE
  5
6C
102
{ACAD_REACTORS
330
6B
102
}
330
6B
100
AcDbMLeaderStyle
179
     2
170
     2
171
     1
172
     0
 90
        2
 40
0.0
 41
0.0
173
     1
 91
-1056964608
340
14
 92
       -2
290
     1
 42
2.0
291
     1
 43
8.0
  3
Standard
341
0
 44
4.0
300

342
11
174
     1
178
     6
175
     1
176
     0
 93
-1056964608
 45
4.0
292
     0
297
     0
 46
4.0
343
0
 94
-1056964608
 47
1.0
 49
1.0
140
1.0
293
     1
141
0.0
294
     1
177
     0
142
1.0
295
     0
296
     0
143
3.75
271
     0
272
     9
273
     9
  0
MLINESTYLE
  5
18
102
{ACAD_REACTORS
330
17
102
}
330
17
100
AcDbMlineStyle
  2
Standard
 70
     0
  3

 62
   256
 51
90.0
 52
90.0
 71
     2
 49
0.5
 62
   256
  6
BYLAYER
 49
-0.5
 62
   256
  6
BYLAYER
  0
ACDBPLACEHOLDER
  5
F
102
{ACAD_REACTORS
330
E
102
}
330
E
  0
SCALE
  5
48
102
{ACAD_REACTORS
330
47
102
}
330
47
100
AcDbScale
 70
     0
300
1:1
140
1.0
141
1.0
290
     1
  0
SCALE
  5
49
102
{ACAD_REACTORS
330
47
102
}
330
47
100
AcDbScale
 70
     0
300
1:2
140
1.0
141
2.0
290
     0
  0
SCALE
  5
4A
102
{ACAD_REACTORS
330
47
102
}
330
47
100
AcDbScale
 70
     0
300
1:4
140
1.0
141
4.0
290
     0
  0
SCALE
  5
4B
102
{ACAD_REACTORS
330
47
102
}
330
47
100
AcDbScale
 70
     0
300
1:5
140
1.0
141
5.0
290
     0
  0
SCALE
  5
4C
102
{ACAD_REACTORS
330
47
102
}
330
47
100
AcDbScale
 70
     0
300
1:8
140
1.0
141
8.0
290
     0
  0
SCALE
  5
4D
102
{ACAD_REACTORS
330
47
102
}
330
47
100
AcDbScale
 70
     0
300
1:10
140
1.0
141
10.0
290
     0
  0
SCALE
  5
4E
102
{ACAD_REACTORS
330
47
102
}
330
47
100
AcDbScale
 70
     0
300
1:16
140
1.0
141
16.0
290
     0
  0
SCALE
  5
4F
102
{ACAD_REACTORS
330
47
102
}
330
47
100
AcDbScale
 70
     0
300
1:20
140
1.0
141
20.0
290
     0
  0
SCALE
  5
50
102
{ACAD_REACTORS
330
47
102
}
330
47
100
AcDbScale
 70
     0
300
1:30
140
1.0
141
30.0
290
     0
  0
SCALE
  5
51
102
{ACAD_REACTORS
330
47
102
}
330
47
100
AcDbScale
 70
     0
300
1:40
140
1.0
141
40.0
290
     0
  0
SCALE
  5
52
102
{ACAD_REACTORS
330
47
102
}
330
47
100
AcDbScale
 70
     0
300
1:50
140
1.0
141
50.0
290
     0
  0
SCALE
  5
53
102
{ACAD_REACTORS
330
47
102
}
330
47
100
AcDbScale
 70
     0
300
1:100
140
1.0
141
100.0
290
     0
  0
SCALE
  5
54
102
{ACAD_REACTORS
330
47
102
}
330
47
100
AcDbScale
 70
     0
300
2:1
140
2.0
141
1.0
290
     0
  0
SCALE
  5
55
102
{ACAD_REACTORS
330
47
102
}
330
47
100
AcDbScale
 70
     0
300
4:1
140
4.0
141
1.0
290
     0
  0
SCALE
  5
56
102
{ACAD_REACTORS
330
47
102
}
330
47
100
AcDbScale
 70
     0
300
8:1
140
8.0
141
1.0
290
     0
  0
SCALE
  5
57
102
{ACAD_REACTORS
330
47
102
}
330
47
100
AcDbScale
 70
     0
300
10:1
140
10.0
141
1.0
290
     0
  0
SCALE
  5
58
102
{ACAD_REACTORS
330
47
102
}
330
47
100
AcDbScale
 70
     0
300
100:1
140
100.0
141
1.0
290
     0
  0
SCALE
  5
59
102
{ACAD_REACTORS
330
47
102
}
330
47
100
AcDbScale
 70
     0
300
1/128" = 1'-0"
140
0.0078125
141
12.0
290
     0
  0
SCALE
  5
5A
102
{ACAD_REACTORS
330
47
102
}
330
47
100
AcDbScale
 70
     0
300
1/64" = 1'-0"
140
0.015625
141
12.0
290
     0
  0
SCALE
  5
5B
102
{ACAD_REACTORS
330
47
102
}
330
47
100
AcDbScale
 70
     0
300
1/32" = 1'-0"
140
0.03125
141
12.0
290
     0
  0
SCALE
  5
5C
102
{ACAD_REACTORS
330
47
102
}
330
47
100
AcDbScale
 70
     0
300
1/16" = 1'-0"
140
0.0625
141
12.0
290
     0
  0
SCALE
  5
5D
102
{ACAD_REACTORS
330
47
102
}
330
47
100
AcDbScale
 70
     0
300
3/32" = 1'-0"
140
0.09375
141
12.0
290
     0
  0
SCALE
  5
5E
102
{ACAD_REACTORS
330
47
102
}
330
47
100
AcDbScale
 70
     0
300
1/8" = 1'-0"
140
0.125
141
12.0
290
     0
  0
SCALE
  5
5F
102
{ACAD_REACTORS
330
47
102
}
330
47
100
AcDbScale
 70
     0
300
3/16" = 1'-0"
140
0.1875
141
12.0
290
     0
  0
SCALE
  5
60
102
{ACAD_REACTORS
330
47
102
}
330
47
100
AcDbScale
 70
     0
300
1/4" = 1'-0"
140
0.25
141
12.0
290
     0
  0
SCALE
  5
61
102
{ACAD_REACTORS
330
47
102
}
330
47
100
AcDbScale
 70
     0
300
3/8" = 1'-0"
140
0.375
141
12.0
290
     0
  0
SCALE
  5
62
102
{ACAD_REACTORS
330
47
102
}
330
47
100
AcDbScale
 70
     0
300
1/2" = 1'-0"
140
0.5
141
12.0
290
     0
  0
SCALE
  5
63
102
{ACAD_REACTORS
330
47
102
}
330
47
100
AcDbScale
 70
     0
300
3/4" = 1'-0"
140
0.75
141
12.0
290
     0
  0
SCALE
  5
64
102
{ACAD_REACTORS
330
47
102
}
330
47
100
AcDbScale
 70
     0
300
1" = 1'-0"
140
1.0
141
12.0
290
     0
  0
SCALE
  5
65
102
{ACAD_REACTORS
330
47
102
}
330
47
100
AcDbScale
 70
     0
300
1-1/2" = 1'-0"
140
1.5
141
12.0
290
     0
  0
SCALE
  5
66
102
{ACAD_REACTORS
330
47
102
}
330
47
100
AcDbScale
 70
     0
300
3" = 1'-0"
140
3.0
141
12.0
290
     0
  0
SCALE
  5
67
102
{ACAD_REACTORS
330
47
102
}
330
47
100
AcDbScale
 70
     0
300
6" = 1'-0"
140
6.0
141
12.0
290
     0
  0
SCALE
  5
68
102
{ACAD_REACTORS
330
47
102
}
330
47
100
AcDbScale
 70
     0
300
1'-0" = 1'-0"
140
12.0
141
12.0
290
     0
  0
TABLESTYLE
  5
6A
102
{ACAD_REACTORS
330
69
102
}
102
{ACAD_XDICTIONARY
360
278
102
}
330
69
100
AcDbTableStyle
  3
Standard
 70
     0
 71
     0
 40
0.06
 41
0.06
280
     0
281
     0
  7
STANDARD
140
4.5
170
     2
 62
     0
 63
   257
283
     0
 90
        4
 91
        0
  1

274
    -2
284
     1
 64
     0
275
    -2
285
     1
 65
     0
276
    -2
286
     1
 66
     0
277
    -2
287
     1
 67
     0
278
    -2
288
     1
 68
     0
279
    -2
289
     1
 69
     0
  7
STANDARD
140
6.0
170
     5
 62
     0
 63
   257
283
     0
 90
        4
 91
        0
  1

274
    -2
284
     1
 64
     0
275
    -2
285
     1
 65
     0
276
    -2
286
     1
 66
     0
277
    -2
287
     1
 67
     0
278
    -2
288
     1
 68
     0
279
    -2
289
     1
 69
     0
  7
STANDARD
140
4.5
170
     5
 62
     0
 63
   257
283
     0
 90
        4
 91
        0
  1

274
    -2
284
     1
 64
     0
275
    -2
285
     1
 65
     0
276
    -2
286
     1
 66
     0
277
    -2
287
     1
 67
     0
278
    -2
288
     1
 68
     0
279
    -2
289
     1
 69
     0
  0
VISUALSTYLE
  5
2F
102
{ACAD_REACTORS
330
2A
102
}
330
2A
100
AcDbVisualStyle
  2
2dWireframe
 70
     4
177
     2
291
     0
 71
     0
176
     1
 72
     2
176
     1
 73
     0
176
     1
 90
        0
176
     1
 40
0.6
176
     1
 41
30.0
176
     1
 62
     5
 63
     7
421
 16777215
176
     1
 74
     1
176
     1
 91
        4
176
     1
 64
     7
176
     1
 65
   257
176
     1
 75
     1
176
     1
175
     1
176
     1
 42
1.0
176
     1
 92
        0
176
     1
 66
   257
176
     1
 43
1.0
176
     1
 76
     1
176
     1
 77
     6
176
     1
 78
     2
176
     1
 67
     7
176
     1
 79
     5
176
     1
170
     0
176
     1
171
     0
176
     1
290
     0
176
     1
 93
        1
176
     1
 44
0.0
176
     1
173
     0
176
     1
  0
VISUALSTYLE
  5
32
102
{ACAD_REACTORS
330
2A
102
}
330
2A
100
AcDbVisualStyle
  2
Basic
 70
     7
177
     2
291
     1
 71
     1
176
     1
 72
     0
176
     1
 73
     1
176
     1
 90
        0
176
     1
 40
0.6
176
     1
 41
30.0
176
     1
 62
     5
 63
     7
421
 16777215
176
     1
 74
     0
176
     1
 91
        4
176
     1
 64
     7
176
     1
 65
   257
176
     1
 75
     1
176
     1
175
     1
176
     1
 42
1.0
176
     1
 92
        8
176
     1
 66
     7
176
     1
 43
1.0
176
     1
 76
     1
176
     1
 77
     6
176
     1
 78
     2
176
     1
 67
     7
176
     1
 79
     5
176
     1
170
     0
176
     1
171
     0
176
     1
290
     0
176
     1
 93
        1
176
     1
 44
0.0
176
     1
173
     0
176
     1
  0
VISUALSTYLE
  5
36
102
{ACAD_REACTORS
330
2A
102
}
330
2A
100
AcDbVisualStyle
  2
Brighten
 70
    12
177
     2
291
     1
 71
     2
176
     1
 72
     2
176
     1
 73
     0
176
     1
 90
        0
176
     1
 40
0.6
176
     1
 41
30.0
176
     1
 62
     5
 63
     7
421
 16777215
176
     1
 74
     1
176
     1
 91
        4
176
     1
 64
     7
176
     1
 65
   257
176
     1
 75
     1
176
     1
175
     1
176
     1
 42
1.0
176
     1
 92
        8
176
     1
 66
     7
176
     1
 43
1.0
176
     1
 76
     1
176
     1
 77
     6
176
     1
 78
     2
176
     1
 67
     7
176
     1
 79
     5
176
     1
170
     0
176
     1
171
     0
176
     1
290
     0
176
     1
 93
        1
176
     1
 44
50.0
176
     1
173
     0
176
     1
  0
VISUALSTYLE
  5
3A
102
{ACAD_REACTORS
330
2A
102
}
330
2A
100
AcDbVisualStyle
  2
ColorChange
 70
    16
177
     2
291
     1
 71
     2
176
     1
 72
     2
176
     1
 73
     3
176
     1
 90
        0
176
     1
 40
0.6
176
     1
 41
30.0
176
     1
 62
     5
 63
     8
421
  8421504
176
     1
 74
     1
176
     1
 91
        4
176
     1
 64
     7
176
     1
 65
   257
176
     1
 75
     1
176
     1
175
     1
176
     1
 42
1.0
176
     1
 92
        8
176
     1
 66
     8
424
  8421504
176
     1
 43
1.0
176
     1
 76
     1
176
     1
 77
     6
176
     1
 78
     2
176
     1
 67
     7
176
     1
 79
     5
176
     1
170
     0
176
     1
171
     0
176
     1
290
     0
176
     1
 93
        1
176
     1
 44
0.0
176
     1
173
     0
176
     1
  0
VISUALSTYLE
  5
34
102
{ACAD_REACTORS
330
2A
102
}
330
2A
100
AcDbVisualStyle
  2
Conceptual
 70
     9
177
     2
291
     0
 71
     3
176
     1
 72
     2
176
     1
 73
     0
176
     1
 90
        0
176
     1
 40
0.6
176
     1
 41
30.0
176
     1
 62
     5
 63
     7
421
 16777215
176
     1
 74
     2
176
     1
 91
        2
176
     1
 64
     7
176
     1
 65
   257
176
     1
 75
     1
176
     1
175
     1
176
     1
 42
179.0
176
     1
 92
        8
176
     1
 66
     7
176
     1
 43
1.0
176
     1
 76
     1
176
     1
 77
     6
176
     1
 78
     2
176
     1
 67
     7
176
     1
 79
     3
176
     1
170
     0
176
     1
171
     0
176
     1
290
     0
176
     1
 93
        1
176
     1
 44
0.0
176
     1
173
     0
176
     1
  0
VISUALSTYLE
  5
35
102
{ACAD_REACTORS
330
2A
102
}
330
2A
100
AcDbVisualStyle
  2
Dim
 70
    11
177
     2
291
     1
 71
     2
176
     1
 72
     2
176
     1
 73
     0
176
     1
 90
        0
176
     1
 40
0.6
176
     1
 41
30.0
176
     1
 62
     5
 63
     7
421
 16777215
176
     1
 74
     1
176
     1
 91
        4
176
     1
 64
     7
176
     1
 65
   257
176
     1
 75
     1
176
     1
175
     1
176
     1
 42
1.0
176
     1
 92
        8
176
     1
 66
     7
176
     1
 43
1.0
176
     1
 76
     1
176
     1
 77
     6
176
     1
 78
     2
176
     1
 67
     7
176
     1
 79
     5
176
     1
170
     0
176
     1
171
     0
176
     1
290
     0
176
     1
 93
        1
176
     1
 44
-50.0
176
     1
173
     0
176
     1
  0
VISUALSTYLE
  5
3D
102
{ACAD_REACTORS
330
2A
102
}
330
2A
100
AcDbVisualStyle
  2
EdgeColorOff
 70
    22
177
     2
291
     1
 71
     2
176
     0
 72
     2
176
     0
 73
     0
176
     0
 90
        0
176
     0
 40
0.6
176
     0
 41
30.0
176
     0
 62
     5
 63
     7
421
 16777215
176
     0
 74
     1
176
     0
 91
        4
176
     0
 64
     7
176
     0
 65
   257
176
     0
 75
     1
176
     0
175
     1
176
     0
 42
1.0
176
     0
 92
        8
176
     2
 66
     7
176
     0
 43
1.0
176
     0
 76
     1
176
     0
 77
     6
176
     0
 78
     2
176
     0
 67
     7
176
     0
 79
     5
176
     0
170
     0
176
     0
171
     0
176
     0
290
     0
176
     0
 93
        1
176
     0
 44
0.0
176
     0
173
     0
176
     0
  0
VISUALSTYLE
  5
39
102
{ACAD_REACTORS
330
2A
102
}
330
2A
100
AcDbVisualStyle
  2
Facepattern
 70
    15
177
     2
291
     1
 71
     2
176
     1
 72
     2
176
     1
 73
     0
176
     1
 90
        0
176
     1
 40
0.6
176
     1
 41
30.0
176
     1
 62
     5
 63
     7
421
 16777215
176
     1
 74
     1
176
     1
 91
        4
176
     1
 64
     7
176
     1
 65
   257
176
     1
 75
     1
176
     1
175
     1
176
     1
 42
1.0
176
     1
 92
        8
176
     1
 66
     7
176
     1
 43
1.0
176
     1
 76
     1
176
     1
 77
     6
176
     1
 78
     2
176
     1
 67
     7
176
     1
 79
     5
176
     1
170
     0
176
     1
171
     0
176
     1
290
     0
176
     1
 93
        1
176
     1
 44
0.0
176
     1
173
     0
176
     1
  0
VISUALSTYLE
  5
2B
102
{ACAD_REACTORS
330
2A
102
}
330
2A
100
AcDbVisualStyle
  2
Flat
 70
     0
177
     2
291
     1
 71
     2
176
     1
 72
     1
176
     1
 73
     1
176
     1
 90
        2
176
     1
 40
0.6
176
     1
 41
30.0
176
     1
 62
     5
 63
     7
421
 16777215
176
     1
 74
     0
176
     1
 91
        0
176
     1
 64
     7
176
     1
 65
   257
176
     1
 75
     1
176
     1
175
     1
176
     1
 42
1.0
176
     1
 92
        8
176
     1
 66
     7
176
     1
 43
1.0
176
     1
 76
     1
176
     1
 77
     6
176
     1
 78
     2
176
     1
 67
     7
176
     1
 79
     5
176
     1
170
     0
176
     1
171
     0
176
     1
290
     0
176
     1
 93
       13
176
     1
 44
0.0
176
     1
173
     0
176
     1
  0
VISUALSTYLE
  5
2C
102
{ACAD_REACTORS
330
2A
102
}
330
2A
100
AcDbVisualStyle
  2
FlatWithEdges
 70
     1
177
     2
291
     1
 71
     2
176
     1
 72
     1
176
     1
 73
     1
176
     1
 90
        2
176
     1
 40
0.6
176
     1
 41
30.0
176
     1
 62
     5
 63
     7
421
 16777215
176
     1
 74
     1
176
     1
 91
        0
176
     1
 64
     7
176
     1
 65
   257
176
     1
 75
     1
176
     1
175
     1
176
     1
 42
1.0
176
     1
 92
        0
176
     1
 66
   257
176
     1
 43
1.0
176
     1
 76
     1
176
     1
 77
     6
176
     1
 78
     2
176
     1
 67
     7
176
     1
 79
     5
176
     1
170
     0
176
     1
171
     0
176
     1
290
     0
176
     1
 93
       13
176
     1
 44
0.0
176
     1
173
     0
176
     1
  0
VISUALSTYLE
  5
2D
102
{ACAD_REACTORS
330
2A
102
}
330
2A
100
AcDbVisualStyle
  2
Gouraud
 70
     2
177
     2
291
     1
 71
     2
176
     1
 72
     2
176
     1
 73
     1
176
     1
 90
        2
176
     1
 40
0.6
176
     1
 41
30.0
176
     1
 62
     5
 63
     7
421
 16777215
176
     1
 74
     0
176
     1
 91
        0
176
     1
 64
     7
176
     1
 65
   257
176
     1
 75
     1
176
     1
175
     1
176
     1
 42
1.0
176
     1
 92
        0
176
     1
 66
     7
176
     1
 43
1.0
176
     1
 76
     1
176
     1
 77
     6
176
     1
 78
     2
176
     1
 67
     7
176
     1
 79
     5
176
     1
170
     0
176
     1
171
     0
176
     1
290
     0
176
     1
 93
       13
176
     1
 44
0.0
176
     1
173
     0
176
     1
  0
VISUALSTYLE
  5
2E
102
{ACAD_REACTORS
330
2A
102
}
330
2A
100
AcDbVisualStyle
  2
GouraudWithEdges
 70
     3
177
     2
291
     1
 71
     2
176
     1
 72
     2
176
     1
 73
     1
176
     1
 90
        2
176
     1
 40
0.6
176
     1
 41
30.0
176
     1
 62
     5
 63
     7
421
 16777215
176
     1
 74
     1
176
     1
 91
        0
176
     1
 64
     7
176
     1
 65
   257
176
     1
 75
     1
176
     1
175
     1
176
     1
 42
1.0
176
     1
 92
        0
176
     1
 66
   257
176
     1
 43
1.0
176
     1
 76
     1
176
     1
 77
     6
176
     1
 78
     2
176
     1
 67
     7
176
     1
 79
     5
176
     1
170
     0
176
     1
171
     0
176
     1
290
     0
176
     1
 93
       13
176
     1
 44
0.0
176
     1
173
     0
176
     1
  0
VISUALSTYLE
  5
31
102
{ACAD_REACTORS
330
2A
102
}
330
2A
100
AcDbVisualStyle
  2
Hidden
 70
     6
177
     2
291
     0
 71
     1
176
     1
 72
     2
176
     1
 73
     2
176
     1
 90
        0
176
     1
 40
0.6
176
     1
 41
30.0
176
     1
 62
     5
 63
     7
421
 16777215
176
     1
 74
     2
176
     1
 91
        2
176
     1
 64
     7
176
     1
 65
   257
176
     1
 75
     2
176
     1
175
     1
176
     1
 42
40.0
176
     1
 92
        0
176
     1
 66
   257
176
     1
 43
1.0
176
     1
 76
     1
176
     1
 77
     6
176
     1
 78
     2
176
     1
 67
     7
176
     1
 79
     3
176
     1
170
     0
176
     1
171
     0
176
     1
290
     0
176
     1
 93
        1
176
     1
 44
0.0
176
     1
173
     0
176
     1
  0
VISUALSTYLE
  5
3B
102
{ACAD_REACTORS
330
2A
102
}
330
2A
100
AcDbVisualStyle
  2
JitterOff
 70
    20
177
     2
291
     1
 71
     2
176
     0
 72
     2
176
     0
 73
     0
176
     0
 90
        0
176
     0
 40
0.6
176
     0
 41
30.0
176
     0
 62
     5
 63
     7
421
 16777215
176
     0
 74
     1
176
     0
 91
        4
176
     0
 64
     7
176
     0
 65
   257
176
     0
 75
     1
176
     0
175
     1
176
     0
 42
1.0
176
     0
 92
       10
176
     2
 66
     7
176
     0
 43
1.0
176
     0
 76
     1
176
     0
 77
     6
176
     0
 78
     2
176
     0
 67
     7
176
     0
 79
     5
176
     0
170
     0
176
     0
171
     0
176
     0
290
     0
176
     0
 93
        1
176
     0
 44
0.0
176
     0
173
     0
176
     0
  0
VISUALSTYLE
  5
38
102
{ACAD_REACTORS
330
2A
102
}
330
2A
100
AcDbVisualStyle
  2
Linepattern
 70
    14
177
     2
291
     1
 71
     2
176
     1
 72
     2
176
     1
 73
     0
176
     1
 90
        0
176
     1
 40
0.6
176
     1
 41
30.0
176
     1
 62
     5
 63
     7
421
 16777215
176
     1
 74
     1
176
     1
 91
        4
176
     1
 64
     7
176
     1
 65
   257
176
     1
 75
     7
176
     1
175
     7
176
     1
 42
1.0
176
     1
 92
        8
176
     1
 66
     7
176
     1
 43
1.0
176
     1
 76
     1
176
     1
 77
     6
176
     1
 78
     2
176
     1
 67
     7
176
     1
 79
     5
176
     1
170
     0
176
     1
171
     0
176
     1
290
     0
176
     1
 93
        1
176
     1
 44
0.0
176
     1
173
     0
176
     1
  0
VISUALSTYLE
  5
3C
102
{ACAD_REACTORS
330
2A
102
}
330
2A
100
AcDbVisualStyle
  2
OverhangOff
 70
    21
177
     2
291
     1
 71
     2
176
     0
 72
     2
176
     0
 73
     0
176
     0
 90
        0
176
     0
 40
0.6
176
     0
 41
30.0
176
     0
 62
     5
 63
     7
421
 16777215
176
     0
 74
     1
176
     0
 91
        4
176
     0
 64
     7
176
     0
 65
   257
176
     0
 75
     1
176
     0
175
     1
176
     0
 42
1.0
176
     0
 92
        9
176
     2
 66
     7
176
     0
 43
1.0
176
     0
 76
     1
176
     0
 77
     6
176
     0
 78
     2
176
     0
 67
     7
176
     0
 79
     5
176
     0
170
     0
176
     0
171
     0
176
     0
290
     0
176
     0
 93
        1
176
     0
 44
0.0
176
     0
173
     0
176
     0
  0
VISUALSTYLE
  5
33
102
{ACAD_REACTORS
330
2A
102
}
330
2A
100
AcDbVisualStyle
  2
Realistic
 70
     8
177
     2
291
     0
 71
     2
176
     1
 72
     3
176
     1
 73
     0
176
     1
 90
        2
176
     1
 40
0.6
176
     1
 41
30.0
176
     1
 62
     5
 63
     7
421
 16777215
176
     1
 74
     0
176
     1
 91
        0
176
     1
 64
     7
176
     1
 65
   257
176
     1
 75
     1
176
     1
175
     1
176
     1
 42
1.0
176
     1
 92
        8
176
     1
 66
   257
176
     1
 43
1.0
176
     1
 76
     1
176
     1
 77
     6
176
     1
 78
     2
176
     1
 67
     7
176
     1
 79
     3
176
     1
170
     0
176
     1
171
     0
176
     1
290
     0
176
     1
 93
       13
176
     1
 44
0.0
176
     1
173
     0
176
     1
  0
VISUALSTYLE
  5
42
102
{ACAD_REACTORS
330
2A
102
}
330
2A
100
AcDbVisualStyle
  2
Shaded
 70
    27
177
     2
291
     0
 71
     2
176
     1
 72
     2
176
     1
 73
     1
176
     1
 90
        2
176
     1
 40
0.6
176
     1
 41
30.0
176
     1
 62
     5
 63
     7
421
 16777215
176
     1
 74
     0
176
     1
 91
        4
176
     1
 64
     7
176
     1
 65
   257
176
     1
 75
     1
176
     1
175
     1
176
     1
 42
1.0
176
     1
 92
        8
176
     1
 66
   257
176
     1
 43
1.0
176
     1
 76
     1
176
     1
 77
     6
176
     1
 78
     2
176
     1
 67
     8
425
  7895160
176
     1
 79
     3
176
     1
170
     0
176
     1
171
     0
176
     1
290
     0
176
     1
 93
        5
176
     1
 44
0.0
176
     1
173
     0
176
     1
  0
VISUALSTYLE
  5
41
102
{ACAD_REACTORS
330
2A
102
}
330
2A
100
AcDbVisualStyle
  2
Shaded with edges
 70
    26
177
     2
291
     0
 71
     2
176
     1
 72
     2
176
     1
 73
     1
176
     1
 90
        2
176
     1
 40
0.6
176
     1
 41
30.0
176
     1
 62
     5
 63
     7
421
 16777215
176
     1
 74
     1
176
     1
 91
       10
176
     1
 64
     7
176
     1
 65
   257
176
     1
 75
     2
176
     1
175
     1
176
     1
 42
1.0
176
     1
 92
        8
176
     1
 66
   257
176
     1
 43
1.0
176
     1
 76
     1
176
     1
 77
     6
176
     1
 78
     2
176
     1
 67
     7
176
     1
 79
     3
176
     1
170
     0
176
     1
171
     0
176
     1
290
     0
176
     1
 93
        5
176
     1
 44
0.0
176
     1
173
     0
176
     1
  0
VISUALSTYLE
  5
3E
102
{ACAD_REACTORS
330
2A
102
}
330
2A
100
AcDbVisualStyle
  2
Shades of Gray
 70
    23
177
     2
291
     0
 71
     2
176
     1
 72
     2
176
     1
 73
     3
176
     1
 90
        0
176
     1
 40
0.6
176
     1
 41
30.0
176
     1
 62
     5
 63
     7
421
 16777215
176
     1
 74
     2
176
     1
 91
        2
176
     1
 64
     7
176
     1
 65
     7
176
     1
 75
     1
176
     1
175
     1
176
     1
 42
40.0
176
     1
 92
        8
176
     1
 66
     7
176
     1
 43
1.0
176
     1
 76
     1
176
     1
 77
     6
176
     1
 78
     2
176
     1
 67
     7
176
     1
 79
     3
176
     1
170
     0
176
     1
171
     0
176
     1
290
     0
176
     1
 93
        1
176
     1
 44
0.0
176
     1
173
     0
176
     1
  0
VISUALSTYLE
  5
3F
102
{ACAD_REACTORS
330
2A
102
}
330
2A
100
AcDbVisualStyle
  2
Sketchy
 70
    24
177
     2
291
     0
 71
     1
176
     1
 72
     2
176
     1
 73
     2
176
     1
 90
        0
176
     1
 40
0.6
176
     1
 41
30.0
176
     1
 62
     5
 63
     7
421
 16777215
176
     1
 74
     2
176
     1
 91
        2
176
     1
 64
     7
176
     1
 65
     7
176
     1
 75
     1
176
     1
175
     1
176
     1
 42
40.0
176
     1
 92
       11
176
     1
 66
     7
176
     1
 43
1.0
176
     1
 76
     1
176
     1
 77
     6
176
     1
 78
     2
176
     1
 67
     7
176
     1
 79
     6
176
     1
170
     0
176
     1
171
     0
176
     1
290
     0
176
     1
 93
        1
176
     1
 44
0.0
176
     1
173
     0
176
     1
  0
VISUALSTYLE
  5
37
102
{ACAD_REACTORS
330
2A
102
}
330
2A
100
AcDbVisualStyle
  2
Thicken
 70
    13
177
     2
291
     1
 71
     2
176
     1
 72
     2
176
     1
 73
     0
176
     1
 90
        0
176
     1
 40
0.6
176
     1
 41
30.0
176
     1
 62
     5
 63
     7
421
 16777215
176
     1
 74
     1
176
     1
 91
        4
176
     1
 64
     7
176
     1
 65
   257
176
     1
 75
     1
176
     1
175
     1
176
     1
 42
1.0
176
     1
 92
       12
176
     1
 66
     7
176
     1
 43
1.0
176
     1
 76
     1
176
     1
 77
     6
176
     1
 78
     2
176
     1
 67
     7
176
     1
 79
     5
176
     1
170
     0
176
     1
171
     0
176
     1
290
     0
176
     1
 93
        1
176
     1
 44
0.0
176
     1
173
     0
176
     1
  0
VISUALSTYLE
  5
30
102
{ACAD_REACTORS
330
2A
102
}
330
2A
100
AcDbVisualStyle
  2
Wireframe
 70
     5
177
     2
291
     0
 71
     0
176
     1
 72
     2
176
     1
 73
     0
176
     1
 90
        0
176
     1
 40
0.6
176
     1
 41
30.0
176
     1
 62
     5
 63
     7
421
 16777215
176
     1
 74
     1
176
     1
 91
        4
176
     1
 64
     7
176
     1
 65
   257
176
     1
 75
     1
176
     1
175
     1
176
     1
 42
1.0
176
     1
 92
        0
176
     1
 66
   257
176
     1
 43
1.0
176
     1
 76
     1
176
     1
 77
     6
176
     1
 78
     2
176
     1
 67
     7
176
     1
 79
     3
176
     1
170
     0
176
     1
171
     0
176
     1
290
     0
176
     1
 93
        1
176
     1
 44
0.0
176
     1
173
     0
176
     1
  0
VISUALSTYLE
  5
40
102
{ACAD_REACTORS
330
2A
102
}
330
2A
100
AcDbVisualStyle
  2
X-Ray
 70
    25
177
     2
291
     0
 71
     2
176
     1
 72
     2
176
     1
 73
     1
176
     1
 90
        1
176
     1
 40
0.5
176
     1
 41
30.0
176
     1
 62
     5
 63
     7
421
 16777215
176
     1
 74
     1
176
     1
 91
        0
176
     1
 64
     7
176
     1
 65
   257
176
     1
 75
     1
176
     1
175
     1
176
     1
 42
1.0
176
     1
 92
        8
176
     1
 66
     7
176
     1
 43
1.0
176
     1
 76
     1
176
     1
 77
     6
176
     1
 78
     2
176
     1
 67
     7
176
     1
 79
     3
176
     1
170
     0
176
     1
171
     0
176
     1
290
     0
176
     1
 93
       13
176
     1
 44
0.0
176
     1
173
     0
176
     1
  0
DICTIONARYVAR
  5
277
102
{ACAD_REACTORS
330
276
102
}
330
276
100
DictionaryVariables
280
     0
  1
1:1
  0
DICTIONARYVAR
  5
27F
102
{ACAD_REACTORS
330
276
102
}
330
276
100
DictionaryVariables
280
     0
  1
3.500000
  0
DICTIONARYVAR
  5
280
102
{ACAD_REACTORS
330
276
102
}
330
276
100
DictionaryVariables
280
     0
  1
acadiso.lin
  0
DICTIONARYVAR
  5
27C
102
{ACAD_REACTORS
330
276
102
}
330
276
100
DictionaryVariables
280
     0
  1
Standard
  0
DICTIONARYVAR
  5
27B
102
{ACAD_REACTORS
330
276
102
}
330
276
100
DictionaryVariables
280
     0
  1
Standard
  0
DICTIONARY
  5
278
330
6A
100
AcDbDictionary
280
     1
281
     1
  3
ACAD_ROUNDTRIP_2008_TABLESTYLE_CELLSTYLEMAP
360
279
  0
CELLSTYLEMAP
  5
279
102
{ACAD_REACTORS
330
278
102
}
330
278
100
AcDbCellStyleMap
 90
        3
300
CELLSTYLE
  1
TABLEFORMAT_BEGIN
 90
        5
170
     1
 91
        0
 92
    32768
 62
   257
 93
        1
300
CONTENTFORMAT
  1
CONTENTFORMAT_BEGIN
 90
        0
 91
        0
 92
        4
 93
        0
300

 40
0.0
140
1.0
 94
        5
 62
     0
340
11
144
6.0
309
CONTENTFORMAT_END
171
     1
301
MARGIN
  1
CELLMARGIN_BEGIN
 40
1.5
 40
1.5
 40
1.5
 40
1.5
 40
1.5
 40
1.5
309
CELLMARGIN_END
 94
        6
 95
        1
302
GRIDFORMAT
  1
GRIDFORMAT_BEGIN
 90
        0
 91
        1
 62
     0
 92
       -2
340
14
 93
        0
 40
0.045
309
GRIDFORMAT_END
 95
        2
302
GRIDFORMAT
  1
GRIDFORMAT_BEGIN
 90
        0
 91
        1
 62
     0
 92
       -2
340
14
 93
        0
 40
0.045
309
GRIDFORMAT_END
 95
        4
302
GRIDFORMAT
  1
GRIDFORMAT_BEGIN
 90
        0
 91
        1
 62
     0
 92
       -2
340
14
 93
        0
 40
0.045
309
GRIDFORMAT_END
 95
        8
302
GRIDFORMAT
  1
GRIDFORMAT_BEGIN
 90
        0
 91
        1
 62
     0
 92
       -2
340
14
 93
        0
 40
0.045
309
GRIDFORMAT_END
 95
       16
302
GRIDFORMAT
  1
GRIDFORMAT_BEGIN
 90
        0
 91
        1
 62
     0
 92
       -2
340
14
 93
        0
 40
0.045
309
GRIDFORMAT_END
 95
       32
302
GRIDFORMAT
  1
GRIDFORMAT_BEGIN
 90
        0
 91
        1
 62
     0
 92
       -2
340
14
 93
        0
 40
0.045
309
GRIDFORMAT_END
309
TABLEFORMAT_END
  1
CELLSTYLE_BEGIN
 90
        1
 91
        1
300
_TITLE
309
CELLSTYLE_END
300
CELLSTYLE
  1
TABLEFORMAT_BEGIN
 90
        5
170
     1
 91
        0
 92
        0
 62
   257
 93
        1
300
CONTENTFORMAT
  1
CONTENTFORMAT_BEGIN
 90
        0
 91
        0
 92
        4
 93
        0
300

 40
0.0
140
1.0
 94
        5
 62
     0
340
11
144
4.5
309
CONTENTFORMAT_END
171
     1
301
MARGIN
  1
CELLMARGIN_BEGIN
 40
1.5
 40
1.5
 40
1.5
 40
1.5
 40
1.5
 40
1.5
309
CELLMARGIN_END
 94
        6
 95
        1
302
GRIDFORMAT
  1
GRIDFORMAT_BEGIN
 90
        0
 91
        1
 62
     0
 92
       -2
340
14
 93
        0
 40
0.045
309
GRIDFORMAT_END
 95
        2
302
GRIDFORMAT
  1
GRIDFORMAT_BEGIN
 90
        0
 91
        1
 62
     0
 92
       -2
340
14
 93
        0
 40
0.045
309
GRIDFORMAT_END
 95
        4
302
GRIDFORMAT
  1
GRIDFORMAT_BEGIN
 90
        0
 91
        1
 62
     0
 92
       -2
340
14
 93
        0
 40
0.045
309
GRIDFORMAT_END
 95
        8
302
GRIDFORMAT
  1
GRIDFORMAT_BEGIN
 90
        0
 91
        1
 62
     0
 92
       -2
340
14
 93
        0
 40
0.045
309
GRIDFORMAT_END
 95
       16
302
GRIDFORMAT
  1
GRIDFORMAT_BEGIN
 90
        0
 91
        1
 62
     0
 92
       -2
340
14
 93
        0
 40
0.045
309
GRIDFORMAT_END
 95
       32
302
GRIDFORMAT
  1
GRIDFORMAT_BEGIN
 90
        0
 91
        1
 62
     0
 92
       -2
340
14
 93
        0
 40
0.045
309
GRIDFORMAT_END
309
TABLEFORMAT_END
  1
CELLSTYLE_BEGIN
 90
        2
 91
        1
300
_HEADER
309
CELLSTYLE_END
300
CELLSTYLE
  1
TABLEFORMAT_BEGIN
 90
        5
170
     1
 91
        0
 92
        0
 62
   257
 93
        1
300
CONTENTFORMAT
  1
CONTENTFORMAT_BEGIN
 90
        0
 91
        0
 92
        4
 93
        0
300

 40
0.0
140
1.0
 94
        2
 62
     0
340
11
144
4.5
309
CONTENTFORMAT_END
171
     1
301
MARGIN
  1
CELLMARGIN_BEGIN
 40
1.5
 40
1.5
 40
1.5
 40
1.5
 40
1.5
 40
1.5
309
CELLMARGIN_END
 94
        6
 95
        1
302
GRIDFORMAT
  1
GRIDFORMAT_BEGIN
 90
        0
 91
        1
 62
     0
 92
       -2
340
14
 93
        0
 40
0.045
309
GRIDFORMAT_END
 95
        2
302
GRIDFORMAT
  1
GRIDFORMAT_BEGIN
 90
        0
 91
        1
 62
     0
 92
       -2
340
14
 93
        0
 40
0.045
309
GRIDFORMAT_END
 95
        4
302
GRIDFORMAT
  1
GRIDFORMAT_BEGIN
 90
        0
 91
        1
 62
     0
 92
       -2
340
14
 93
        0
 40
0.045
309
GRIDFORMAT_END
 95
        8
302
GRIDFORMAT
  1
GRIDFORMAT_BEGIN
 90
        0
 91
        1
 62
     0
 92
       -2
340
14
 93
        0
 40
0.045
309
GRIDFORMAT_END
 95
       16
302
GRIDFORMAT
  1
GRIDFORMAT_BEGIN
 90
        0
 91
        1
 62
     0
 92
       -2
340
14
 93
        0
 40
0.045
309
GRIDFORMAT_END
 95
       32
302
GRIDFORMAT
  1
GRIDFORMAT_BEGIN
 90
        0
 91
        1
 62
     0
 92
       -2
340
14
 93
        0
 40
0.045
309
GRIDFORMAT_END
309
TABLEFORMAT_END
  1
CELLSTYLE_BEGIN
 90
        3
 91
        2
300
_DATA
309
CELLSTYLE_END
  0
ENDSEC
  0
EOF
